  0
SECTION
  2
HEADER
  9
$ACADVER
  1
AC1009
  9
$DWGCODEPAGE
  3
mac-roman
  9
$INSBASE
 10
0.0
 20
0.0
 30
0.0
  9
$EXTMIN
 10
-19.43072120960835
 20
-19.17919083796294
 30
-14.3879375717066
  9
$EXTMAX
 10
23.87981940563541
 20
20.83055666016896
 30
7.600000000000001
  9
$LIMMIN
 10
0.0
 20
0.0
  9
$LIMMAX
 10
12.0
 20
9.0
  9
$ORTHOMODE
 70
     0
  9
$REGENMODE
 70
     1
  9
$FILLMODE
 70
     1
  9
$QTEXTMODE
 70
     0
  9
$MIRRTEXT
 70
     1
  9
$DRAGMODE
 70
     2
  9
$LTSCALE
 40
1.0
  9
$OSMODE
 70
    37
  9
$ATTMODE
 70
     1
  9
$TEXTSIZE
 40
0.2
  9
$TRACEWID
 40
0.05
  9
$TEXTSTYLE
  7
STANDARD
  9
$CLAYER
  8
PAREDES
  9
$CELTYPE
  6
BYLAYER
  9
$CECOLOR
 62
   256
  9
$DIMSCALE
 40
1.0
  9
$DIMASZ
 40
0.18
  9
$DIMEXO
 40
0.0625
  9
$DIMDLI
 40
0.38
  9
$DIMRND
 40
0.0
  9
$DIMDLE
 40
0.0
  9
$DIMEXE
 40
0.18
  9
$DIMTP
 40
0.0
  9
$DIMTM
 40
0.0
  9
$DIMTXT
 40
0.18
  9
$DIMCEN
 40
0.09
  9
$DIMTSZ
 40
0.0
  9
$DIMTOL
 70
     0
  9
$DIMLIM
 70
     0
  9
$DIMTIH
 70
     1
  9
$DIMTOH
 70
     1
  9
$DIMSE1
 70
     0
  9
$DIMSE2
 70
     0
  9
$DIMTAD
 70
     0
  9
$DIMZIN
 70
     0
  9
$DIMBLK
  1

  9
$DIMASO
 70
     1
  9
$DIMSHO
 70
     1
  9
$DIMPOST
  1

  9
$DIMAPOST
  1

  9
$DIMALT
 70
     0
  9
$DIMALTD
 70
     2
  9
$DIMALTF
 40
25.4
  9
$DIMLFAC
 40
1.0
  9
$DIMTOFL
 70
     0
  9
$DIMTVP
 40
0.0
  9
$DIMTIX
 70
     0
  9
$DIMSOXD
 70
     0
  9
$DIMSAH
 70
     0
  9
$DIMBLK1
  1

  9
$DIMBLK2
  1

  9
$DIMSTYLE
  2
STANDARD
  9
$DIMCLRD
 70
     0
  9
$DIMCLRE
 70
     0
  9
$DIMCLRT
 70
     0
  9
$DIMTFAC
 40
1.0
  9
$DIMGAP
 40
0.09
  9
$LUNITS
 70
     2
  9
$LUPREC
 70
     2
  9
$SKETCHINC
 40
0.1
  9
$FILLETRAD
 40
0.5
  9
$AUNITS
 70
     0
  9
$AUPREC
 70
     0
  9
$MENU
  1
.
  9
$ELEVATION
 40
0.0
  9
$PELEVATION
 40
0.0
  9
$THICKNESS
 40
0.0
  9
$LIMCHECK
 70
     0
  9
$CHAMFERA
 40
0.0
  9
$CHAMFERB
 40
0.0
  9
$SKPOLY
 70
     0
  9
$TDCREATE
 40
2457946.935914352
  9
$TDUPDATE
 40
2457946.9359375
  9
$TDINDWG
 40
0.0000000116
  9
$TDUSRTIMER
 40
0.0000000116
  9
$USRTIMER
 70
     1
  9
$ANGBASE
 50
0.0
  9
$ANGDIR
 70
     0
  9
$PDMODE
 70
     0
  9
$PDSIZE
 40
0.0
  9
$PLINEWID
 40
0.0
  9
$COORDS
 70
     1
  9
$SPLFRAME
 70
     0
  9
$SPLINETYPE
 70
     6
  9
$SPLINESEGS
 70
     8
  9
$ATTDIA
 70
     0
  9
$ATTREQ
 70
     1
  9
$HANDLING
 70
     1
  9
$HANDSEED
  5
59D
  9
$SURFTAB1
 70
     6
  9
$SURFTAB2
 70
     6
  9
$SURFTYPE
 70
     6
  9
$SURFU
 70
     6
  9
$SURFV
 70
     6
  9
$UCSNAME
  2

  9
$UCSORG
 10
0.0
 20
0.0
 30
0.0
  9
$UCSXDIR
 10
1.0
 20
0.0
 30
0.0
  9
$UCSYDIR
 10
0.0
 20
1.0
 30
0.0
  9
$PUCSNAME
  2

  9
$PUCSORG
 10
0.0
 20
0.0
 30
0.0
  9
$PUCSXDIR
 10
1.0
 20
0.0
 30
0.0
  9
$PUCSYDIR
 10
0.0
 20
1.0
 30
0.0
  9
$USERI1
 70
     0
  9
$USERI2
 70
     0
  9
$USERI3
 70
     0
  9
$USERI4
 70
     0
  9
$USERI5
 70
     0
  9
$USERR1
 40
0.0
  9
$USERR2
 40
0.0
  9
$USERR3
 40
0.0
  9
$USERR4
 40
0.0
  9
$USERR5
 40
0.0
  9
$WORLDVIEW
 70
     1
  9
$SHADEDGE
 70
     3
  9
$SHADEDIF
 70
    70
  9
$TILEMODE
 70
     1
  9
$MAXACTVP
 70
    64
  9
$PLIMCHECK
 70
     0
  9
$PEXTMIN
 10
1.000000000000000E+20
 20
1.000000000000000E+20
 30
1.000000000000000E+20
  9
$PEXTMAX
 10
-1.000000000000000E+20
 20
-1.000000000000000E+20
 30
-1.000000000000000E+20
  9
$PLIMMIN
 10
0.0
 20
0.0
  9
$PLIMMAX
 10
12.0
 20
9.0
  9
$UNITMODE
 70
     0
  9
$VISRETAIN
 70
     1
  9
$PLINEGEN
 70
     0
  9
$PSLTSCALE
 70
     1
  0
ENDSEC
  0
SECTION
  2
TABLES
  0
TABLE
  2
VPORT
 70
     1
  0
VPORT
  2
*ACTIVE
 70
     0
 10
0.0
 20
0.0
 11
1.0
 21
1.0
 12
2.224549098013529
 22
0.8256829111030086
 13
0.0
 23
0.0
 14
0.5
 24
0.5
 15
0.5
 25
0.5
 16
0.0
 26
0.0
 36
1.0
 17
0.0
 27
0.0
 37
0.0
 40
40.80994244809454
 41
1.082499723780211
 42
50.0
 43
0.0
 44
0.0
 50
0.0
 51
0.0
 71
     0
 72
   100
 73
     1
 74
     3
 75
     0
 76
     0
 77
     0
 78
     0
  0
ENDTAB
  0
TABLE
  2
LTYPE
 70
     1
  0
LTYPE
  2
CONTINUOUS
 70
     0
  3
Solid line
 72
    65
 73
     0
 40
0.0
  0
ENDTAB
  0
TABLE
  2
LAYER
 70
     4
  0
LAYER
  2
0
 70
     0
 62
     7
  6
CONTINUOUS
  0
LAYER
  2
PAREDES
 70
     0
 62
     7
  6
CONTINUOUS
  0
LAYER
  2
DEFAULT
 70
     0
 62
     7
  6
CONTINUOUS
  0
LAYER
  2
DISCO
 70
     0
 62
   -96
  6
CONTINUOUS
  0
ENDTAB
  0
TABLE
  2
STYLE
 70
     1
  0
STYLE
  2
STANDARD
 70
     0
 40
0.0
 41
1.0
 50
0.0
 71
     0
 42
0.2
  3
txt
  4

  0
ENDTAB
  0
TABLE
  2
VIEW
 70
     0
  0
ENDTAB
  0
TABLE
  2
UCS
 70
     0
  0
ENDTAB
  0
TABLE
  2
APPID
 70
     1
  0
APPID
  2
ACAD
 70
     0
  0
ENDTAB
  0
TABLE
  2
DIMSTYLE
 70
     1
  0
DIMSTYLE
  2
STANDARD
 70
     0
  3

  4

  5

  6

  7

 40
1.0
 41
0.18
 42
0.0625
 43
0.38
 44
0.18
 45
0.0
 46
0.0
 47
0.0
 48
0.0
140
0.18
141
0.09
142
0.0
143
25.4
144
1.0
145
0.0
146
1.0
147
0.09
 71
     0
 72
     0
 73
     1
 74
     1
 75
     0
 76
     0
 77
     0
 78
     0
170
     0
171
     2
172
     0
173
     0
174
     0
175
     0
176
     0
177
     0
178
     0
  0
ENDTAB
  0
ENDSEC
  0
SECTION
  2
BLOCKS
  0
BLOCK
  8
0
  2
$MODEL_SPACE
 70
     0
 10
0.0
 20
0.0
 30
0.0
  3
$MODEL_SPACE
  1

  0
ENDBLK
  5
21
  8
0
  0
BLOCK
 67
     1
  8
0
  2
$PAPER_SPACE
 70
     0
 10
0.0
 20
0.0
 30
0.0
  3
$PAPER_SPACE
  1

  0
ENDBLK
  5
1D
 67
     1
  8
0
  0
ENDSEC
  0
SECTION
  2
ENTITIES
  0
LINE
  5
6F
  8
PAREDES
 10
19.96927879039164
 20
-19.17919083796294
 30
-13.7879375717066
 11
20.56927879039165
 21
-19.17919083796294
 31
-13.7879375717066
  0
LINE
  5
70
  8
PAREDES
 10
20.56927879039165
 20
-19.17919083796294
 30
-13.7879375717066
 11
20.56927879039165
 21
-19.17919083796294
 31
7.0
  0
LINE
  5
71
  8
PAREDES
 10
19.96927879039164
 20
-19.17919083796294
 30
7.0
 11
20.56927879039165
 21
-19.17919083796294
 31
7.0
  0
LINE
  5
72
  8
PAREDES
 10
19.96927879039164
 20
-19.17919083796294
 30
-13.7879375717066
 11
19.96927879039164
 21
-19.17919083796294
 31
7.0
  0
LINE
  5
73
  8
PAREDES
 10
20.56927879039165
 20
-19.17919083796294
 30
-13.7879375717066
 11
20.56927879039165
 21
20.82080916203706
 31
-13.7879375717066
  0
LINE
  5
74
  8
PAREDES
 10
20.56927879039165
 20
20.82080916203706
 30
-13.7879375717066
 11
20.56927879039165
 21
20.82080916203706
 31
7.0
  0
LINE
  5
75
  8
PAREDES
 10
20.56927879039165
 20
-19.17919083796294
 30
7.0
 11
20.56927879039165
 21
20.82080916203706
 31
7.0
  0
LINE
  5
76
  8
PAREDES
 10
20.56927879039165
 20
20.82080916203706
 30
-13.7879375717066
 11
19.96927879039164
 21
20.82080916203706
 31
-13.7879375717066
  0
LINE
  5
77
  8
PAREDES
 10
19.96927879039164
 20
20.82080916203706
 30
-13.7879375717066
 11
19.96927879039164
 21
20.82080916203706
 31
7.0
  0
LINE
  5
78
  8
PAREDES
 10
20.56927879039165
 20
20.82080916203706
 30
7.0
 11
19.96927879039164
 21
20.82080916203706
 31
7.0
  0
LINE
  5
79
  8
PAREDES
 10
19.96927879039164
 20
20.82080916203706
 30
-13.7879375717066
 11
19.96927879039164
 21
-19.17919083796294
 31
-13.7879375717066
  0
LINE
  5
7A
  8
PAREDES
 10
19.96927879039164
 20
20.82080916203706
 30
7.0
 11
19.96927879039164
 21
-19.17919083796294
 31
7.0
  0
LINE
  5
7B
  8
PAREDES
 10
20.56927879039164
 20
4.242947560982182
 30
-1.645468540616406
 11
20.56927879039164
 21
4.044756419317905
 31
-1.642449746259385
  0
LINE
  5
7C
  8
PAREDES
 10
20.56927879039164
 20
4.044756419317905
 30
-1.642449746259385
 11
20.56927879039164
 21
3.860671451786303
 31
-1.633650281857002
  0
LINE
  5
7D
  8
PAREDES
 10
20.56927879039164
 20
3.860671451786303
 30
-1.633650281857002
 11
20.56927879039164
 21
3.773656843949006
 31
-1.627203229014745
  0
LINE
  5
7E
  8
PAREDES
 10
20.56927879039164
 20
3.773656843949006
 30
-1.627203229014745
 11
20.56927879039164
 21
3.689854452399378
 31
-1.619455525412282
  0
LINE
  5
7F
  8
PAREDES
 10
20.56927879039164
 20
3.689854452399378
 30
-1.619455525412282
 11
20.56927879039164
 21
3.60915950138892
 31
-1.61045534329999
  0
LINE
  5
80
  8
PAREDES
 10
20.56927879039164
 20
3.60915950138892
 30
-1.61045534329999
 11
20.56927879039164
 21
3.53146721516913
 31
-1.600250854928248
  0
LINE
  5
81
  8
PAREDES
 10
20.56927879039164
 20
3.53146721516913
 30
-1.600250854928248
 11
20.56927879039164
 21
3.45667281799151
 31
-1.588890232547434
  0
LINE
  5
82
  8
PAREDES
 10
20.56927879039164
 20
3.45667281799151
 30
-1.588890232547434
 11
20.56927879039164
 21
3.38467153410756
 31
-1.576421648407926
  0
LINE
  5
83
  8
PAREDES
 10
20.56927879039164
 20
3.38467153410756
 30
-1.576421648407926
 11
20.56927879039164
 21
3.31535858776878
 31
-1.562893274760102
  0
LINE
  5
84
  8
PAREDES
 10
20.56927879039164
 20
3.31535858776878
 30
-1.562893274760102
 11
20.56927879039164
 21
3.248629203226669
 31
-1.548353283854339
  0
LINE
  5
85
  8
PAREDES
 10
20.56927879039164
 20
3.248629203226669
 30
-1.548353283854339
 11
20.56927879039164
 21
3.184378604732729
 31
-1.532849847941017
  0
LINE
  5
86
  8
PAREDES
 10
20.56927879039164
 20
3.184378604732729
 30
-1.532849847941017
 11
20.56927879039164
 21
3.122502016538459
 31
-1.516431139270512
  0
LINE
  5
87
  8
PAREDES
 10
20.56927879039164
 20
3.122502016538459
 30
-1.516431139270512
 11
20.56927879039164
 21
3.06289466289536
 31
-1.499145330093202
  0
LINE
  5
88
  8
PAREDES
 10
20.56927879039164
 20
3.06289466289536
 30
-1.499145330093202
 11
20.56927879039164
 21
3.005451768054931
 31
-1.481040592659467
  0
LINE
  5
89
  8
PAREDES
 10
20.56927879039164
 20
3.005451768054931
 30
-1.481040592659467
 11
20.56927879039164
 21
2.950068556268673
 31
-1.462165099219684
  0
LINE
  5
8A
  8
PAREDES
 10
20.56927879039164
 20
2.950068556268673
 30
-1.462165099219684
 11
20.56927879039164
 21
2.896640251788085
 31
-1.44256702202423
  0
LINE
  5
8B
  8
PAREDES
 10
20.56927879039164
 20
2.896640251788085
 30
-1.44256702202423
 11
20.56927879039164
 21
2.845062078864669
 31
-1.422294533323485
  0
LINE
  5
8C
  8
PAREDES
 10
20.56927879039164
 20
2.845062078864669
 30
-1.422294533323485
 11
20.56927879039164
 21
2.795229261749923
 31
-1.401395805367825
  0
LINE
  5
8D
  8
PAREDES
 10
20.56927879039164
 20
2.795229261749923
 30
-1.401395805367825
 11
20.56927879039164
 21
2.747037024695349
 31
-1.379919010407629
  0
LINE
  5
8E
  8
PAREDES
 10
20.56927879039164
 20
2.747037024695349
 30
-1.379919010407629
 11
20.56927879039164
 21
2.700380591952446
 31
-1.357912320693275
  0
LINE
  5
8F
  8
PAREDES
 10
20.56927879039164
 20
2.700380591952446
 30
-1.357912320693275
 11
20.56927879039164
 21
2.655155187772715
 31
-1.335423908475141
  0
LINE
  5
90
  8
PAREDES
 10
20.56927879039164
 20
2.655155187772715
 30
-1.335423908475141
 11
20.56927879039164
 21
2.611256036407655
 31
-1.312501946003605
  0
LINE
  5
91
  8
PAREDES
 10
20.56927879039164
 20
2.611256036407655
 30
-1.312501946003605
 11
20.56927879039164
 21
2.52701738912755
 31
-1.265550059301838
  0
LINE
  5
92
  8
PAREDES
 10
20.56927879039164
 20
2.52701738912755
 30
-1.265550059301838
 11
20.56927879039164
 21
2.446826444124134
 31
-1.217442038590999
  0
LINE
  5
93
  8
PAREDES
 10
20.56927879039164
 20
2.446826444124134
 30
-1.217442038590999
 11
20.56927879039164
 21
2.369844995409407
 31
-1.168563261874112
  0
LINE
  5
94
  8
PAREDES
 10
20.56927879039164
 20
2.369844995409407
 30
-1.168563261874112
 11
20.56927879039164
 21
2.00374298658615
 31
-0.9260962683047979
  0
LINE
  5
95
  8
PAREDES
 10
20.56927879039164
 20
2.00374298658615
 30
-0.9260962683047979
 11
20.56927879039164
 21
1.928416189855582
 31
-0.8806858936151275
  0
LINE
  5
96
  8
PAREDES
 10
20.56927879039164
 20
1.928416189855582
 30
-0.8806858936151275
 11
20.56927879039164
 21
1.889808449754309
 31
-0.8586792039007736
  0
LINE
  5
97
  8
PAREDES
 10
20.56927879039164
 20
1.889808449754309
 30
-0.8586792039007736
 11
20.56927879039164
 21
1.850431447497711
 31
-0.8372024089405776
  0
LINE
  5
98
  8
PAREDES
 10
20.56927879039164
 20
1.850431447497711
 30
-0.8372024089405776
 11
20.56927879039164
 21
1.810180407337286
 31
-0.8163036809849178
  0
LINE
  5
99
  8
PAREDES
 10
20.56927879039164
 20
1.810180407337286
 30
-0.8163036809849178
 11
20.56927879039164
 21
1.768950553524538
 31
-0.7960311922841722
  0
LINE
  5
9A
  8
PAREDES
 10
20.56927879039164
 20
1.768950553524538
 30
-0.7960311922841722
 11
20.56927879039164
 21
1.726637110310963
 31
-0.7764331150887187
  0
LINE
  5
9B
  8
PAREDES
 10
20.56927879039164
 20
1.726637110310963
 30
-0.7764331150887187
 11
20.56927879039164
 21
1.683135301948063
 31
-0.7575576216489353
  0
LINE
  5
9C
  8
PAREDES
 10
20.56927879039164
 20
1.683135301948063
 30
-0.7575576216489353
 11
20.56927879039164
 21
1.638340352687339
 31
-0.7394528842152
  0
LINE
  5
9D
  8
PAREDES
 10
20.56927879039164
 20
1.638340352687339
 30
-0.7394528842152
 11
20.56927879039164
 21
1.59214748678029
 31
-0.7221670750378909
  0
LINE
  5
9E
  8
PAREDES
 10
20.56927879039164
 20
1.59214748678029
 30
-0.7221670750378909
 11
20.56927879039164
 21
1.544451928478416
 31
-0.705748366367386
  0
LINE
  5
9F
  8
PAREDES
 10
20.56927879039164
 20
1.544451928478416
 30
-0.705748366367386
 11
20.56927879039164
 21
1.495148902033217
 31
-0.6902449304540632
  0
LINE
  5
A0
  8
PAREDES
 10
20.56927879039164
 20
1.495148902033217
 30
-0.6902449304540632
 11
20.56927879039164
 21
1.444133631696195
 31
-0.6757049395483008
  0
LINE
  5
A1
  8
PAREDES
 10
20.56927879039164
 20
1.444133631696195
 30
-0.6757049395483008
 11
20.56927879039164
 21
1.391301341718848
 31
-0.6621765659004764
  0
LINE
  5
A2
  8
PAREDES
 10
20.56927879039164
 20
1.391301341718848
 30
-0.6621765659004764
 11
20.56927879039164
 21
1.336547256352677
 31
-0.6497079817609683
  0
LINE
  5
A3
  8
PAREDES
 10
20.56927879039164
 20
1.336547256352677
 30
-0.6497079817609683
 11
20.56927879039164
 21
1.279766599849181
 31
-0.6383473593801544
  0
LINE
  5
A4
  8
PAREDES
 10
20.56927879039164
 20
1.279766599849181
 30
-0.6383473593801544
 11
20.56927879039164
 21
1.220854596459862
 31
-0.6281428710084127
  0
LINE
  5
A5
  8
PAREDES
 10
20.56927879039164
 20
1.220854596459862
 30
-0.6281428710084127
 11
20.56927879039164
 21
1.15970647043622
 31
-0.6191426888961213
  0
LINE
  5
A6
  8
PAREDES
 10
20.56927879039164
 20
1.15970647043622
 30
-0.6191426888961213
 11
20.56927879039164
 21
1.096217446029754
 31
-0.611394985293658
  0
LINE
  5
A7
  8
PAREDES
 10
20.56927879039164
 20
1.096217446029754
 30
-0.611394985293658
 11
20.56927879039164
 21
1.030282747491964
 31
-0.6049479324514011
  0
LINE
  5
A8
  8
PAREDES
 10
20.56927879039164
 20
1.030282747491964
 30
-0.6049479324514011
 11
20.56927879039164
 21
0.961797599074351
 31
-0.5998497026197285
  0
LINE
  5
A9
  8
PAREDES
 10
20.56927879039164
 20
0.961797599074351
 30
-0.5998497026197285
 11
20.56927879039164
 21
0.890657225028415
 31
-0.5961484680490181
  0
LINE
  5
AA
  8
PAREDES
 10
20.56927879039164
 20
0.890657225028415
 30
-0.5961484680490181
 11
20.56927879039164
 21
0.8167568496056561
 31
-0.593892400989648
  0
LINE
  5
AB
  8
PAREDES
 10
20.56927879039164
 20
0.8167568496056561
 30
-0.593892400989648
 11
20.56927879039164
 21
0.7399916970575742
 31
-0.5931296736919962
  0
LINE
  5
AC
  8
PAREDES
 10
20.56927879039164
 20
0.7399916970575742
 30
-0.5931296736919962
 11
20.56927879039164
 21
0.6632693507513497
 31
-0.593892400989648
  0
LINE
  5
AD
  8
PAREDES
 10
20.56927879039164
 20
0.6632693507513497
 30
-0.593892400989648
 11
20.56927879039164
 21
0.589495523159566
 31
-0.5961484680490181
  0
LINE
  5
AE
  8
PAREDES
 10
20.56927879039164
 20
0.589495523159566
 30
-0.5961484680490181
 11
20.56927879039164
 21
0.5185626321918276
 31
-0.5998497026197285
  0
LINE
  5
AF
  8
PAREDES
 10
20.56927879039164
 20
0.5185626321918276
 30
-0.5998497026197285
 11
20.56927879039164
 21
0.4503630957577389
 31
-0.6049479324514011
  0
LINE
  5
B0
  8
PAREDES
 10
20.56927879039164
 20
0.4503630957577389
 30
-0.6049479324514011
 11
20.56927879039164
 21
0.3847893317669042
 31
-0.611394985293658
  0
LINE
  5
B1
  8
PAREDES
 10
20.56927879039164
 20
0.3847893317669042
 30
-0.611394985293658
 11
20.56927879039164
 21
0.3217337581289278
 31
-0.6191426888961213
  0
LINE
  5
B2
  8
PAREDES
 10
20.56927879039164
 20
0.3217337581289278
 30
-0.6191426888961213
 11
20.56927879039164
 21
0.2610887927534142
 31
-0.6281428710084127
  0
LINE
  5
B3
  8
PAREDES
 10
20.56927879039164
 20
0.2610887927534142
 30
-0.6281428710084127
 11
20.56927879039164
 21
0.2027468535499678
 31
-0.6383473593801544
  0
LINE
  5
B4
  8
PAREDES
 10
20.56927879039164
 20
0.2027468535499678
 30
-0.6383473593801544
 11
20.56927879039164
 21
0.1466003584281929
 31
-0.6497079817609683
  0
LINE
  5
B5
  8
PAREDES
 10
20.56927879039164
 20
0.1466003584281929
 30
-0.6497079817609683
 11
20.56927879039164
 21
0.0925417252976939
 31
-0.6621765659004764
  0
LINE
  5
B6
  8
PAREDES
 10
20.56927879039164
 20
0.0925417252976939
 30
-0.6621765659004764
 11
20.56927879039164
 21
0.0404633720680753
 31
-0.6757049395483008
  0
LINE
  5
B7
  8
PAREDES
 10
20.56927879039164
 20
0.0404633720680753
 30
-0.6757049395483008
 11
20.56927879039164
 21
-0.0097422833510587
 31
-0.6902449304540632
  0
LINE
  5
B8
  8
PAREDES
 10
20.56927879039164
 20
-0.0097422833510587
 30
-0.6902449304540632
 11
20.56927879039164
 21
-0.0581828230501035
 31
-0.705748366367386
  0
LINE
  5
B9
  8
PAREDES
 10
20.56927879039164
 20
-0.0581828230501035
 30
-0.705748366367386
 11
20.56927879039164
 21
-0.1049658291194549
 31
-0.7221670750378909
  0
LINE
  5
BA
  8
PAREDES
 10
20.56927879039164
 20
-0.1049658291194549
 30
-0.7221670750378909
 11
20.56927879039164
 21
-0.1501988836495085
 31
-0.7394528842152
  0
LINE
  5
BB
  8
PAREDES
 10
20.56927879039164
 20
-0.1501988836495085
 30
-0.7394528842152
 11
20.56927879039164
 21
-0.1939895687306598
 31
-0.7575576216489353
  0
LINE
  5
BC
  8
PAREDES
 10
20.56927879039164
 20
-0.1939895687306598
 30
-0.7575576216489353
 11
20.56927879039164
 21
-0.2364454664533045
 31
-0.7764331150887187
  0
LINE
  5
BD
  8
PAREDES
 10
20.56927879039164
 20
-0.2364454664533045
 30
-0.7764331150887187
 11
20.56927879039164
 21
-0.2776741589078383
 31
-0.7960311922841722
  0
LINE
  5
BE
  8
PAREDES
 10
20.56927879039164
 20
-0.2776741589078383
 30
-0.7960311922841722
 11
20.56927879039164
 21
-0.3177832281846565
 31
-0.8163036809849178
  0
LINE
  5
BF
  8
PAREDES
 10
20.56927879039164
 20
-0.3177832281846565
 30
-0.8163036809849178
 11
20.56927879039164
 21
-0.3568802563741551
 31
-0.8372024089405776
  0
LINE
  5
C0
  8
PAREDES
 10
20.56927879039164
 20
-0.3568802563741551
 30
-0.8372024089405776
 11
20.56927879039164
 21
-0.3950728255667295
 31
-0.8586792039007736
  0
LINE
  5
C1
  8
PAREDES
 10
20.56927879039164
 20
-0.3950728255667295
 30
-0.8586792039007736
 11
20.56927879039164
 21
-0.4324685178527753
 31
-0.8806858936151275
  0
LINE
  5
C2
  8
PAREDES
 10
20.56927879039164
 20
-0.4324685178527753
 30
-0.8806858936151275
 11
20.56927879039164
 21
-0.5052996000668639
 31
-0.9260962683047979
  0
LINE
  5
C3
  8
PAREDES
 10
20.56927879039164
 20
-0.5052996000668639
 30
-0.9260962683047979
 11
20.56927879039164
 21
-0.5762341597395857
 31
-0.9730481550065645
  0
LINE
  5
C4
  8
PAREDES
 10
20.56927879039164
 20
-0.5762341597395857
 30
-0.9730481550065645
 11
20.56927879039164
 21
-0.858220307480104
 31
-1.168563261874112
  0
LINE
  5
C5
  8
PAREDES
 10
20.56927879039164
 20
-0.858220307480104
 30
-1.168563261874112
 11
20.56927879039164
 21
-0.932582105293466
 31
-1.217442038590999
  0
LINE
  5
C6
  8
PAREDES
 10
20.56927879039164
 20
-0.932582105293466
 30
-1.217442038590999
 11
20.56927879039164
 21
-1.010211320904451
 31
-1.265550059301838
  0
LINE
  5
C7
  8
PAREDES
 10
20.56927879039164
 20
-1.010211320904451
 30
-1.265550059301838
 11
20.56927879039164
 21
-1.050520165610041
 31
-1.289194605529044
  0
LINE
  5
C8
  8
PAREDES
 10
20.56927879039164
 20
-1.050520165610041
 30
-1.289194605529044
 11
20.56927879039164
 21
-1.091968611036223
 31
-1.312501946003605
  0
LINE
  5
C9
  8
PAREDES
 10
20.56927879039164
 20
-1.091968611036223
 30
-1.312501946003605
 11
20.56927879039164
 21
-1.134664239273394
 31
-1.335423908475141
  0
LINE
  5
CA
  8
PAREDES
 10
20.56927879039164
 20
-1.134664239273394
 30
-1.335423908475141
 11
20.56927879039164
 21
-1.178714632411948
 31
-1.357912320693275
  0
LINE
  5
CB
  8
PAREDES
 10
20.56927879039164
 20
-1.178714632411948
 30
-1.357912320693275
 11
20.56927879039164
 21
-1.224227372542282
 31
-1.379919010407629
  0
LINE
  5
CC
  8
PAREDES
 10
20.56927879039164
 20
-1.224227372542282
 30
-1.379919010407629
 11
20.56927879039164
 21
-1.271310041754791
 31
-1.401395805367825
  0
LINE
  5
CD
  8
PAREDES
 10
20.56927879039164
 20
-1.271310041754791
 30
-1.401395805367825
 11
20.56927879039164
 21
-1.32007022213987
 31
-1.422294533323485
  0
LINE
  5
CE
  8
PAREDES
 10
20.56927879039164
 20
-1.32007022213987
 30
-1.422294533323485
 11
20.56927879039164
 21
-1.370615495787916
 31
-1.44256702202423
  0
LINE
  5
CF
  8
PAREDES
 10
20.56927879039164
 20
-1.370615495787916
 30
-1.44256702202423
 11
20.56927879039164
 21
-1.423053444789323
 31
-1.462165099219684
  0
LINE
  5
D0
  8
PAREDES
 10
20.56927879039164
 20
-1.423053444789323
 30
-1.462165099219684
 11
20.56927879039164
 21
-1.477491651234489
 31
-1.481040592659467
  0
LINE
  5
D1
  8
PAREDES
 10
20.56927879039164
 20
-1.477491651234489
 30
-1.481040592659467
 11
20.56927879039164
 21
-1.534037697213807
 31
-1.499145330093202
  0
LINE
  5
D2
  8
PAREDES
 10
20.56927879039164
 20
-1.534037697213807
 30
-1.499145330093202
 11
20.56927879039164
 21
-1.592799164817674
 31
-1.516431139270512
  0
LINE
  5
D3
  8
PAREDES
 10
20.56927879039164
 20
-1.592799164817674
 30
-1.516431139270512
 11
20.56927879039164
 21
-1.653883636136485
 31
-1.532849847941017
  0
LINE
  5
D4
  8
PAREDES
 10
20.56927879039164
 20
-1.653883636136485
 30
-1.532849847941017
 11
20.56927879039164
 21
-1.717398693260636
 31
-1.548353283854339
  0
LINE
  5
D5
  8
PAREDES
 10
20.56927879039164
 20
-1.717398693260636
 30
-1.548353283854339
 11
20.56927879039164
 21
-1.783451918280523
 31
-1.562893274760102
  0
LINE
  5
D6
  8
PAREDES
 10
20.56927879039164
 20
-1.783451918280523
 30
-1.562893274760102
 11
20.56927879039164
 21
-1.85215089328654
 31
-1.576421648407926
  0
LINE
  5
D7
  8
PAREDES
 10
20.56927879039164
 20
-1.85215089328654
 30
-1.576421648407926
 11
20.56927879039164
 21
-1.923603200369085
 31
-1.588890232547434
  0
LINE
  5
D8
  8
PAREDES
 10
20.56927879039164
 20
-1.923603200369085
 30
-1.588890232547434
 11
20.56927879039164
 21
-1.997916421618552
 31
-1.600250854928248
  0
LINE
  5
D9
  8
PAREDES
 10
20.56927879039164
 20
-1.997916421618552
 30
-1.600250854928248
 11
20.56927879039164
 21
-2.075198139125337
 31
-1.61045534329999
  0
LINE
  5
DA
  8
PAREDES
 10
20.56927879039164
 20
-2.075198139125337
 30
-1.61045534329999
 11
20.56927879039164
 21
-2.155555934979836
 31
-1.619455525412282
  0
LINE
  5
DB
  8
PAREDES
 10
20.56927879039164
 20
-2.155555934979836
 30
-1.619455525412282
 11
20.56927879039164
 21
-2.239097391272444
 31
-1.627203229014745
  0
LINE
  5
DC
  8
PAREDES
 10
20.56927879039164
 20
-2.239097391272444
 30
-1.627203229014745
 11
20.56927879039164
 21
-2.325930090093557
 31
-1.633650281857002
  0
LINE
  5
DD
  8
PAREDES
 10
20.56927879039164
 20
-2.325930090093557
 30
-1.633650281857002
 11
20.56927879039164
 21
-2.509899543682879
 31
-1.642449746259385
  0
LINE
  5
DE
  8
PAREDES
 10
20.56927879039164
 20
-2.509899543682879
 30
-1.642449746259385
 11
20.56927879039164
 21
-2.708324952470969
 31
-1.645468540616406
  0
LINE
  5
DF
  8
PAREDES
 10
20.56927879039164
 20
-2.708324952470969
 30
-1.645468540616406
 11
20.56927879039164
 21
-2.755048470858616
 31
-1.645001701480963
  0
LINE
  5
E0
  8
PAREDES
 10
20.56927879039164
 20
-2.755048470858616
 30
-1.645001701480963
 11
20.56927879039164
 21
-2.801228690592218
 31
-1.643607905647221
  0
LINE
  5
E1
  8
PAREDES
 10
20.56927879039164
 20
-2.801228690592218
 30
-1.643607905647221
 11
20.56927879039164
 21
-2.846868353502896
 31
-1.641297235474058
  0
LINE
  5
E2
  8
PAREDES
 10
20.56927879039164
 20
-2.846868353502896
 30
-1.641297235474058
 11
20.56927879039164
 21
-2.891970201421772
 31
-1.638079773320356
  0
LINE
  5
E3
  8
PAREDES
 10
20.56927879039164
 20
-2.891970201421772
 30
-1.638079773320356
 11
20.56927879039164
 21
-2.936536976179968
 31
-1.633965601544995
  0
LINE
  5
E4
  8
PAREDES
 10
20.56927879039164
 20
-2.936536976179968
 30
-1.633965601544995
 11
20.56927879039164
 21
-2.980571419608603
 31
-1.628964802506853
  0
LINE
  5
E5
  8
PAREDES
 10
20.56927879039164
 20
-2.980571419608603
 30
-1.628964802506853
 11
20.56927879039164
 21
-3.0240762735388
 31
-1.623087458564812
  0
LINE
  5
E6
  8
PAREDES
 10
20.56927879039164
 20
-3.0240762735388
 30
-1.623087458564812
 11
20.56927879039164
 21
-3.06705427980168
 31
-1.616343652077751
  0
LINE
  5
E7
  8
PAREDES
 10
20.56927879039164
 20
-3.06705427980168
 30
-1.616343652077751
 11
20.56927879039164
 21
-3.109508180228365
 31
-1.608743465404549
  0
LINE
  5
E8
  8
PAREDES
 10
20.56927879039164
 20
-3.109508180228365
 30
-1.608743465404549
 11
20.56927879039164
 21
-3.151440716649974
 31
-1.600296980904088
  0
LINE
  5
E9
  8
PAREDES
 10
20.56927879039164
 20
-3.151440716649974
 30
-1.600296980904088
 11
20.56927879039164
 21
-3.19285463089763
 31
-1.591014280935246
  0
LINE
  5
EA
  8
PAREDES
 10
20.56927879039164
 20
-3.19285463089763
 30
-1.591014280935246
 11
20.56927879039164
 21
-3.233752664802455
 31
-1.580905447856904
  0
LINE
  5
EB
  8
PAREDES
 10
20.56927879039164
 20
-3.233752664802455
 30
-1.580905447856904
 11
20.56927879039164
 21
-3.274137560195568
 31
-1.569980564027942
  0
LINE
  5
EC
  8
PAREDES
 10
20.56927879039164
 20
-3.274137560195568
 30
-1.569980564027942
 11
20.56927879039164
 21
-3.314012058908093
 31
-1.558249711807239
  0
LINE
  5
ED
  8
PAREDES
 10
20.56927879039164
 20
-3.314012058908093
 30
-1.558249711807239
 11
20.56927879039164
 21
-3.353378902771149
 31
-1.545722973553677
  0
LINE
  5
EE
  8
PAREDES
 10
20.56927879039164
 20
-3.353378902771149
 30
-1.545722973553677
 11
20.56927879039164
 21
-3.392240833615857
 31
-1.532410431626133
  0
LINE
  5
EF
  8
PAREDES
 10
20.56927879039164
 20
-3.392240833615857
 30
-1.532410431626133
 11
20.56927879039164
 21
-3.430600593273341
 31
-1.518322168383489
  0
LINE
  5
F0
  8
PAREDES
 10
20.56927879039164
 20
-3.430600593273341
 30
-1.518322168383489
 11
20.56927879039164
 21
-3.46846092357472
 31
-1.503468266184624
  0
LINE
  5
F1
  8
PAREDES
 10
20.56927879039164
 20
-3.46846092357472
 30
-1.503468266184624
 11
20.56927879039164
 21
-3.505824566351116
 31
-1.487858807388419
  0
LINE
  5
F2
  8
PAREDES
 10
20.56927879039164
 20
-3.505824566351116
 30
-1.487858807388419
 11
20.56927879039164
 21
-3.54269426343365
 31
-1.471503874353753
  0
LINE
  5
F3
  8
PAREDES
 10
20.56927879039164
 20
-3.54269426343365
 30
-1.471503874353753
 11
20.56927879039164
 21
-3.579072756653444
 31
-1.454413549439506
  0
LINE
  5
F4
  8
PAREDES
 10
20.56927879039164
 20
-3.579072756653444
 30
-1.454413549439506
 11
20.56927879039164
 21
-3.614962787841619
 31
-1.436597915004558
  0
LINE
  5
F5
  8
PAREDES
 10
20.56927879039164
 20
-3.614962787841619
 30
-1.436597915004558
 11
20.56927879039164
 21
-3.650367098829296
 31
-1.418067053407789
  0
LINE
  5
F6
  8
PAREDES
 10
20.56927879039164
 20
-3.650367098829296
 30
-1.418067053407789
 11
20.56927879039164
 21
-3.685288431447596
 31
-1.398831047008079
  0
LINE
  5
F7
  8
PAREDES
 10
20.56927879039164
 20
-3.685288431447596
 30
-1.398831047008079
 11
20.56927879039164
 21
-3.71972952752764
 31
-1.378899978164308
  0
LINE
  5
F8
  8
PAREDES
 10
20.56927879039164
 20
-3.71972952752764
 30
-1.378899978164308
 11
20.56927879039164
 21
-3.753693128900551
 31
-1.358283929235356
  0
LINE
  5
F9
  8
PAREDES
 10
20.56927879039164
 20
-3.753693128900551
 30
-1.358283929235356
 11
20.56927879039164
 21
-3.78718197739745
 31
-1.336992982580102
  0
LINE
  5
FA
  8
PAREDES
 10
20.56927879039164
 20
-3.78718197739745
 30
-1.336992982580102
 11
20.56927879039164
 21
-3.820198814849456
 31
-1.315037220557427
  0
LINE
  5
FB
  8
PAREDES
 10
20.56927879039164
 20
-3.820198814849456
 30
-1.315037220557427
 11
20.56927879039164
 21
-3.852746383087692
 31
-1.292426725526211
  0
LINE
  5
FC
  8
PAREDES
 10
20.56927879039164
 20
-3.852746383087692
 30
-1.292426725526211
 11
20.56927879039164
 21
-3.88482742394328
 31
-1.269171579845333
  0
LINE
  5
FD
  8
PAREDES
 10
20.56927879039164
 20
-3.88482742394328
 30
-1.269171579845333
 11
20.56927879039164
 21
-3.91644467924734
 31
-1.245281865873674
  0
LINE
  5
FE
  8
PAREDES
 10
20.56927879039164
 20
-3.91644467924734
 30
-1.245281865873674
 11
20.56927879039164
 21
-3.947600890830992
 31
-1.220767665970113
  0
LINE
  5
FF
  8
PAREDES
 10
20.56927879039164
 20
-3.947600890830992
 30
-1.220767665970113
 11
20.56927879039164
 21
-3.97829880052536
 31
-1.195639062493531
  0
LINE
  5
100
  8
PAREDES
 10
20.56927879039164
 20
-3.97829880052536
 30
-1.195639062493531
 11
20.56927879039164
 21
-4.008541150161564
 31
-1.169906137802806
  0
LINE
  5
101
  8
PAREDES
 10
20.56927879039164
 20
-4.008541150161564
 30
-1.169906137802806
 11
20.56927879039164
 21
-4.038330681570725
 31
-1.14357897425682
  0
LINE
  5
102
  8
PAREDES
 10
20.56927879039164
 20
-4.038330681570725
 30
-1.14357897425682
 11
20.56927879039164
 21
-4.067670136583966
 31
-1.116667654214452
  0
LINE
  5
103
  8
PAREDES
 10
20.56927879039164
 20
-4.067670136583966
 30
-1.116667654214452
 11
20.56927879039164
 21
-4.096562257032407
 31
-1.089182260034582
  0
LINE
  5
104
  8
PAREDES
 10
20.56927879039164
 20
-4.096562257032407
 30
-1.089182260034582
 11
20.56927879039164
 21
-4.125009784747169
 31
-1.061132874076091
  0
LINE
  5
105
  8
PAREDES
 10
20.56927879039164
 20
-4.125009784747169
 30
-1.061132874076091
 11
20.56927879039164
 21
-4.180582029300141
 31
-1.00338245625876
  0
LINE
  5
106
  8
PAREDES
 10
20.56927879039164
 20
-4.180582029300141
 30
-1.00338245625876
 11
20.56927879039164
 21
-4.234408804891854
 31
-0.9434970596335013
  0
LINE
  5
107
  8
PAREDES
 10
20.56927879039164
 20
-4.234408804891854
 30
-0.9434970596335013
 11
20.56927879039164
 21
-4.286512046171278
 31
-0.8815573430713528
  0
LINE
  5
108
  8
PAREDES
 10
20.56927879039164
 20
-4.286512046171278
 30
-0.8815573430713528
 11
20.56927879039164
 21
-4.336913687787382
 31
-0.8176439654433544
  0
LINE
  5
109
  8
PAREDES
 10
20.56927879039164
 20
-4.336913687787382
 30
-0.8176439654433544
 11
20.56927879039164
 21
-4.385635664389138
 31
-0.7518375856205454
  0
LINE
  5
10A
  8
PAREDES
 10
20.56927879039164
 20
-4.385635664389138
 30
-0.7518375856205454
 11
20.56927879039164
 21
-4.432699910625516
 31
-0.6842188624739654
  0
LINE
  5
10B
  8
PAREDES
 10
20.56927879039164
 20
-4.432699910625516
 30
-0.6842188624739654
 11
20.56927879039164
 21
-4.478128361145485
 31
-0.6148684548746537
  0
LINE
  5
10C
  8
PAREDES
 10
20.56927879039164
 20
-4.478128361145485
 30
-0.6148684548746537
 11
20.56927879039164
 21
-4.521942950598016
 31
-0.5438670216936499
  0
LINE
  5
10D
  8
PAREDES
 10
20.56927879039164
 20
-4.521942950598016
 30
-0.5438670216936499
 11
20.56927879039164
 21
-4.564165613632079
 31
-0.4712952218019933
  0
LINE
  5
10E
  8
PAREDES
 10
20.56927879039164
 20
-4.564165613632079
 30
-0.4712952218019933
 11
20.56927879039164
 21
-4.604818284896646
 31
-0.3972337140707236
  0
LINE
  5
10F
  8
PAREDES
 10
20.56927879039164
 20
-4.604818284896646
 30
-0.3972337140707236
 11
20.56927879039164
 21
-4.643922899040684
 31
-0.32176315737088
  0
LINE
  5
110
  8
PAREDES
 10
20.56927879039164
 20
-4.643922899040684
 30
-0.32176315737088
 11
20.56927879039164
 21
-4.681501390713166
 31
-0.2449642105735021
  0
LINE
  5
111
  8
PAREDES
 10
20.56927879039164
 20
-4.681501390713166
 30
-0.2449642105735021
 11
20.56927879039164
 21
-4.71757569456306
 31
-0.1669175325496293
  0
LINE
  5
112
  8
PAREDES
 10
20.56927879039164
 20
-4.71757569456306
 30
-0.1669175325496293
 11
20.56927879039164
 21
-4.752167745239339
 31
-0.087703782170301
  0
LINE
  5
113
  8
PAREDES
 10
20.56927879039164
 20
-4.752167745239339
 30
-0.087703782170301
 11
20.56927879039164
 21
-4.785299477390971
 31
-0.0074036183065567
  0
LINE
  5
114
  8
PAREDES
 10
20.56927879039164
 20
-4.785299477390971
 30
-0.0074036183065567
 11
20.56927879039164
 21
-4.816992825666927
 31
0.0739023001705642
  0
LINE
  5
115
  8
PAREDES
 10
20.56927879039164
 20
-4.816992825666927
 30
0.0739023001705642
 11
20.56927879039164
 21
-4.847269724716178
 31
0.1561333143900221
  0
LINE
  5
116
  8
PAREDES
 10
20.56927879039164
 20
-4.847269724716178
 30
0.1561333143900221
 11
20.56927879039164
 21
-4.876152109187693
 31
0.2392087654807777
  0
LINE
  5
117
  8
PAREDES
 10
20.56927879039164
 20
-4.876152109187693
 30
0.2392087654807777
 11
20.56927879039164
 21
-4.903661913730443
 31
0.3230479945717914
  0
LINE
  5
118
  8
PAREDES
 10
20.56927879039164
 20
-4.903661913730443
 30
0.3230479945717914
 11
20.56927879039164
 21
-4.954651521625528
 31
0.4926951512704357
  0
LINE
  5
119
  8
PAREDES
 10
20.56927879039164
 20
-4.954651521625528
 30
0.4926951512704357
 11
20.56927879039164
 21
-5.000414025593194
 31
0.6644295135176393
  0
LINE
  5
11A
  8
PAREDES
 10
20.56927879039164
 20
-5.000414025593194
 30
0.6644295135176393
 11
20.56927879039164
 21
-5.041124902825205
 31
0.8376058103450867
  0
LINE
  5
11B
  8
PAREDES
 10
20.56927879039164
 20
-5.041124902825205
 30
0.8376058103450867
 11
20.56927879039164
 21
-5.07695963051332
 31
1.011578770784462
  0
LINE
  5
11C
  8
PAREDES
 10
20.56927879039164
 20
-5.07695963051332
 30
1.011578770784462
 11
20.56927879039164
 21
-5.108093685849304
 31
1.18570312386745
  0
LINE
  5
11D
  8
PAREDES
 10
20.56927879039164
 20
-5.108093685849304
 30
1.18570312386745
 11
20.56927879039164
 21
-5.134702546024917
 31
1.359333598625736
  0
LINE
  5
11E
  8
PAREDES
 10
20.56927879039164
 20
-5.134702546024917
 30
1.359333598625736
 11
20.56927879039164
 21
-5.156961688231922
 31
1.531824924091002
  0
LINE
  5
11F
  8
PAREDES
 10
20.56927879039164
 20
-5.156961688231922
 30
1.531824924091002
 11
20.56927879039164
 21
-5.175046589662081
 31
1.702531829294934
  0
LINE
  5
120
  8
PAREDES
 10
20.56927879039164
 20
-5.175046589662081
 30
1.702531829294934
 11
20.56927879039164
 21
-5.189132727507156
 31
1.870809043269215
  0
LINE
  5
121
  8
PAREDES
 10
20.56927879039164
 20
-5.189132727507156
 30
1.870809043269215
 11
20.56927879039164
 21
-5.199395578958907
 31
2.036011295045532
  0
LINE
  5
122
  8
PAREDES
 10
20.56927879039164
 20
-5.199395578958907
 30
2.036011295045532
 11
20.56927879039164
 21
-5.206010621209098
 31
2.197493313655567
  0
LINE
  5
123
  8
PAREDES
 10
20.56927879039164
 20
-5.206010621209098
 30
2.197493313655567
 11
20.56927879039164
 21
-5.209153331449492
 31
2.354609828131006
  0
LINE
  5
124
  8
PAREDES
 10
20.56927879039164
 20
-5.209153331449492
 30
2.354609828131006
 11
20.56927879039164
 21
-5.208999186871848
 31
2.506715567503532
  0
LINE
  5
125
  8
PAREDES
 10
20.56927879039164
 20
-5.208999186871848
 30
2.506715567503532
 11
20.56927879039164
 21
-5.208464634688649
 31
2.529241741834321
  0
LINE
  5
126
  8
PAREDES
 10
20.56927879039164
 20
-5.208464634688649
 30
2.529241741834321
 11
20.56927879039164
 21
-5.207391877319564
 31
2.551581695582321
  0
LINE
  5
127
  8
PAREDES
 10
20.56927879039164
 20
-5.207391877319564
 30
2.551581695582321
 11
20.56927879039164
 21
-5.205785160721835
 31
2.573736199322325
  0
LINE
  5
128
  8
PAREDES
 10
20.56927879039164
 20
-5.205785160721835
 30
2.573736199322325
 11
20.56927879039164
 21
-5.203648730852701
 31
2.595706023629128
  0
LINE
  5
129
  8
PAREDES
 10
20.56927879039164
 20
-5.203648730852701
 30
2.595706023629128
 11
20.56927879039164
 21
-5.200986833669409
 31
2.617491939077524
  0
LINE
  5
12A
  8
PAREDES
 10
20.56927879039164
 20
-5.200986833669409
 30
2.617491939077524
 11
20.56927879039164
 21
-5.197803715129197
 31
2.639094716242306
  0
LINE
  5
12B
  8
PAREDES
 10
20.56927879039164
 20
-5.197803715129197
 30
2.639094716242306
 11
20.56927879039164
 21
-5.19410362118931
 31
2.660515125698272
  0
LINE
  5
12C
  8
PAREDES
 10
20.56927879039164
 20
-5.19410362118931
 30
2.660515125698272
 11
20.56927879039164
 21
-5.189890797806989
 31
2.681753938020212
  0
LINE
  5
12D
  8
PAREDES
 10
20.56927879039164
 20
-5.189890797806989
 30
2.681753938020212
 11
20.56927879039164
 21
-5.185169490939476
 31
2.702811923782924
  0
LINE
  5
12E
  8
PAREDES
 10
20.56927879039164
 20
-5.185169490939476
 30
2.702811923782924
 11
20.56927879039164
 21
-5.179943946544014
 31
2.7236898535612
  0
LINE
  5
12F
  8
PAREDES
 10
20.56927879039164
 20
-5.179943946544014
 30
2.7236898535612
 11
20.56927879039164
 21
-5.174218410577844
 31
2.744388497929835
  0
LINE
  5
130
  8
PAREDES
 10
20.56927879039164
 20
-5.174218410577844
 30
2.744388497929835
 11
20.56927879039164
 21
-5.16799712899821
 31
2.764908627463624
  0
LINE
  5
131
  8
PAREDES
 10
20.56927879039164
 20
-5.16799712899821
 30
2.764908627463624
 11
20.56927879039164
 21
-5.161284347762352
 31
2.785251012737361
  0
LINE
  5
132
  8
PAREDES
 10
20.56927879039164
 20
-5.161284347762352
 30
2.785251012737361
 11
20.56927879039164
 21
-5.154084312827514
 31
2.805416424325839
  0
LINE
  5
133
  8
PAREDES
 10
20.56927879039164
 20
-5.154084312827514
 30
2.805416424325839
 11
20.56927879039164
 21
-5.146401270150939
 31
2.825405632803855
  0
LINE
  5
134
  8
PAREDES
 10
20.56927879039164
 20
-5.146401270150939
 30
2.825405632803855
 11
20.56927879039164
 21
-5.138239465689866
 31
2.845219408746201
  0
LINE
  5
135
  8
PAREDES
 10
20.56927879039164
 20
-5.138239465689866
 30
2.845219408746201
 11
20.56927879039164
 21
-5.129603145401539
 31
2.864858522727673
  0
LINE
  5
136
  8
PAREDES
 10
20.56927879039164
 20
-5.129603145401539
 30
2.864858522727673
 11
20.56927879039164
 21
-5.120496555243201
 31
2.884323745323064
  0
LINE
  5
137
  8
PAREDES
 10
20.56927879039164
 20
-5.120496555243201
 30
2.884323745323064
 11
20.56927879039164
 21
-5.110923941172093
 31
2.903615847107169
  0
LINE
  5
138
  8
PAREDES
 10
20.56927879039164
 20
-5.110923941172093
 30
2.903615847107169
 11
20.56927879039164
 21
-5.100889549145457
 31
2.922735598654782
  0
LINE
  5
139
  8
PAREDES
 10
20.56927879039164
 20
-5.100889549145457
 30
2.922735598654782
 11
20.56927879039164
 21
-5.090397625120536
 31
2.941683770540698
  0
LINE
  5
13A
  8
PAREDES
 10
20.56927879039164
 20
-5.090397625120536
 30
2.941683770540698
 11
20.56927879039164
 21
-5.079452415054572
 31
2.96046113333971
  0
LINE
  5
13B
  8
PAREDES
 10
20.56927879039164
 20
-5.079452415054572
 30
2.96046113333971
 11
20.56927879039164
 21
-5.068058164904808
 31
2.979068457626615
  0
LINE
  5
13C
  8
PAREDES
 10
20.56927879039164
 20
-5.068058164904808
 30
2.979068457626615
 11
20.56927879039164
 21
-5.056219120628485
 31
2.997506513976204
  0
LINE
  5
13D
  8
PAREDES
 10
20.56927879039164
 20
-5.056219120628485
 30
2.997506513976204
 11
20.56927879039164
 21
-5.043939528182845
 31
3.015776072963274
  0
LINE
  5
13E
  8
PAREDES
 10
20.56927879039164
 20
-5.043939528182845
 30
3.015776072963274
 11
20.56927879039164
 21
-5.031223633525132
 31
3.033877905162618
  0
LINE
  5
13F
  8
PAREDES
 10
20.56927879039164
 20
-5.031223633525132
 30
3.033877905162618
 11
20.56927879039164
 21
-5.018075682612585
 31
3.051812781149031
  0
LINE
  5
140
  8
PAREDES
 10
20.56927879039164
 20
-5.018075682612585
 30
3.051812781149031
 11
20.56927879039164
 21
-5.004499921402449
 31
3.069581471497306
  0
LINE
  5
141
  8
PAREDES
 10
20.56927879039164
 20
-5.004499921402449
 30
3.069581471497306
 11
20.56927879039164
 21
-4.990500595851964
 31
3.087184746782239
  0
LINE
  5
142
  8
PAREDES
 10
20.56927879039164
 20
-4.990500595851964
 30
3.087184746782239
 11
20.56927879039164
 21
-4.976081951918375
 31
3.104623377578624
  0
LINE
  5
143
  8
PAREDES
 10
20.56927879039164
 20
-4.976081951918375
 30
3.104623377578624
 11
20.56927879039164
 21
-4.961248235558923
 31
3.121898134461255
  0
LINE
  5
144
  8
PAREDES
 10
20.56927879039164
 20
-4.961248235558923
 30
3.121898134461255
 11
20.56927879039164
 21
-4.946003692730849
 31
3.139009788004926
  0
LINE
  5
145
  8
PAREDES
 10
20.56927879039164
 20
-4.946003692730849
 30
3.139009788004926
 11
20.56927879039164
 21
-4.914299111497806
 31
3.172746867374567
  0
LINE
  5
146
  8
PAREDES
 10
20.56927879039164
 20
-4.914299111497806
 30
3.172746867374567
 11
20.56927879039164
 21
-4.881002175877186
 31
3.205840780285901
  0
LINE
  5
147
  8
PAREDES
 10
20.56927879039164
 20
-4.881002175877186
 30
3.205840780285901
 11
20.56927879039164
 21
-4.846146853526925
 31
3.238297691337285
  0
LINE
  5
148
  8
PAREDES
 10
20.56927879039164
 20
-4.846146853526925
 30
3.238297691337285
 11
20.56927879039164
 21
-4.809767112104962
 31
3.270123765127071
  0
LINE
  5
149
  8
PAREDES
 10
20.56927879039164
 20
-4.809767112104962
 30
3.270123765127071
 11
20.56927879039164
 21
-4.771896919269233
 31
3.301325166253616
  0
LINE
  5
14A
  8
PAREDES
 10
20.56927879039164
 20
-4.771896919269233
 30
3.301325166253616
 11
20.56927879039164
 21
-4.732570242677675
 31
3.331908059315273
  0
LINE
  5
14B
  8
PAREDES
 10
20.56927879039164
 20
-4.732570242677675
 30
3.331908059315273
 11
20.56927879039164
 21
-4.691821049988228
 31
3.361878608910398
  0
LINE
  5
14C
  8
PAREDES
 10
20.56927879039164
 20
-4.691821049988228
 30
3.361878608910398
 11
20.56927879039164
 21
-4.649683308858828
 31
3.391242979637346
  0
LINE
  5
14D
  8
PAREDES
 10
20.56927879039164
 20
-4.649683308858828
 30
3.391242979637346
 11
20.56927879039164
 21
-4.606190986947412
 31
3.42000733609447
  0
LINE
  5
14E
  8
PAREDES
 10
20.56927879039164
 20
-4.606190986947412
 30
3.42000733609447
 11
20.56927879039164
 21
-4.56137805191192
 31
3.448177842880127
  0
LINE
  5
14F
  8
PAREDES
 10
20.56927879039164
 20
-4.56137805191192
 30
3.448177842880127
 11
20.56927879039164
 21
-4.515278471410285
 31
3.47576066459267
  0
LINE
  5
150
  8
PAREDES
 10
20.56927879039164
 20
-4.515278471410285
 30
3.47576066459267
 11
20.56927879039164
 21
-4.46792621310045
 31
3.502761965830455
  0
LINE
  5
151
  8
PAREDES
 10
20.56927879039164
 20
-4.46792621310045
 30
3.502761965830455
 11
20.56927879039164
 21
-4.419355244640348
 31
3.529187911191836
  0
LINE
  5
152
  8
PAREDES
 10
20.56927879039164
 20
-4.419355244640348
 30
3.529187911191836
 11
20.56927879039164
 21
-4.369599533687921
 31
3.555044665275168
  0
LINE
  5
153
  8
PAREDES
 10
20.56927879039164
 20
-4.369599533687921
 30
3.555044665275168
 11
20.56927879039164
 21
-4.266669754937832
 31
3.605075258001104
  0
LINE
  5
154
  8
PAREDES
 10
20.56927879039164
 20
-4.266669754937832
 30
3.605075258001104
 11
20.56927879039164
 21
-4.159408618113684
 31
3.652903060795102
  0
LINE
  5
155
  8
PAREDES
 10
20.56927879039164
 20
-4.159408618113684
 30
3.652903060795102
 11
20.56927879039164
 21
-4.048087864478978
 31
3.698577390443999
  0
LINE
  5
156
  8
PAREDES
 10
20.56927879039164
 20
-4.048087864478978
 30
3.698577390443999
 11
20.56927879039164
 21
-3.932979235297213
 31
3.742147563734633
  0
LINE
  5
157
  8
PAREDES
 10
20.56927879039164
 20
-3.932979235297213
 30
3.742147563734633
 11
20.56927879039164
 21
-3.814354471831891
 31
3.783662897453843
  0
LINE
  5
158
  8
PAREDES
 10
20.56927879039164
 20
-3.814354471831891
 30
3.783662897453843
 11
20.56927879039164
 21
-3.692485315346511
 31
3.823172708388467
  0
LINE
  5
159
  8
PAREDES
 10
20.56927879039164
 20
-3.692485315346511
 30
3.823172708388467
 11
20.56927879039164
 21
-3.567643507104576
 31
3.860726313325344
  0
LINE
  5
15A
  8
PAREDES
 10
20.56927879039164
 20
-3.567643507104576
 30
3.860726313325344
 11
20.56927879039164
 21
-3.440100788369584
 31
3.89637302905131
  0
LINE
  5
15B
  8
PAREDES
 10
20.56927879039164
 20
-3.440100788369584
 30
3.89637302905131
 11
20.56927879039164
 21
-3.310128900405036
 31
3.930162172353206
  0
LINE
  5
15C
  8
PAREDES
 10
20.56927879039164
 20
-3.310128900405036
 30
3.930162172353206
 11
20.56927879039164
 21
-3.043984581841274
 31
3.992365008832134
  0
LINE
  5
15D
  8
PAREDES
 10
20.56927879039164
 20
-3.043984581841274
 30
3.992365008832134
 11
20.56927879039164
 21
-2.771384481521294
 31
4.047729357056834
  0
LINE
  5
15E
  8
PAREDES
 10
20.56927879039164
 20
-2.771384481521294
 30
4.047729357056834
 11
20.56927879039164
 21
-2.494502529553101
 31
4.096649751322012
  0
LINE
  5
15F
  8
PAREDES
 10
20.56927879039164
 20
-2.494502529553101
 30
4.096649751322012
 11
20.56927879039164
 21
-2.215512656044698
 31
4.13952072592237
  0
LINE
  5
160
  8
PAREDES
 10
20.56927879039164
 20
-2.215512656044698
 30
4.13952072592237
 11
20.56927879039164
 21
-1.936588791104088
 31
4.176736815152617
  0
LINE
  5
161
  8
PAREDES
 10
20.56927879039164
 20
-1.936588791104088
 30
4.176736815152617
 11
20.56927879039164
 21
-1.659904864839275
 31
4.208692553307458
  0
LINE
  5
162
  8
PAREDES
 10
20.56927879039164
 20
-1.659904864839275
 30
4.208692553307458
 11
20.56927879039164
 21
-1.121952548769057
 31
4.258401113569738
  0
LINE
  5
163
  8
PAREDES
 10
20.56927879039164
 20
-1.121952548769057
 30
4.258401113569738
 11
20.56927879039164
 21
-0.6190471486980724
 31
4.291802681066853
  0
LINE
  5
164
  8
PAREDES
 10
20.56927879039164
 20
-0.6190471486980724
 30
4.291802681066853
 11
20.56927879039164
 21
-0.1685801054903517
 31
4.312053530156446
  0
LINE
  5
165
  8
PAREDES
 10
20.56927879039164
 20
-0.1685801054903517
 30
4.312053530156446
 11
20.56927879039164
 21
0.5054731468791795
 31
4.325728170543636
  0
LINE
  5
166
  8
PAREDES
 10
20.56927879039164
 20
0.5054731468791795
 30
4.325728170543636
 11
20.56927879039164
 21
0.7610756814272985
 31
4.324675229592446
  0
LINE
  5
167
  8
PAREDES
 10
19.96927879039164
 20
4.242947560982182
 30
-1.645468540616406
 11
19.96927879039164
 21
4.289671473670787
 31
-1.645001701480963
  0
LINE
  5
168
  8
PAREDES
 10
19.96927879039164
 20
4.289671473670787
 30
-1.645001701480963
 11
19.96927879039164
 21
4.335852069027286
 31
-1.643607905647221
  0
LINE
  5
169
  8
PAREDES
 10
19.96927879039164
 20
4.335852069027286
 30
-1.643607905647221
 11
19.96927879039164
 21
4.381492089129211
 31
-1.641297235474058
  0
LINE
  5
16A
  8
PAREDES
 10
19.96927879039164
 20
4.381492089129211
 30
-1.641297235474058
 11
19.96927879039164
 21
4.426594276054096
 31
-1.638079773320356
  0
LINE
  5
16B
  8
PAREDES
 10
19.96927879039164
 20
4.426594276054096
 30
-1.638079773320356
 11
19.96927879039164
 21
4.471161371879475
 31
-1.633965601544995
  0
LINE
  5
16C
  8
PAREDES
 10
19.96927879039164
 20
4.471161371879475
 30
-1.633965601544995
 11
19.96927879039164
 21
4.515196118682882
 31
-1.628964802506853
  0
LINE
  5
16D
  8
PAREDES
 10
19.96927879039164
 20
4.515196118682882
 30
-1.628964802506853
 11
19.96927879039164
 21
4.55870125854185
 31
-1.623087458564812
  0
LINE
  5
16E
  8
PAREDES
 10
19.96927879039164
 20
4.55870125854185
 30
-1.623087458564812
 11
19.96927879039164
 21
4.601679533533915
 31
-1.616343652077751
  0
LINE
  5
16F
  8
PAREDES
 10
19.96927879039164
 20
4.601679533533915
 30
-1.616343652077751
 11
19.96927879039164
 21
4.644133685736607
 31
-1.608743465404549
  0
LINE
  5
170
  8
PAREDES
 10
19.96927879039164
 20
4.644133685736607
 30
-1.608743465404549
 11
19.96927879039164
 21
4.686066457227463
 31
-1.600296980904088
  0
LINE
  5
171
  8
PAREDES
 10
19.96927879039164
 20
4.686066457227463
 30
-1.600296980904088
 11
19.96927879039164
 21
4.727480590084014
 31
-1.591014280935246
  0
LINE
  5
172
  8
PAREDES
 10
19.96927879039164
 20
4.727480590084014
 30
-1.591014280935246
 11
19.96927879039164
 21
4.768378826383795
 31
-1.580905447856904
  0
LINE
  5
173
  8
PAREDES
 10
19.96927879039164
 20
4.768378826383795
 30
-1.580905447856904
 11
19.96927879039164
 21
4.808763908204341
 31
-1.569980564027942
  0
LINE
  5
174
  8
PAREDES
 10
19.96927879039164
 20
4.808763908204341
 30
-1.569980564027942
 11
19.96927879039164
 21
4.848638577623184
 31
-1.558249711807239
  0
LINE
  5
175
  8
PAREDES
 10
19.96927879039164
 20
4.848638577623184
 30
-1.558249711807239
 11
19.96927879039164
 21
4.888005576717858
 31
-1.545722973553677
  0
LINE
  5
176
  8
PAREDES
 10
19.96927879039164
 20
4.888005576717858
 30
-1.545722973553677
 11
19.96927879039164
 21
4.926867647565897
 31
-1.532410431626133
  0
LINE
  5
177
  8
PAREDES
 10
19.96927879039164
 20
4.926867647565897
 30
-1.532410431626133
 11
19.96927879039164
 21
4.965227532244834
 31
-1.518322168383489
  0
LINE
  5
178
  8
PAREDES
 10
19.96927879039164
 20
4.965227532244834
 30
-1.518322168383489
 11
19.96927879039164
 21
5.003087972832203
 31
-1.503468266184624
  0
LINE
  5
179
  8
PAREDES
 10
19.96927879039164
 20
5.003087972832203
 30
-1.503468266184624
 11
19.96927879039164
 21
5.040451711405539
 31
-1.487858807388419
  0
LINE
  5
17A
  8
PAREDES
 10
19.96927879039164
 20
5.040451711405539
 30
-1.487858807388419
 11
19.96927879039164
 21
5.077321490042375
 31
-1.471503874353753
  0
LINE
  5
17B
  8
PAREDES
 10
19.96927879039164
 20
5.077321490042375
 30
-1.471503874353753
 11
19.96927879039164
 21
5.113700050820244
 31
-1.454413549439506
  0
LINE
  5
17C
  8
PAREDES
 10
19.96927879039164
 20
5.113700050820244
 30
-1.454413549439506
 11
19.96927879039164
 21
5.14959013581668
 31
-1.436597915004558
  0
LINE
  5
17D
  8
PAREDES
 10
19.96927879039164
 20
5.14959013581668
 30
-1.436597915004558
 11
19.96927879039164
 21
5.184994487109217
 31
-1.418067053407789
  0
LINE
  5
17E
  8
PAREDES
 10
19.96927879039164
 20
5.184994487109217
 30
-1.418067053407789
 11
19.96927879039164
 21
5.219915846775388
 31
-1.398831047008079
  0
LINE
  5
17F
  8
PAREDES
 10
19.96927879039164
 20
5.219915846775388
 30
-1.398831047008079
 11
19.96927879039164
 21
5.254356956892728
 31
-1.378899978164308
  0
LINE
  5
180
  8
PAREDES
 10
19.96927879039164
 20
5.254356956892728
 30
-1.378899978164308
 11
19.96927879039164
 21
5.28832055953877
 31
-1.358283929235356
  0
LINE
  5
181
  8
PAREDES
 10
19.96927879039164
 20
5.28832055953877
 30
-1.358283929235356
 11
19.96927879039164
 21
5.321809396791046
 31
-1.336992982580102
  0
LINE
  5
182
  8
PAREDES
 10
19.96927879039164
 20
5.321809396791046
 30
-1.336992982580102
 11
19.96927879039164
 21
5.354826210727093
 31
-1.315037220557427
  0
LINE
  5
183
  8
PAREDES
 10
19.96927879039164
 20
5.354826210727093
 30
-1.315037220557427
 11
19.96927879039164
 21
5.387373743424443
 31
-1.292426725526211
  0
LINE
  5
184
  8
PAREDES
 10
19.96927879039164
 20
5.387373743424443
 30
-1.292426725526211
 11
19.96927879039164
 21
5.419454736960629
 31
-1.269171579845333
  0
LINE
  5
185
  8
PAREDES
 10
19.96927879039164
 20
5.419454736960629
 30
-1.269171579845333
 11
19.96927879039164
 21
5.451071933413187
 31
-1.245281865873674
  0
LINE
  5
186
  8
PAREDES
 10
19.96927879039164
 20
5.451071933413187
 30
-1.245281865873674
 11
19.96927879039164
 21
5.482228074859648
 31
-1.220767665970113
  0
LINE
  5
187
  8
PAREDES
 10
19.96927879039164
 20
5.482228074859648
 30
-1.220767665970113
 11
19.96927879039164
 21
5.512925903377548
 31
-1.195639062493531
  0
LINE
  5
188
  8
PAREDES
 10
19.96927879039164
 20
5.512925903377548
 30
-1.195639062493531
 11
19.96927879039164
 21
5.54316816104442
 31
-1.169906137802806
  0
LINE
  5
189
  8
PAREDES
 10
19.96927879039164
 20
5.54316816104442
 30
-1.169906137802806
 11
19.96927879039164
 21
5.572957589937796
 31
-1.14357897425682
  0
LINE
  5
18A
  8
PAREDES
 10
19.96927879039164
 20
5.572957589937796
 30
-1.14357897425682
 11
19.96927879039164
 21
5.602296932135213
 31
-1.116667654214452
  0
LINE
  5
18B
  8
PAREDES
 10
19.96927879039164
 20
5.602296932135213
 30
-1.116667654214452
 11
19.96927879039164
 21
5.631188929714201
 31
-1.089182260034582
  0
LINE
  5
18C
  8
PAREDES
 10
19.96927879039164
 20
5.631188929714201
 30
-1.089182260034582
 11
19.96927879039164
 21
5.659636324752295
 31
-1.061132874076091
  0
LINE
  5
18D
  8
PAREDES
 10
19.96927879039164
 20
5.659636324752295
 30
-1.061132874076091
 11
19.96927879039164
 21
5.715208275515939
 31
-1.00338245625876
  0
LINE
  5
18E
  8
PAREDES
 10
19.96927879039164
 20
5.715208275515939
 30
-1.00338245625876
 11
19.96927879039164
 21
5.769034721046415
 31
-0.9434970596335013
  0
LINE
  5
18F
  8
PAREDES
 10
19.96927879039164
 20
5.769034721046415
 30
-0.9434970596335013
 11
19.96927879039164
 21
5.82113759796399
 31
-0.8815573430713528
  0
LINE
  5
190
  8
PAREDES
 10
19.96927879039164
 20
5.82113759796399
 30
-0.8815573430713528
 11
19.96927879039164
 21
5.871538842888935
 31
-0.8176439654433544
  0
LINE
  5
191
  8
PAREDES
 10
19.96927879039164
 20
5.871538842888935
 30
-0.8176439654433544
 11
19.96927879039164
 21
5.92026039244152
 31
-0.7518375856205454
  0
LINE
  5
192
  8
PAREDES
 10
19.96927879039164
 20
5.92026039244152
 30
-0.7518375856205454
 11
19.96927879039164
 21
5.967324183242015
 31
-0.6842188624739654
  0
LINE
  5
193
  8
PAREDES
 10
19.96927879039164
 20
5.967324183242015
 30
-0.6842188624739654
 11
19.96927879039164
 21
6.012752151910689
 31
-0.6148684548746537
  0
LINE
  5
194
  8
PAREDES
 10
19.96927879039164
 20
6.012752151910689
 30
-0.6148684548746537
 11
19.96927879039164
 21
6.056566235067811
 31
-0.5438670216936499
  0
LINE
  5
195
  8
PAREDES
 10
19.96927879039164
 20
6.056566235067811
 30
-0.5438670216936499
 11
19.96927879039164
 21
6.098788369333652
 31
-0.4712952218019933
  0
LINE
  5
196
  8
PAREDES
 10
19.96927879039164
 20
6.098788369333652
 30
-0.4712952218019933
 11
19.96927879039164
 21
6.139440491328482
 31
-0.3972337140707236
  0
LINE
  5
197
  8
PAREDES
 10
19.96927879039164
 20
6.139440491328482
 30
-0.3972337140707236
 11
19.96927879039164
 21
6.17854453767257
 31
-0.32176315737088
  0
LINE
  5
198
  8
PAREDES
 10
19.96927879039164
 20
6.17854453767257
 30
-0.32176315737088
 11
19.96927879039164
 21
6.216122444986185
 31
-0.2449642105735021
  0
LINE
  5
199
  8
PAREDES
 10
19.96927879039164
 20
6.216122444986185
 30
-0.2449642105735021
 11
19.96927879039164
 21
6.252196149889597
 31
-0.1669175325496293
  0
LINE
  5
19A
  8
PAREDES
 10
19.96927879039164
 20
6.252196149889597
 30
-0.1669175325496293
 11
19.96927879039164
 21
6.286787589003076
 31
-0.087703782170301
  0
LINE
  5
19B
  8
PAREDES
 10
19.96927879039164
 20
6.286787589003076
 30
-0.087703782170301
 11
19.96927879039164
 21
6.319918698946892
 31
-0.0074036183065567
  0
LINE
  5
19C
  8
PAREDES
 10
19.96927879039164
 20
6.319918698946892
 30
-0.0074036183065567
 11
19.96927879039164
 21
6.351611416341315
 31
0.0739023001705642
  0
LINE
  5
19D
  8
PAREDES
 10
19.96927879039164
 20
6.351611416341315
 30
0.0739023001705642
 11
19.96927879039164
 21
6.381887677806613
 31
0.1561333143900221
  0
LINE
  5
19E
  8
PAREDES
 10
19.96927879039164
 20
6.381887677806613
 30
0.1561333143900221
 11
19.96927879039164
 21
6.410769419963058
 31
0.2392087654807777
  0
LINE
  5
19F
  8
PAREDES
 10
19.96927879039164
 20
6.410769419963058
 30
0.2392087654807777
 11
19.96927879039164
 21
6.438278579430917
 31
0.3230479945717914
  0
LINE
  5
1A0
  8
PAREDES
 10
19.96927879039164
 20
6.438278579430917
 30
0.3230479945717914
 11
19.96927879039164
 21
6.489266896781961
 31
0.4926951512704357
  0
LINE
  5
1A1
  8
PAREDES
 10
19.96927879039164
 20
6.489266896781961
 30
0.4926951512704357
 11
19.96927879039164
 21
6.535028122821904
 31
0.6644295135176393
  0
LINE
  5
1A2
  8
PAREDES
 10
19.96927879039164
 20
6.535028122821904
 30
0.6644295135176393
 11
19.96927879039164
 21
6.575737750512904
 31
0.8376058103450867
  0
LINE
  5
1A3
  8
PAREDES
 10
19.96927879039164
 20
6.575737750512904
 30
0.8376058103450867
 11
19.96927879039164
 21
6.611571272817117
 31
1.011578770784462
  0
LINE
  5
1A4
  8
PAREDES
 10
19.96927879039164
 20
6.611571272817117
 30
1.011578770784462
 11
19.96927879039164
 21
6.642704182696701
 31
1.18570312386745
  0
LINE
  5
1A5
  8
PAREDES
 10
19.96927879039164
 20
6.642704182696701
 30
1.18570312386745
 11
19.96927879039164
 21
6.669311973113814
 31
1.359333598625736
  0
LINE
  5
1A6
  8
PAREDES
 10
19.96927879039164
 20
6.669311973113814
 30
1.359333598625736
 11
19.96927879039164
 21
6.691570137030611
 31
1.531824924091002
  0
LINE
  5
1A7
  8
PAREDES
 10
19.96927879039164
 20
6.691570137030611
 30
1.531824924091002
 11
19.96927879039164
 21
6.709654167409253
 31
1.702531829294934
  0
LINE
  5
1A8
  8
PAREDES
 10
19.96927879039164
 20
6.709654167409253
 30
1.702531829294934
 11
19.96927879039164
 21
6.723739557211896
 31
1.870809043269215
  0
LINE
  5
1A9
  8
PAREDES
 10
19.96927879039164
 20
6.723739557211896
 30
1.870809043269215
 11
19.96927879039164
 21
6.734001799400698
 31
2.036011295045532
  0
LINE
  5
1AA
  8
PAREDES
 10
19.96927879039164
 20
6.734001799400698
 30
2.036011295045532
 11
19.96927879039164
 21
6.740616386937816
 31
2.197493313655567
  0
LINE
  5
1AB
  8
PAREDES
 10
19.96927879039164
 20
6.740616386937816
 30
2.197493313655567
 11
19.96927879039164
 21
6.743758812785409
 31
2.354609828131006
  0
LINE
  5
1AC
  8
PAREDES
 10
19.96927879039164
 20
6.743758812785409
 30
2.354609828131006
 11
19.96927879039164
 21
6.743604569905633
 31
2.506715567503532
  0
LINE
  5
1AD
  8
PAREDES
 10
19.96927879039164
 20
6.743604569905633
 30
2.506715567503532
 11
19.96927879039164
 21
6.743070018508901
 31
2.529241741834321
  0
LINE
  5
1AE
  8
PAREDES
 10
19.96927879039164
 20
6.743070018508901
 30
2.529241741834321
 11
19.96927879039164
 21
6.741997263491001
 31
2.551581695582321
  0
LINE
  5
1AF
  8
PAREDES
 10
19.96927879039164
 20
6.741997263491001
 30
2.551581695582321
 11
19.96927879039164
 21
6.740390550796855
 31
2.573736199322325
  0
LINE
  5
1B0
  8
PAREDES
 10
19.96927879039164
 20
6.740390550796855
 30
2.573736199322325
 11
19.96927879039164
 21
6.738254126371383
 31
2.595706023629128
  0
LINE
  5
1B1
  8
PAREDES
 10
19.96927879039164
 20
6.738254126371383
 30
2.595706023629128
 11
19.96927879039164
 21
6.735592236159508
 31
2.617491939077524
  0
LINE
  5
1B2
  8
PAREDES
 10
19.96927879039164
 20
6.735592236159508
 30
2.617491939077524
 11
19.96927879039164
 21
6.732409126106152
 31
2.639094716242306
  0
LINE
  5
1B3
  8
PAREDES
 10
19.96927879039164
 20
6.732409126106152
 30
2.639094716242306
 11
19.96927879039164
 21
6.728709042156236
 31
2.660515125698272
  0
LINE
  5
1B4
  8
PAREDES
 10
19.96927879039164
 20
6.728709042156236
 30
2.660515125698272
 11
19.96927879039164
 21
6.72449623025468
 31
2.681753938020212
  0
LINE
  5
1B5
  8
PAREDES
 10
19.96927879039164
 20
6.72449623025468
 30
2.681753938020212
 11
19.96927879039164
 21
6.719774936346409
 31
2.702811923782924
  0
LINE
  5
1B6
  8
PAREDES
 10
19.96927879039164
 20
6.719774936346409
 30
2.702811923782924
 11
19.96927879039164
 21
6.71454940637634
 31
2.7236898535612
  0
LINE
  5
1B7
  8
PAREDES
 10
19.96927879039164
 20
6.71454940637634
 30
2.7236898535612
 11
19.96927879039164
 21
6.708823886289399
 31
2.744388497929835
  0
LINE
  5
1B8
  8
PAREDES
 10
19.96927879039164
 20
6.708823886289399
 30
2.744388497929835
 11
19.96927879039164
 21
6.702602622030505
 31
2.764908627463624
  0
LINE
  5
1B9
  8
PAREDES
 10
19.96927879039164
 20
6.702602622030505
 30
2.764908627463624
 11
19.96927879039164
 21
6.695889859544581
 31
2.785251012737361
  0
LINE
  5
1BA
  8
PAREDES
 10
19.96927879039164
 20
6.695889859544581
 30
2.785251012737361
 11
19.96927879039164
 21
6.688689844776547
 31
2.805416424325839
  0
LINE
  5
1BB
  8
PAREDES
 10
19.96927879039164
 20
6.688689844776547
 30
2.805416424325839
 11
19.96927879039164
 21
6.681006823671326
 31
2.825405632803855
  0
LINE
  5
1BC
  8
PAREDES
 10
19.96927879039164
 20
6.681006823671326
 30
2.825405632803855
 11
19.96927879039164
 21
6.672845042173838
 31
2.845219408746201
  0
LINE
  5
1BD
  8
PAREDES
 10
19.96927879039164
 20
6.672845042173838
 30
2.845219408746201
 11
19.96927879039164
 21
6.664208746229006
 31
2.864858522727673
  0
LINE
  5
1BE
  8
PAREDES
 10
19.96927879039164
 20
6.664208746229006
 30
2.864858522727673
 11
19.96927879039164
 21
6.655102181781752
 31
2.884323745323064
  0
LINE
  5
1BF
  8
PAREDES
 10
19.96927879039164
 20
6.655102181781752
 30
2.884323745323064
 11
19.96927879039164
 21
6.645529594776996
 31
2.903615847107169
  0
LINE
  5
1C0
  8
PAREDES
 10
19.96927879039164
 20
6.645529594776996
 30
2.903615847107169
 11
19.96927879039164
 21
6.635495231159661
 31
2.922735598654782
  0
LINE
  5
1C1
  8
PAREDES
 10
19.96927879039164
 20
6.635495231159661
 30
2.922735598654782
 11
19.96927879039164
 21
6.625003336874666
 31
2.941683770540698
  0
LINE
  5
1C2
  8
PAREDES
 10
19.96927879039164
 20
6.625003336874666
 30
2.941683770540698
 11
19.96927879039164
 21
6.614058157866937
 31
2.96046113333971
  0
LINE
  5
1C3
  8
PAREDES
 10
19.96927879039164
 20
6.614058157866937
 30
2.96046113333971
 11
19.96927879039164
 21
6.602663940081392
 31
2.979068457626615
  0
LINE
  5
1C4
  8
PAREDES
 10
19.96927879039164
 20
6.602663940081392
 30
2.979068457626615
 11
19.96927879039164
 21
6.590824929462953
 31
2.997506513976204
  0
LINE
  5
1C5
  8
PAREDES
 10
19.96927879039164
 20
6.590824929462953
 30
2.997506513976204
 11
19.96927879039164
 21
6.578545371956542
 31
3.015776072963274
  0
LINE
  5
1C6
  8
PAREDES
 10
19.96927879039164
 20
6.578545371956542
 30
3.015776072963274
 11
19.96927879039164
 21
6.565829513507082
 31
3.033877905162618
  0
LINE
  5
1C7
  8
PAREDES
 10
19.96927879039164
 20
6.565829513507082
 30
3.033877905162618
 11
19.96927879039164
 21
6.552681600059493
 31
3.051812781149031
  0
LINE
  5
1C8
  8
PAREDES
 10
19.96927879039164
 20
6.552681600059493
 30
3.051812781149031
 11
19.96927879039164
 21
6.539105877558696
 31
3.069581471497306
  0
LINE
  5
1C9
  8
PAREDES
 10
19.96927879039164
 20
6.539105877558696
 30
3.069581471497306
 11
19.96927879039164
 21
6.525106591949614
 31
3.087184746782239
  0
LINE
  5
1CA
  8
PAREDES
 10
19.96927879039164
 20
6.525106591949614
 30
3.087184746782239
 11
19.96927879039164
 21
6.510687989177168
 31
3.104623377578624
  0
LINE
  5
1CB
  8
PAREDES
 10
19.96927879039164
 20
6.510687989177168
 30
3.104623377578624
 11
19.96927879039164
 21
6.495854315186279
 31
3.121898134461255
  0
LINE
  5
1CC
  8
PAREDES
 10
19.96927879039164
 20
6.495854315186279
 30
3.121898134461255
 11
19.96927879039164
 21
6.48060981592187
 31
3.139009788004926
  0
LINE
  5
1CD
  8
PAREDES
 10
19.96927879039164
 20
6.48060981592187
 30
3.139009788004926
 11
19.96927879039164
 21
6.448905325352175
 31
3.172746867374567
  0
LINE
  5
1CE
  8
PAREDES
 10
19.96927879039164
 20
6.448905325352175
 30
3.172746867374567
 11
19.96927879039164
 21
6.415608485027456
 31
3.205840780285901
  0
LINE
  5
1CF
  8
PAREDES
 10
19.96927879039164
 20
6.415608485027456
 30
3.205840780285901
 11
19.96927879039164
 21
6.380753262507085
 31
3.238297691337285
  0
LINE
  5
1D0
  8
PAREDES
 10
19.96927879039164
 20
6.380753262507085
 30
3.238297691337285
 11
19.96927879039164
 21
6.344373625350435
 31
3.270123765127071
  0
LINE
  5
1D1
  8
PAREDES
 10
19.96927879039164
 20
6.344373625350435
 30
3.270123765127071
 11
19.96927879039164
 21
6.306503541116877
 31
3.301325166253616
  0
LINE
  5
1D2
  8
PAREDES
 10
19.96927879039164
 20
6.306503541116877
 30
3.301325166253616
 11
19.96927879039164
 21
6.267176977365786
 31
3.331908059315273
  0
LINE
  5
1D3
  8
PAREDES
 10
19.96927879039164
 20
6.267176977365786
 30
3.331908059315273
 11
19.96927879039164
 21
6.226427901656534
 31
3.361878608910398
  0
LINE
  5
1D4
  8
PAREDES
 10
19.96927879039164
 20
6.226427901656534
 30
3.361878608910398
 11
19.96927879039164
 21
6.184290281548492
 31
3.391242979637346
  0
LINE
  5
1D5
  8
PAREDES
 10
19.96927879039164
 20
6.184290281548492
 30
3.391242979637346
 11
19.96927879039164
 21
6.140798084601034
 31
3.42000733609447
  0
LINE
  5
1D6
  8
PAREDES
 10
19.96927879039164
 20
6.140798084601034
 30
3.42000733609447
 11
19.96927879039164
 21
6.095985278373533
 31
3.448177842880127
  0
LINE
  5
1D7
  8
PAREDES
 10
19.96927879039164
 20
6.095985278373533
 30
3.448177842880127
 11
19.96927879039164
 21
6.04988583042536
 31
3.47576066459267
  0
LINE
  5
1D8
  8
PAREDES
 10
19.96927879039164
 20
6.04988583042536
 30
3.47576066459267
 11
19.96927879039164
 21
6.002533708315888
 31
3.502761965830455
  0
LINE
  5
1D9
  8
PAREDES
 10
19.96927879039164
 20
6.002533708315888
 30
3.502761965830455
 11
19.96927879039164
 21
5.953962879604491
 31
3.529187911191836
  0
LINE
  5
1DA
  8
PAREDES
 10
19.96927879039164
 20
5.953962879604491
 30
3.529187911191836
 11
19.96927879039164
 21
5.90420731185054
 31
3.555044665275168
  0
LINE
  5
1DB
  8
PAREDES
 10
19.96927879039164
 20
5.90420731185054
 30
3.555044665275168
 11
19.96927879039164
 21
5.801277829452469
 31
3.605075258001104
  0
LINE
  5
1DC
  8
PAREDES
 10
19.96927879039164
 20
5.801277829452469
 30
3.605075258001104
 11
19.96927879039164
 21
5.694017001596655
 31
3.652903060795102
  0
LINE
  5
1DD
  8
PAREDES
 10
19.96927879039164
 20
5.694017001596655
 30
3.652903060795102
 11
19.96927879039164
 21
5.582696568758079
 31
3.698577390443999
  0
LINE
  5
1DE
  8
PAREDES
 10
19.96927879039164
 20
5.582696568758079
 30
3.698577390443999
 11
19.96927879039164
 21
5.467588271411723
 31
3.742147563734633
  0
LINE
  5
1DF
  8
PAREDES
 10
19.96927879039164
 20
5.467588271411723
 30
3.742147563734633
 11
19.96927879039164
 21
5.348963850032565
 31
3.783662897453843
  0
LINE
  5
1E0
  8
PAREDES
 10
19.96927879039164
 20
5.348963850032565
 30
3.783662897453843
 11
19.96927879039164
 21
5.227095045095586
 31
3.823172708388467
  0
LINE
  5
1E1
  8
PAREDES
 10
19.96927879039164
 20
5.227095045095586
 30
3.823172708388467
 11
19.96927879039164
 21
5.102253597075769
 31
3.860726313325344
  0
LINE
  5
1E2
  8
PAREDES
 10
19.96927879039164
 20
5.102253597075769
 30
3.860726313325344
 11
19.96927879039164
 21
4.974711246448095
 31
3.89637302905131
  0
LINE
  5
1E3
  8
PAREDES
 10
19.96927879039164
 20
4.974711246448095
 30
3.89637302905131
 11
19.96927879039164
 21
4.844739733687542
 31
3.930162172353206
  0
LINE
  5
1E4
  8
PAREDES
 10
19.96927879039164
 20
4.844739733687542
 30
3.930162172353206
 11
19.96927879039164
 21
4.578596183667725
 31
3.992365008832134
  0
LINE
  5
1E5
  8
PAREDES
 10
19.96927879039164
 20
4.578596183667725
 30
3.992365008832134
 11
19.96927879039164
 21
4.305996870816165
 31
4.047729357056834
  0
LINE
  5
1E6
  8
PAREDES
 10
19.96927879039164
 20
4.305996870816165
 30
4.047729357056834
 11
19.96927879039164
 21
4.029115718932709
 31
4.096649751322012
  0
LINE
  5
1E7
  8
PAREDES
 10
19.96927879039164
 20
4.029115718932709
 30
4.096649751322012
 11
19.96927879039164
 21
3.750126651817199
 31
4.13952072592237
  0
LINE
  5
1E8
  8
PAREDES
 10
19.96927879039164
 20
3.750126651817199
 30
4.13952072592237
 11
19.96927879039164
 21
3.471203593269484
 31
4.176736815152617
  0
LINE
  5
1E9
  8
PAREDES
 10
19.96927879039164
 20
3.471203593269484
 30
4.176736815152617
 11
19.96927879039164
 21
3.194520467089407
 31
4.208692553307458
  0
LINE
  5
1EA
  8
PAREDES
 10
19.96927879039164
 20
3.194520467089407
 30
4.208692553307458
 11
19.96927879039164
 21
2.656569707031553
 31
4.258401113569738
  0
LINE
  5
1EB
  8
PAREDES
 10
19.96927879039164
 20
2.656569707031553
 30
4.258401113569738
 11
19.96927879039164
 21
2.153665762042401
 31
4.291802681066853
  0
LINE
  5
1EC
  8
PAREDES
 10
19.96927879039164
 20
2.153665762042401
 30
4.291802681066853
 11
19.96927879039164
 21
1.703200022520716
 31
4.312053530156446
  0
LINE
  5
1ED
  8
PAREDES
 10
19.96927879039164
 20
1.703200022520716
 30
4.312053530156446
 11
19.96927879039164
 21
1.029148721474798
 31
4.325728170543636
  0
LINE
  5
1EE
  8
PAREDES
 10
19.96927879039164
 20
1.029148721474798
 30
4.325728170543636
 11
19.96927879039164
 21
0.7735469270839115
 31
4.324675229592446
  0
LINE
  5
1EF
  8
PAREDES
 10
20.56927879039164
 20
4.242947560982182
 30
-1.645468540616406
 11
19.96927879039164
 21
4.242947560982182
 31
-1.645468540616406
  0
LINE
  5
1F0
  8
PAREDES
 10
20.56927879039164
 20
0.7735469270839115
 30
4.324675229592446
 11
20.56927879039164
 21
1.029148721474798
 31
4.325728170543636
  0
LINE
  5
1F1
  8
PAREDES
 10
20.56927879039164
 20
1.029148721474798
 30
4.325728170543636
 11
20.56927879039164
 21
1.703200022520716
 31
4.312053530156446
  0
LINE
  5
1F2
  8
PAREDES
 10
20.56927879039164
 20
1.703200022520716
 30
4.312053530156446
 11
20.56927879039164
 21
2.153665762042401
 31
4.291802681066853
  0
LINE
  5
1F3
  8
PAREDES
 10
20.56927879039164
 20
2.153665762042401
 30
4.291802681066853
 11
20.56927879039164
 21
2.656569707031553
 31
4.258401113569738
  0
LINE
  5
1F4
  8
PAREDES
 10
20.56927879039164
 20
2.656569707031553
 30
4.258401113569738
 11
20.56927879039164
 21
3.194520467089407
 31
4.208692553307458
  0
LINE
  5
1F5
  8
PAREDES
 10
20.56927879039164
 20
3.194520467089407
 30
4.208692553307458
 11
20.56927879039164
 21
3.471203593269484
 31
4.176736815152617
  0
LINE
  5
1F6
  8
PAREDES
 10
20.56927879039164
 20
3.471203593269484
 30
4.176736815152617
 11
20.56927879039164
 21
3.750126651817199
 31
4.13952072592237
  0
LINE
  5
1F7
  8
PAREDES
 10
20.56927879039164
 20
3.750126651817199
 30
4.13952072592237
 11
20.56927879039164
 21
4.029115718932709
 31
4.096649751322012
  0
LINE
  5
1F8
  8
PAREDES
 10
20.56927879039164
 20
4.029115718932709
 30
4.096649751322012
 11
20.56927879039164
 21
4.305996870816165
 31
4.047729357056834
  0
LINE
  5
1F9
  8
PAREDES
 10
20.56927879039164
 20
4.305996870816165
 30
4.047729357056834
 11
20.56927879039164
 21
4.578596183667725
 31
3.992365008832134
  0
LINE
  5
1FA
  8
PAREDES
 10
20.56927879039164
 20
4.578596183667725
 30
3.992365008832134
 11
20.56927879039164
 21
4.844739733687542
 31
3.930162172353206
  0
LINE
  5
1FB
  8
PAREDES
 10
20.56927879039164
 20
4.844739733687542
 30
3.930162172353206
 11
20.56927879039164
 21
4.974711246448095
 31
3.89637302905131
  0
LINE
  5
1FC
  8
PAREDES
 10
20.56927879039164
 20
4.974711246448095
 30
3.89637302905131
 11
20.56927879039164
 21
5.102253597075769
 31
3.860726313325344
  0
LINE
  5
1FD
  8
PAREDES
 10
20.56927879039164
 20
5.102253597075769
 30
3.860726313325344
 11
20.56927879039164
 21
5.227095045095586
 31
3.823172708388467
  0
LINE
  5
1FE
  8
PAREDES
 10
20.56927879039164
 20
5.227095045095586
 30
3.823172708388467
 11
20.56927879039164
 21
5.348963850032565
 31
3.783662897453843
  0
LINE
  5
1FF
  8
PAREDES
 10
20.56927879039164
 20
5.348963850032565
 30
3.783662897453843
 11
20.56927879039164
 21
5.467588271411723
 31
3.742147563734633
  0
LINE
  5
200
  8
PAREDES
 10
20.56927879039164
 20
5.467588271411723
 30
3.742147563734633
 11
20.56927879039164
 21
5.582696568758079
 31
3.698577390443999
  0
LINE
  5
201
  8
PAREDES
 10
20.56927879039164
 20
5.582696568758079
 30
3.698577390443999
 11
20.56927879039164
 21
5.694017001596655
 31
3.652903060795102
  0
LINE
  5
202
  8
PAREDES
 10
20.56927879039164
 20
5.694017001596655
 30
3.652903060795102
 11
20.56927879039164
 21
5.801277829452469
 31
3.605075258001104
  0
LINE
  5
203
  8
PAREDES
 10
20.56927879039164
 20
5.801277829452469
 30
3.605075258001104
 11
20.56927879039164
 21
5.90420731185054
 31
3.555044665275168
  0
LINE
  5
204
  8
PAREDES
 10
20.56927879039164
 20
5.90420731185054
 30
3.555044665275168
 11
20.56927879039164
 21
5.953962879604491
 31
3.529187911191836
  0
LINE
  5
205
  8
PAREDES
 10
20.56927879039164
 20
5.953962879604491
 30
3.529187911191836
 11
20.56927879039164
 21
6.002533708315888
 31
3.502761965830455
  0
LINE
  5
206
  8
PAREDES
 10
20.56927879039164
 20
6.002533708315888
 30
3.502761965830455
 11
20.56927879039164
 21
6.04988583042536
 31
3.47576066459267
  0
LINE
  5
207
  8
PAREDES
 10
20.56927879039164
 20
6.04988583042536
 30
3.47576066459267
 11
20.56927879039164
 21
6.095985278373533
 31
3.448177842880127
  0
LINE
  5
208
  8
PAREDES
 10
20.56927879039164
 20
6.095985278373533
 30
3.448177842880127
 11
20.56927879039164
 21
6.140798084601034
 31
3.42000733609447
  0
LINE
  5
209
  8
PAREDES
 10
20.56927879039164
 20
6.140798084601034
 30
3.42000733609447
 11
20.56927879039164
 21
6.184290281548492
 31
3.391242979637346
  0
LINE
  5
20A
  8
PAREDES
 10
20.56927879039164
 20
6.184290281548492
 30
3.391242979637346
 11
20.56927879039164
 21
6.226427901656534
 31
3.361878608910398
  0
LINE
  5
20B
  8
PAREDES
 10
20.56927879039164
 20
6.226427901656534
 30
3.361878608910398
 11
20.56927879039164
 21
6.267176977365786
 31
3.331908059315273
  0
LINE
  5
20C
  8
PAREDES
 10
20.56927879039164
 20
6.267176977365786
 30
3.331908059315273
 11
20.56927879039164
 21
6.306503541116877
 31
3.301325166253616
  0
LINE
  5
20D
  8
PAREDES
 10
20.56927879039164
 20
6.306503541116877
 30
3.301325166253616
 11
20.56927879039164
 21
6.344373625350435
 31
3.270123765127071
  0
LINE
  5
20E
  8
PAREDES
 10
20.56927879039164
 20
6.344373625350435
 30
3.270123765127071
 11
20.56927879039164
 21
6.380753262507085
 31
3.238297691337285
  0
LINE
  5
20F
  8
PAREDES
 10
20.56927879039164
 20
6.380753262507085
 30
3.238297691337285
 11
20.56927879039164
 21
6.415608485027456
 31
3.205840780285901
  0
LINE
  5
210
  8
PAREDES
 10
20.56927879039164
 20
6.415608485027456
 30
3.205840780285901
 11
20.56927879039164
 21
6.448905325352175
 31
3.172746867374567
  0
LINE
  5
211
  8
PAREDES
 10
20.56927879039164
 20
6.448905325352175
 30
3.172746867374567
 11
20.56927879039164
 21
6.48060981592187
 31
3.139009788004926
  0
LINE
  5
212
  8
PAREDES
 10
20.56927879039164
 20
6.48060981592187
 30
3.139009788004926
 11
20.56927879039164
 21
6.495854315186279
 31
3.121898134461255
  0
LINE
  5
213
  8
PAREDES
 10
20.56927879039164
 20
6.495854315186279
 30
3.121898134461255
 11
20.56927879039164
 21
6.510687989177168
 31
3.104623377578624
  0
LINE
  5
214
  8
PAREDES
 10
20.56927879039164
 20
6.510687989177168
 30
3.104623377578624
 11
20.56927879039164
 21
6.525106591949614
 31
3.087184746782239
  0
LINE
  5
215
  8
PAREDES
 10
20.56927879039164
 20
6.525106591949614
 30
3.087184746782239
 11
20.56927879039164
 21
6.539105877558696
 31
3.069581471497306
  0
LINE
  5
216
  8
PAREDES
 10
20.56927879039164
 20
6.539105877558696
 30
3.069581471497306
 11
20.56927879039164
 21
6.552681600059493
 31
3.051812781149031
  0
LINE
  5
217
  8
PAREDES
 10
20.56927879039164
 20
6.552681600059493
 30
3.051812781149031
 11
20.56927879039164
 21
6.565829513507082
 31
3.033877905162618
  0
LINE
  5
218
  8
PAREDES
 10
20.56927879039164
 20
6.565829513507082
 30
3.033877905162618
 11
20.56927879039164
 21
6.578545371956542
 31
3.015776072963274
  0
LINE
  5
219
  8
PAREDES
 10
20.56927879039164
 20
6.578545371956542
 30
3.015776072963274
 11
20.56927879039164
 21
6.590824929462953
 31
2.997506513976204
  0
LINE
  5
21A
  8
PAREDES
 10
20.56927879039164
 20
6.590824929462953
 30
2.997506513976204
 11
20.56927879039164
 21
6.602663940081392
 31
2.979068457626615
  0
LINE
  5
21B
  8
PAREDES
 10
20.56927879039164
 20
6.602663940081392
 30
2.979068457626615
 11
20.56927879039164
 21
6.614058157866937
 31
2.96046113333971
  0
LINE
  5
21C
  8
PAREDES
 10
20.56927879039164
 20
6.614058157866937
 30
2.96046113333971
 11
20.56927879039164
 21
6.625003336874666
 31
2.941683770540698
  0
LINE
  5
21D
  8
PAREDES
 10
20.56927879039164
 20
6.625003336874666
 30
2.941683770540698
 11
20.56927879039164
 21
6.635495231159661
 31
2.922735598654782
  0
LINE
  5
21E
  8
PAREDES
 10
20.56927879039164
 20
6.635495231159661
 30
2.922735598654782
 11
20.56927879039164
 21
6.645529594776996
 31
2.903615847107169
  0
LINE
  5
21F
  8
PAREDES
 10
20.56927879039164
 20
6.645529594776996
 30
2.903615847107169
 11
20.56927879039164
 21
6.655102181781752
 31
2.884323745323064
  0
LINE
  5
220
  8
PAREDES
 10
20.56927879039164
 20
6.655102181781752
 30
2.884323745323064
 11
20.56927879039164
 21
6.664208746229006
 31
2.864858522727673
  0
LINE
  5
221
  8
PAREDES
 10
20.56927879039164
 20
6.664208746229006
 30
2.864858522727673
 11
20.56927879039164
 21
6.672845042173838
 31
2.845219408746201
  0
LINE
  5
222
  8
PAREDES
 10
20.56927879039164
 20
6.672845042173838
 30
2.845219408746201
 11
20.56927879039164
 21
6.681006823671326
 31
2.825405632803855
  0
LINE
  5
223
  8
PAREDES
 10
20.56927879039164
 20
6.681006823671326
 30
2.825405632803855
 11
20.56927879039164
 21
6.688689844776547
 31
2.805416424325839
  0
LINE
  5
224
  8
PAREDES
 10
20.56927879039164
 20
6.688689844776547
 30
2.805416424325839
 11
20.56927879039164
 21
6.695889859544581
 31
2.785251012737361
  0
LINE
  5
225
  8
PAREDES
 10
20.56927879039164
 20
6.695889859544581
 30
2.785251012737361
 11
20.56927879039164
 21
6.702602622030505
 31
2.764908627463624
  0
LINE
  5
226
  8
PAREDES
 10
20.56927879039164
 20
6.702602622030505
 30
2.764908627463624
 11
20.56927879039164
 21
6.708823886289399
 31
2.744388497929835
  0
LINE
  5
227
  8
PAREDES
 10
20.56927879039164
 20
6.708823886289399
 30
2.744388497929835
 11
20.56927879039164
 21
6.71454940637634
 31
2.7236898535612
  0
LINE
  5
228
  8
PAREDES
 10
20.56927879039164
 20
6.71454940637634
 30
2.7236898535612
 11
20.56927879039164
 21
6.719774936346409
 31
2.702811923782924
  0
LINE
  5
229
  8
PAREDES
 10
20.56927879039164
 20
6.719774936346409
 30
2.702811923782924
 11
20.56927879039164
 21
6.72449623025468
 31
2.681753938020212
  0
LINE
  5
22A
  8
PAREDES
 10
20.56927879039164
 20
6.72449623025468
 30
2.681753938020212
 11
20.56927879039164
 21
6.728709042156236
 31
2.660515125698272
  0
LINE
  5
22B
  8
PAREDES
 10
20.56927879039164
 20
6.728709042156236
 30
2.660515125698272
 11
20.56927879039164
 21
6.732409126106152
 31
2.639094716242306
  0
LINE
  5
22C
  8
PAREDES
 10
20.56927879039164
 20
6.732409126106152
 30
2.639094716242306
 11
20.56927879039164
 21
6.735592236159508
 31
2.617491939077524
  0
LINE
  5
22D
  8
PAREDES
 10
20.56927879039164
 20
6.735592236159508
 30
2.617491939077524
 11
20.56927879039164
 21
6.738254126371383
 31
2.595706023629128
  0
LINE
  5
22E
  8
PAREDES
 10
20.56927879039164
 20
6.738254126371383
 30
2.595706023629128
 11
20.56927879039164
 21
6.740390550796855
 31
2.573736199322325
  0
LINE
  5
22F
  8
PAREDES
 10
20.56927879039164
 20
6.740390550796855
 30
2.573736199322325
 11
20.56927879039164
 21
6.741997263491001
 31
2.551581695582321
  0
LINE
  5
230
  8
PAREDES
 10
20.56927879039164
 20
6.741997263491001
 30
2.551581695582321
 11
20.56927879039164
 21
6.743070018508901
 31
2.529241741834321
  0
LINE
  5
231
  8
PAREDES
 10
20.56927879039164
 20
6.743070018508901
 30
2.529241741834321
 11
20.56927879039164
 21
6.743604569905633
 31
2.506715567503532
  0
LINE
  5
232
  8
PAREDES
 10
20.56927879039164
 20
6.743604569905633
 30
2.506715567503532
 11
20.56927879039164
 21
6.743758812785409
 31
2.354609828131006
  0
LINE
  5
233
  8
PAREDES
 10
20.56927879039164
 20
6.743758812785409
 30
2.354609828131006
 11
20.56927879039164
 21
6.740616386937816
 31
2.197493313655567
  0
LINE
  5
234
  8
PAREDES
 10
20.56927879039164
 20
6.740616386937816
 30
2.197493313655567
 11
20.56927879039164
 21
6.734001799400698
 31
2.036011295045532
  0
LINE
  5
235
  8
PAREDES
 10
20.56927879039164
 20
6.734001799400698
 30
2.036011295045532
 11
20.56927879039164
 21
6.723739557211896
 31
1.870809043269215
  0
LINE
  5
236
  8
PAREDES
 10
20.56927879039164
 20
6.723739557211896
 30
1.870809043269215
 11
20.56927879039164
 21
6.709654167409253
 31
1.702531829294934
  0
LINE
  5
237
  8
PAREDES
 10
20.56927879039164
 20
6.709654167409253
 30
1.702531829294934
 11
20.56927879039164
 21
6.691570137030611
 31
1.531824924091002
  0
LINE
  5
238
  8
PAREDES
 10
20.56927879039164
 20
6.691570137030611
 30
1.531824924091002
 11
20.56927879039164
 21
6.669311973113814
 31
1.359333598625736
  0
LINE
  5
239
  8
PAREDES
 10
20.56927879039164
 20
6.669311973113814
 30
1.359333598625736
 11
20.56927879039164
 21
6.642704182696701
 31
1.18570312386745
  0
LINE
  5
23A
  8
PAREDES
 10
20.56927879039164
 20
6.642704182696701
 30
1.18570312386745
 11
20.56927879039164
 21
6.611571272817117
 31
1.011578770784462
  0
LINE
  5
23B
  8
PAREDES
 10
20.56927879039164
 20
6.611571272817117
 30
1.011578770784462
 11
20.56927879039164
 21
6.575737750512904
 31
0.8376058103450867
  0
LINE
  5
23C
  8
PAREDES
 10
20.56927879039164
 20
6.575737750512904
 30
0.8376058103450867
 11
20.56927879039164
 21
6.535028122821904
 31
0.6644295135176393
  0
LINE
  5
23D
  8
PAREDES
 10
20.56927879039164
 20
6.535028122821904
 30
0.6644295135176393
 11
20.56927879039164
 21
6.489266896781961
 31
0.4926951512704357
  0
LINE
  5
23E
  8
PAREDES
 10
20.56927879039164
 20
6.489266896781961
 30
0.4926951512704357
 11
20.56927879039164
 21
6.438278579430917
 31
0.3230479945717914
  0
LINE
  5
23F
  8
PAREDES
 10
20.56927879039164
 20
6.438278579430917
 30
0.3230479945717914
 11
20.56927879039164
 21
6.410769419963058
 31
0.2392087654807777
  0
LINE
  5
240
  8
PAREDES
 10
20.56927879039164
 20
6.410769419963058
 30
0.2392087654807777
 11
20.56927879039164
 21
6.381887677806613
 31
0.1561333143900221
  0
LINE
  5
241
  8
PAREDES
 10
20.56927879039164
 20
6.381887677806613
 30
0.1561333143900221
 11
20.56927879039164
 21
6.351611416341315
 31
0.0739023001705642
  0
LINE
  5
242
  8
PAREDES
 10
20.56927879039164
 20
6.351611416341315
 30
0.0739023001705642
 11
20.56927879039164
 21
6.319918698946892
 31
-0.0074036183065567
  0
LINE
  5
243
  8
PAREDES
 10
20.56927879039164
 20
6.319918698946892
 30
-0.0074036183065567
 11
20.56927879039164
 21
6.286787589003076
 31
-0.087703782170301
  0
LINE
  5
244
  8
PAREDES
 10
20.56927879039164
 20
6.286787589003076
 30
-0.087703782170301
 11
20.56927879039164
 21
6.252196149889597
 31
-0.1669175325496293
  0
LINE
  5
245
  8
PAREDES
 10
20.56927879039164
 20
6.252196149889597
 30
-0.1669175325496293
 11
20.56927879039164
 21
6.216122444986185
 31
-0.2449642105735021
  0
LINE
  5
246
  8
PAREDES
 10
20.56927879039164
 20
6.216122444986185
 30
-0.2449642105735021
 11
20.56927879039164
 21
6.17854453767257
 31
-0.32176315737088
  0
LINE
  5
247
  8
PAREDES
 10
20.56927879039164
 20
6.17854453767257
 30
-0.32176315737088
 11
20.56927879039164
 21
6.139440491328482
 31
-0.3972337140707236
  0
LINE
  5
248
  8
PAREDES
 10
20.56927879039164
 20
6.139440491328482
 30
-0.3972337140707236
 11
20.56927879039164
 21
6.098788369333652
 31
-0.4712952218019933
  0
LINE
  5
249
  8
PAREDES
 10
20.56927879039164
 20
6.098788369333652
 30
-0.4712952218019933
 11
20.56927879039164
 21
6.056566235067811
 31
-0.5438670216936499
  0
LINE
  5
24A
  8
PAREDES
 10
20.56927879039164
 20
6.056566235067811
 30
-0.5438670216936499
 11
20.56927879039164
 21
6.012752151910689
 31
-0.6148684548746537
  0
LINE
  5
24B
  8
PAREDES
 10
20.56927879039164
 20
6.012752151910689
 30
-0.6148684548746537
 11
20.56927879039164
 21
5.967324183242015
 31
-0.6842188624739654
  0
LINE
  5
24C
  8
PAREDES
 10
20.56927879039164
 20
5.967324183242015
 30
-0.6842188624739654
 11
20.56927879039164
 21
5.92026039244152
 31
-0.7518375856205454
  0
LINE
  5
24D
  8
PAREDES
 10
20.56927879039164
 20
5.92026039244152
 30
-0.7518375856205454
 11
20.56927879039164
 21
5.871538842888935
 31
-0.8176439654433544
  0
LINE
  5
24E
  8
PAREDES
 10
20.56927879039164
 20
5.871538842888935
 30
-0.8176439654433544
 11
20.56927879039164
 21
5.82113759796399
 31
-0.8815573430713528
  0
LINE
  5
24F
  8
PAREDES
 10
20.56927879039164
 20
5.82113759796399
 30
-0.8815573430713528
 11
20.56927879039164
 21
5.769034721046415
 31
-0.9434970596335013
  0
LINE
  5
250
  8
PAREDES
 10
20.56927879039164
 20
5.769034721046415
 30
-0.9434970596335013
 11
20.56927879039164
 21
5.715208275515939
 31
-1.00338245625876
  0
LINE
  5
251
  8
PAREDES
 10
20.56927879039164
 20
5.715208275515939
 30
-1.00338245625876
 11
20.56927879039164
 21
5.659636324752295
 31
-1.061132874076091
  0
LINE
  5
252
  8
PAREDES
 10
20.56927879039164
 20
5.659636324752295
 30
-1.061132874076091
 11
20.56927879039164
 21
5.631188929714201
 31
-1.089182260034582
  0
LINE
  5
253
  8
PAREDES
 10
20.56927879039164
 20
5.631188929714201
 30
-1.089182260034582
 11
20.56927879039164
 21
5.602296932135213
 31
-1.116667654214452
  0
LINE
  5
254
  8
PAREDES
 10
20.56927879039164
 20
5.602296932135213
 30
-1.116667654214452
 11
20.56927879039164
 21
5.572957589937796
 31
-1.14357897425682
  0
LINE
  5
255
  8
PAREDES
 10
20.56927879039164
 20
5.572957589937796
 30
-1.14357897425682
 11
20.56927879039164
 21
5.54316816104442
 31
-1.169906137802806
  0
LINE
  5
256
  8
PAREDES
 10
20.56927879039164
 20
5.54316816104442
 30
-1.169906137802806
 11
20.56927879039164
 21
5.512925903377548
 31
-1.195639062493531
  0
LINE
  5
257
  8
PAREDES
 10
20.56927879039164
 20
5.512925903377548
 30
-1.195639062493531
 11
20.56927879039164
 21
5.482228074859648
 31
-1.220767665970113
  0
LINE
  5
258
  8
PAREDES
 10
20.56927879039164
 20
5.482228074859648
 30
-1.220767665970113
 11
20.56927879039164
 21
5.451071933413187
 31
-1.245281865873674
  0
LINE
  5
259
  8
PAREDES
 10
20.56927879039164
 20
5.451071933413187
 30
-1.245281865873674
 11
20.56927879039164
 21
5.419454736960629
 31
-1.269171579845333
  0
LINE
  5
25A
  8
PAREDES
 10
20.56927879039164
 20
5.419454736960629
 30
-1.269171579845333
 11
20.56927879039164
 21
5.387373743424443
 31
-1.292426725526211
  0
LINE
  5
25B
  8
PAREDES
 10
20.56927879039164
 20
5.387373743424443
 30
-1.292426725526211
 11
20.56927879039164
 21
5.354826210727093
 31
-1.315037220557427
  0
LINE
  5
25C
  8
PAREDES
 10
20.56927879039164
 20
5.354826210727093
 30
-1.315037220557427
 11
20.56927879039164
 21
5.321809396791046
 31
-1.336992982580102
  0
LINE
  5
25D
  8
PAREDES
 10
20.56927879039164
 20
5.321809396791046
 30
-1.336992982580102
 11
20.56927879039164
 21
5.28832055953877
 31
-1.358283929235356
  0
LINE
  5
25E
  8
PAREDES
 10
20.56927879039164
 20
5.28832055953877
 30
-1.358283929235356
 11
20.56927879039164
 21
5.254356956892728
 31
-1.378899978164308
  0
LINE
  5
25F
  8
PAREDES
 10
20.56927879039164
 20
5.254356956892728
 30
-1.378899978164308
 11
20.56927879039164
 21
5.219915846775388
 31
-1.398831047008079
  0
LINE
  5
260
  8
PAREDES
 10
20.56927879039164
 20
5.219915846775388
 30
-1.398831047008079
 11
20.56927879039164
 21
5.184994487109217
 31
-1.418067053407789
  0
LINE
  5
261
  8
PAREDES
 10
20.56927879039164
 20
5.184994487109217
 30
-1.418067053407789
 11
20.56927879039164
 21
5.14959013581668
 31
-1.436597915004558
  0
LINE
  5
262
  8
PAREDES
 10
20.56927879039164
 20
5.14959013581668
 30
-1.436597915004558
 11
20.56927879039164
 21
5.113700050820244
 31
-1.454413549439506
  0
LINE
  5
263
  8
PAREDES
 10
20.56927879039164
 20
5.113700050820244
 30
-1.454413549439506
 11
20.56927879039164
 21
5.077321490042375
 31
-1.471503874353753
  0
LINE
  5
264
  8
PAREDES
 10
20.56927879039164
 20
5.077321490042375
 30
-1.471503874353753
 11
20.56927879039164
 21
5.040451711405539
 31
-1.487858807388419
  0
LINE
  5
265
  8
PAREDES
 10
20.56927879039164
 20
5.040451711405539
 30
-1.487858807388419
 11
20.56927879039164
 21
5.003087972832203
 31
-1.503468266184624
  0
LINE
  5
266
  8
PAREDES
 10
20.56927879039164
 20
5.003087972832203
 30
-1.503468266184624
 11
20.56927879039164
 21
4.965227532244834
 31
-1.518322168383489
  0
LINE
  5
267
  8
PAREDES
 10
20.56927879039164
 20
4.965227532244834
 30
-1.518322168383489
 11
20.56927879039164
 21
4.926867647565897
 31
-1.532410431626133
  0
LINE
  5
268
  8
PAREDES
 10
20.56927879039164
 20
4.926867647565897
 30
-1.532410431626133
 11
20.56927879039164
 21
4.888005576717858
 31
-1.545722973553677
  0
LINE
  5
269
  8
PAREDES
 10
20.56927879039164
 20
4.888005576717858
 30
-1.545722973553677
 11
20.56927879039164
 21
4.848638577623184
 31
-1.558249711807239
  0
LINE
  5
26A
  8
PAREDES
 10
20.56927879039164
 20
4.848638577623184
 30
-1.558249711807239
 11
20.56927879039164
 21
4.808763908204341
 31
-1.569980564027942
  0
LINE
  5
26B
  8
PAREDES
 10
20.56927879039164
 20
4.808763908204341
 30
-1.569980564027942
 11
20.56927879039164
 21
4.768378826383795
 31
-1.580905447856904
  0
LINE
  5
26C
  8
PAREDES
 10
20.56927879039164
 20
4.768378826383795
 30
-1.580905447856904
 11
20.56927879039164
 21
4.727480590084014
 31
-1.591014280935246
  0
LINE
  5
26D
  8
PAREDES
 10
20.56927879039164
 20
4.727480590084014
 30
-1.591014280935246
 11
20.56927879039164
 21
4.686066457227463
 31
-1.600296980904088
  0
LINE
  5
26E
  8
PAREDES
 10
20.56927879039164
 20
4.686066457227463
 30
-1.600296980904088
 11
20.56927879039164
 21
4.644133685736607
 31
-1.608743465404549
  0
LINE
  5
26F
  8
PAREDES
 10
20.56927879039164
 20
4.644133685736607
 30
-1.608743465404549
 11
20.56927879039164
 21
4.601679533533915
 31
-1.616343652077751
  0
LINE
  5
270
  8
PAREDES
 10
20.56927879039164
 20
4.601679533533915
 30
-1.616343652077751
 11
20.56927879039164
 21
4.55870125854185
 31
-1.623087458564812
  0
LINE
  5
271
  8
PAREDES
 10
20.56927879039164
 20
4.55870125854185
 30
-1.623087458564812
 11
20.56927879039164
 21
4.515196118682882
 31
-1.628964802506853
  0
LINE
  5
272
  8
PAREDES
 10
20.56927879039164
 20
4.515196118682882
 30
-1.628964802506853
 11
20.56927879039164
 21
4.471161371879475
 31
-1.633965601544995
  0
LINE
  5
273
  8
PAREDES
 10
20.56927879039164
 20
4.471161371879475
 30
-1.633965601544995
 11
20.56927879039164
 21
4.426594276054096
 31
-1.638079773320356
  0
LINE
  5
274
  8
PAREDES
 10
20.56927879039164
 20
4.426594276054096
 30
-1.638079773320356
 11
20.56927879039164
 21
4.381492089129211
 31
-1.641297235474058
  0
LINE
  5
275
  8
PAREDES
 10
20.56927879039164
 20
4.381492089129211
 30
-1.641297235474058
 11
20.56927879039164
 21
4.335852069027286
 31
-1.643607905647221
  0
LINE
  5
276
  8
PAREDES
 10
20.56927879039164
 20
4.335852069027286
 30
-1.643607905647221
 11
20.56927879039164
 21
4.289671473670787
 31
-1.645001701480963
  0
LINE
  5
277
  8
PAREDES
 10
20.56927879039164
 20
4.289671473670787
 30
-1.645001701480963
 11
20.56927879039164
 21
4.242947560982182
 31
-1.645468540616406
  0
LINE
  5
278
  8
PAREDES
 10
20.56927879039164
 20
0.7610756814272985
 30
4.324675229592446
 11
20.56927879039164
 21
0.7735469270839115
 31
4.324675229592446
  0
LINE
  5
279
  8
PAREDES
 10
19.96927879039164
 20
0.7610756814272985
 30
4.324675229592446
 11
19.96927879039164
 21
0.5054731468791795
 31
4.325728170543636
  0
LINE
  5
27A
  8
PAREDES
 10
19.96927879039164
 20
0.5054731468791795
 30
4.325728170543636
 11
19.96927879039164
 21
-0.1685801054903517
 31
4.312053530156446
  0
LINE
  5
27B
  8
PAREDES
 10
19.96927879039164
 20
-0.1685801054903517
 30
4.312053530156446
 11
19.96927879039164
 21
-0.6190471486980724
 31
4.291802681066853
  0
LINE
  5
27C
  8
PAREDES
 10
19.96927879039164
 20
-0.6190471486980724
 30
4.291802681066853
 11
19.96927879039164
 21
-1.121952548769057
 31
4.258401113569738
  0
LINE
  5
27D
  8
PAREDES
 10
19.96927879039164
 20
-1.121952548769057
 30
4.258401113569738
 11
19.96927879039164
 21
-1.659904864839275
 31
4.208692553307458
  0
LINE
  5
27E
  8
PAREDES
 10
19.96927879039164
 20
-1.659904864839275
 30
4.208692553307458
 11
19.96927879039164
 21
-1.936588791104088
 31
4.176736815152617
  0
LINE
  5
27F
  8
PAREDES
 10
19.96927879039164
 20
-1.936588791104088
 30
4.176736815152617
 11
19.96927879039164
 21
-2.215512656044698
 31
4.13952072592237
  0
LINE
  5
280
  8
PAREDES
 10
19.96927879039164
 20
-2.215512656044698
 30
4.13952072592237
 11
19.96927879039164
 21
-2.494502529553101
 31
4.096649751322012
  0
LINE
  5
281
  8
PAREDES
 10
19.96927879039164
 20
-2.494502529553101
 30
4.096649751322012
 11
19.96927879039164
 21
-2.771384481521294
 31
4.047729357056834
  0
LINE
  5
282
  8
PAREDES
 10
19.96927879039164
 20
-2.771384481521294
 30
4.047729357056834
 11
19.96927879039164
 21
-3.043984581841274
 31
3.992365008832134
  0
LINE
  5
283
  8
PAREDES
 10
19.96927879039164
 20
-3.043984581841274
 30
3.992365008832134
 11
19.96927879039164
 21
-3.310128900405036
 31
3.930162172353206
  0
LINE
  5
284
  8
PAREDES
 10
19.96927879039164
 20
-3.310128900405036
 30
3.930162172353206
 11
19.96927879039164
 21
-3.440100788369584
 31
3.89637302905131
  0
LINE
  5
285
  8
PAREDES
 10
19.96927879039164
 20
-3.440100788369584
 30
3.89637302905131
 11
19.96927879039164
 21
-3.567643507104576
 31
3.860726313325344
  0
LINE
  5
286
  8
PAREDES
 10
19.96927879039164
 20
-3.567643507104576
 30
3.860726313325344
 11
19.96927879039164
 21
-3.692485315346511
 31
3.823172708388467
  0
LINE
  5
287
  8
PAREDES
 10
19.96927879039164
 20
-3.692485315346511
 30
3.823172708388467
 11
19.96927879039164
 21
-3.814354471831891
 31
3.783662897453843
  0
LINE
  5
288
  8
PAREDES
 10
19.96927879039164
 20
-3.814354471831891
 30
3.783662897453843
 11
19.96927879039164
 21
-3.932979235297213
 31
3.742147563734633
  0
LINE
  5
289
  8
PAREDES
 10
19.96927879039164
 20
-3.932979235297213
 30
3.742147563734633
 11
19.96927879039164
 21
-4.048087864478978
 31
3.698577390443999
  0
LINE
  5
28A
  8
PAREDES
 10
19.96927879039164
 20
-4.048087864478978
 30
3.698577390443999
 11
19.96927879039164
 21
-4.159408618113684
 31
3.652903060795102
  0
LINE
  5
28B
  8
PAREDES
 10
19.96927879039164
 20
-4.159408618113684
 30
3.652903060795102
 11
19.96927879039164
 21
-4.266669754937832
 31
3.605075258001104
  0
LINE
  5
28C
  8
PAREDES
 10
19.96927879039164
 20
-4.266669754937832
 30
3.605075258001104
 11
19.96927879039164
 21
-4.369599533687921
 31
3.555044665275168
  0
LINE
  5
28D
  8
PAREDES
 10
19.96927879039164
 20
-4.369599533687921
 30
3.555044665275168
 11
19.96927879039164
 21
-4.419355244640348
 31
3.529187911191836
  0
LINE
  5
28E
  8
PAREDES
 10
19.96927879039164
 20
-4.419355244640348
 30
3.529187911191836
 11
19.96927879039164
 21
-4.46792621310045
 31
3.502761965830455
  0
LINE
  5
28F
  8
PAREDES
 10
19.96927879039164
 20
-4.46792621310045
 30
3.502761965830455
 11
19.96927879039164
 21
-4.515278471410285
 31
3.47576066459267
  0
LINE
  5
290
  8
PAREDES
 10
19.96927879039164
 20
-4.515278471410285
 30
3.47576066459267
 11
19.96927879039164
 21
-4.56137805191192
 31
3.448177842880127
  0
LINE
  5
291
  8
PAREDES
 10
19.96927879039164
 20
-4.56137805191192
 30
3.448177842880127
 11
19.96927879039164
 21
-4.606190986947412
 31
3.42000733609447
  0
LINE
  5
292
  8
PAREDES
 10
19.96927879039164
 20
-4.606190986947412
 30
3.42000733609447
 11
19.96927879039164
 21
-4.649683308858828
 31
3.391242979637346
  0
LINE
  5
293
  8
PAREDES
 10
19.96927879039164
 20
-4.649683308858828
 30
3.391242979637346
 11
19.96927879039164
 21
-4.691821049988228
 31
3.361878608910398
  0
LINE
  5
294
  8
PAREDES
 10
19.96927879039164
 20
-4.691821049988228
 30
3.361878608910398
 11
19.96927879039164
 21
-4.732570242677675
 31
3.331908059315273
  0
LINE
  5
295
  8
PAREDES
 10
19.96927879039164
 20
-4.732570242677675
 30
3.331908059315273
 11
19.96927879039164
 21
-4.771896919269233
 31
3.301325166253616
  0
LINE
  5
296
  8
PAREDES
 10
19.96927879039164
 20
-4.771896919269233
 30
3.301325166253616
 11
19.96927879039164
 21
-4.809767112104962
 31
3.270123765127071
  0
LINE
  5
297
  8
PAREDES
 10
19.96927879039164
 20
-4.809767112104962
 30
3.270123765127071
 11
19.96927879039164
 21
-4.846146853526925
 31
3.238297691337285
  0
LINE
  5
298
  8
PAREDES
 10
19.96927879039164
 20
-4.846146853526925
 30
3.238297691337285
 11
19.96927879039164
 21
-4.881002175877186
 31
3.205840780285901
  0
LINE
  5
299
  8
PAREDES
 10
19.96927879039164
 20
-4.881002175877186
 30
3.205840780285901
 11
19.96927879039164
 21
-4.914299111497806
 31
3.172746867374567
  0
LINE
  5
29A
  8
PAREDES
 10
19.96927879039164
 20
-4.914299111497806
 30
3.172746867374567
 11
19.96927879039164
 21
-4.946003692730849
 31
3.139009788004926
  0
LINE
  5
29B
  8
PAREDES
 10
19.96927879039164
 20
-4.946003692730849
 30
3.139009788004926
 11
19.96927879039164
 21
-4.961248235558923
 31
3.121898134461255
  0
LINE
  5
29C
  8
PAREDES
 10
19.96927879039164
 20
-4.961248235558923
 30
3.121898134461255
 11
19.96927879039164
 21
-4.976081951918375
 31
3.104623377578624
  0
LINE
  5
29D
  8
PAREDES
 10
19.96927879039164
 20
-4.976081951918375
 30
3.104623377578624
 11
19.96927879039164
 21
-4.990500595851964
 31
3.087184746782239
  0
LINE
  5
29E
  8
PAREDES
 10
19.96927879039164
 20
-4.990500595851964
 30
3.087184746782239
 11
19.96927879039164
 21
-5.004499921402449
 31
3.069581471497306
  0
LINE
  5
29F
  8
PAREDES
 10
19.96927879039164
 20
-5.004499921402449
 30
3.069581471497306
 11
19.96927879039164
 21
-5.018075682612585
 31
3.051812781149031
  0
LINE
  5
2A0
  8
PAREDES
 10
19.96927879039164
 20
-5.018075682612585
 30
3.051812781149031
 11
19.96927879039164
 21
-5.031223633525132
 31
3.033877905162618
  0
LINE
  5
2A1
  8
PAREDES
 10
19.96927879039164
 20
-5.031223633525132
 30
3.033877905162618
 11
19.96927879039164
 21
-5.043939528182845
 31
3.015776072963274
  0
LINE
  5
2A2
  8
PAREDES
 10
19.96927879039164
 20
-5.043939528182845
 30
3.015776072963274
 11
19.96927879039164
 21
-5.056219120628485
 31
2.997506513976204
  0
LINE
  5
2A3
  8
PAREDES
 10
19.96927879039164
 20
-5.056219120628485
 30
2.997506513976204
 11
19.96927879039164
 21
-5.068058164904808
 31
2.979068457626615
  0
LINE
  5
2A4
  8
PAREDES
 10
19.96927879039164
 20
-5.068058164904808
 30
2.979068457626615
 11
19.96927879039164
 21
-5.079452415054572
 31
2.96046113333971
  0
LINE
  5
2A5
  8
PAREDES
 10
19.96927879039164
 20
-5.079452415054572
 30
2.96046113333971
 11
19.96927879039164
 21
-5.090397625120536
 31
2.941683770540698
  0
LINE
  5
2A6
  8
PAREDES
 10
19.96927879039164
 20
-5.090397625120536
 30
2.941683770540698
 11
19.96927879039164
 21
-5.100889549145457
 31
2.922735598654782
  0
LINE
  5
2A7
  8
PAREDES
 10
19.96927879039164
 20
-5.100889549145457
 30
2.922735598654782
 11
19.96927879039164
 21
-5.110923941172093
 31
2.903615847107169
  0
LINE
  5
2A8
  8
PAREDES
 10
19.96927879039164
 20
-5.110923941172093
 30
2.903615847107169
 11
19.96927879039164
 21
-5.120496555243201
 31
2.884323745323064
  0
LINE
  5
2A9
  8
PAREDES
 10
19.96927879039164
 20
-5.120496555243201
 30
2.884323745323064
 11
19.96927879039164
 21
-5.129603145401539
 31
2.864858522727673
  0
LINE
  5
2AA
  8
PAREDES
 10
19.96927879039164
 20
-5.129603145401539
 30
2.864858522727673
 11
19.96927879039164
 21
-5.138239465689866
 31
2.845219408746201
  0
LINE
  5
2AB
  8
PAREDES
 10
19.96927879039164
 20
-5.138239465689866
 30
2.845219408746201
 11
19.96927879039164
 21
-5.146401270150939
 31
2.825405632803855
  0
LINE
  5
2AC
  8
PAREDES
 10
19.96927879039164
 20
-5.146401270150939
 30
2.825405632803855
 11
19.96927879039164
 21
-5.154084312827514
 31
2.805416424325839
  0
LINE
  5
2AD
  8
PAREDES
 10
19.96927879039164
 20
-5.154084312827514
 30
2.805416424325839
 11
19.96927879039164
 21
-5.161284347762352
 31
2.785251012737361
  0
LINE
  5
2AE
  8
PAREDES
 10
19.96927879039164
 20
-5.161284347762352
 30
2.785251012737361
 11
19.96927879039164
 21
-5.16799712899821
 31
2.764908627463624
  0
LINE
  5
2AF
  8
PAREDES
 10
19.96927879039164
 20
-5.16799712899821
 30
2.764908627463624
 11
19.96927879039164
 21
-5.174218410577844
 31
2.744388497929835
  0
LINE
  5
2B0
  8
PAREDES
 10
19.96927879039164
 20
-5.174218410577844
 30
2.744388497929835
 11
19.96927879039164
 21
-5.179943946544014
 31
2.7236898535612
  0
LINE
  5
2B1
  8
PAREDES
 10
19.96927879039164
 20
-5.179943946544014
 30
2.7236898535612
 11
19.96927879039164
 21
-5.185169490939476
 31
2.702811923782924
  0
LINE
  5
2B2
  8
PAREDES
 10
19.96927879039164
 20
-5.185169490939476
 30
2.702811923782924
 11
19.96927879039164
 21
-5.189890797806989
 31
2.681753938020212
  0
LINE
  5
2B3
  8
PAREDES
 10
19.96927879039164
 20
-5.189890797806989
 30
2.681753938020212
 11
19.96927879039164
 21
-5.19410362118931
 31
2.660515125698272
  0
LINE
  5
2B4
  8
PAREDES
 10
19.96927879039164
 20
-5.19410362118931
 30
2.660515125698272
 11
19.96927879039164
 21
-5.197803715129197
 31
2.639094716242306
  0
LINE
  5
2B5
  8
PAREDES
 10
19.96927879039164
 20
-5.197803715129197
 30
2.639094716242306
 11
19.96927879039164
 21
-5.200986833669409
 31
2.617491939077524
  0
LINE
  5
2B6
  8
PAREDES
 10
19.96927879039164
 20
-5.200986833669409
 30
2.617491939077524
 11
19.96927879039164
 21
-5.203648730852701
 31
2.595706023629128
  0
LINE
  5
2B7
  8
PAREDES
 10
19.96927879039164
 20
-5.203648730852701
 30
2.595706023629128
 11
19.96927879039164
 21
-5.205785160721835
 31
2.573736199322325
  0
LINE
  5
2B8
  8
PAREDES
 10
19.96927879039164
 20
-5.205785160721835
 30
2.573736199322325
 11
19.96927879039164
 21
-5.207391877319564
 31
2.551581695582321
  0
LINE
  5
2B9
  8
PAREDES
 10
19.96927879039164
 20
-5.207391877319564
 30
2.551581695582321
 11
19.96927879039164
 21
-5.208464634688649
 31
2.529241741834321
  0
LINE
  5
2BA
  8
PAREDES
 10
19.96927879039164
 20
-5.208464634688649
 30
2.529241741834321
 11
19.96927879039164
 21
-5.208999186871848
 31
2.506715567503532
  0
LINE
  5
2BB
  8
PAREDES
 10
19.96927879039164
 20
-5.208999186871848
 30
2.506715567503532
 11
19.96927879039164
 21
-5.209153331449492
 31
2.354609828131006
  0
LINE
  5
2BC
  8
PAREDES
 10
19.96927879039164
 20
-5.209153331449492
 30
2.354609828131006
 11
19.96927879039164
 21
-5.206010621209098
 31
2.197493313655567
  0
LINE
  5
2BD
  8
PAREDES
 10
19.96927879039164
 20
-5.206010621209098
 30
2.197493313655567
 11
19.96927879039164
 21
-5.199395578958907
 31
2.036011295045532
  0
LINE
  5
2BE
  8
PAREDES
 10
19.96927879039164
 20
-5.199395578958907
 30
2.036011295045532
 11
19.96927879039164
 21
-5.189132727507156
 31
1.870809043269215
  0
LINE
  5
2BF
  8
PAREDES
 10
19.96927879039164
 20
-5.189132727507156
 30
1.870809043269215
 11
19.96927879039164
 21
-5.175046589662081
 31
1.702531829294934
  0
LINE
  5
2C0
  8
PAREDES
 10
19.96927879039164
 20
-5.175046589662081
 30
1.702531829294934
 11
19.96927879039164
 21
-5.156961688231922
 31
1.531824924091002
  0
LINE
  5
2C1
  8
PAREDES
 10
19.96927879039164
 20
-5.156961688231922
 30
1.531824924091002
 11
19.96927879039164
 21
-5.134702546024917
 31
1.359333598625736
  0
LINE
  5
2C2
  8
PAREDES
 10
19.96927879039164
 20
-5.134702546024917
 30
1.359333598625736
 11
19.96927879039164
 21
-5.108093685849304
 31
1.18570312386745
  0
LINE
  5
2C3
  8
PAREDES
 10
19.96927879039164
 20
-5.108093685849304
 30
1.18570312386745
 11
19.96927879039164
 21
-5.07695963051332
 31
1.011578770784462
  0
LINE
  5
2C4
  8
PAREDES
 10
19.96927879039164
 20
-5.07695963051332
 30
1.011578770784462
 11
19.96927879039164
 21
-5.041124902825205
 31
0.8376058103450867
  0
LINE
  5
2C5
  8
PAREDES
 10
19.96927879039164
 20
-5.041124902825205
 30
0.8376058103450867
 11
19.96927879039163
 21
-5.000414025593194
 31
0.6644295135176393
  0
LINE
  5
2C6
  8
PAREDES
 10
19.96927879039163
 20
-5.000414025593194
 30
0.6644295135176393
 11
19.96927879039163
 21
-4.954651521625528
 31
0.4926951512704357
  0
LINE
  5
2C7
  8
PAREDES
 10
19.96927879039163
 20
-4.954651521625528
 30
0.4926951512704357
 11
19.96927879039163
 21
-4.903661913730443
 31
0.3230479945717914
  0
LINE
  5
2C8
  8
PAREDES
 10
19.96927879039163
 20
-4.903661913730443
 30
0.3230479945717914
 11
19.96927879039163
 21
-4.876152109187693
 31
0.2392087654807777
  0
LINE
  5
2C9
  8
PAREDES
 10
19.96927879039163
 20
-4.876152109187693
 30
0.2392087654807777
 11
19.96927879039163
 21
-4.847269724716178
 31
0.1561333143900221
  0
LINE
  5
2CA
  8
PAREDES
 10
19.96927879039163
 20
-4.847269724716178
 30
0.1561333143900221
 11
19.96927879039163
 21
-4.816992825666927
 31
0.0739023001705642
  0
LINE
  5
2CB
  8
PAREDES
 10
19.96927879039163
 20
-4.816992825666927
 30
0.0739023001705642
 11
19.96927879039163
 21
-4.785299477390971
 31
-0.0074036183065567
  0
LINE
  5
2CC
  8
PAREDES
 10
19.96927879039163
 20
-4.785299477390971
 30
-0.0074036183065567
 11
19.96927879039163
 21
-4.752167745239339
 31
-0.087703782170301
  0
LINE
  5
2CD
  8
PAREDES
 10
19.96927879039163
 20
-4.752167745239339
 30
-0.087703782170301
 11
19.96927879039163
 21
-4.71757569456306
 31
-0.1669175325496293
  0
LINE
  5
2CE
  8
PAREDES
 10
19.96927879039163
 20
-4.71757569456306
 30
-0.1669175325496293
 11
19.96927879039163
 21
-4.681501390713166
 31
-0.2449642105735021
  0
LINE
  5
2CF
  8
PAREDES
 10
19.96927879039163
 20
-4.681501390713166
 30
-0.2449642105735021
 11
19.96927879039163
 21
-4.643922899040684
 31
-0.32176315737088
  0
LINE
  5
2D0
  8
PAREDES
 10
19.96927879039163
 20
-4.643922899040684
 30
-0.32176315737088
 11
19.96927879039163
 21
-4.604818284896646
 31
-0.3972337140707236
  0
LINE
  5
2D1
  8
PAREDES
 10
19.96927879039163
 20
-4.604818284896646
 30
-0.3972337140707236
 11
19.96927879039163
 21
-4.564165613632079
 31
-0.4712952218019933
  0
LINE
  5
2D2
  8
PAREDES
 10
19.96927879039163
 20
-4.564165613632079
 30
-0.4712952218019933
 11
19.96927879039163
 21
-4.521942950598016
 31
-0.5438670216936499
  0
LINE
  5
2D3
  8
PAREDES
 10
19.96927879039163
 20
-4.521942950598016
 30
-0.5438670216936499
 11
19.96927879039163
 21
-4.478128361145485
 31
-0.6148684548746537
  0
LINE
  5
2D4
  8
PAREDES
 10
19.96927879039163
 20
-4.478128361145485
 30
-0.6148684548746537
 11
19.96927879039163
 21
-4.432699910625516
 31
-0.6842188624739654
  0
LINE
  5
2D5
  8
PAREDES
 10
19.96927879039163
 20
-4.432699910625516
 30
-0.6842188624739654
 11
19.96927879039163
 21
-4.385635664389138
 31
-0.7518375856205454
  0
LINE
  5
2D6
  8
PAREDES
 10
19.96927879039163
 20
-4.385635664389138
 30
-0.7518375856205454
 11
19.96927879039163
 21
-4.336913687787382
 31
-0.8176439654433544
  0
LINE
  5
2D7
  8
PAREDES
 10
19.96927879039163
 20
-4.336913687787382
 30
-0.8176439654433544
 11
19.96927879039163
 21
-4.286512046171278
 31
-0.8815573430713528
  0
LINE
  5
2D8
  8
PAREDES
 10
19.96927879039163
 20
-4.286512046171278
 30
-0.8815573430713528
 11
19.96927879039163
 21
-4.234408804891854
 31
-0.9434970596335013
  0
LINE
  5
2D9
  8
PAREDES
 10
19.96927879039163
 20
-4.234408804891854
 30
-0.9434970596335013
 11
19.96927879039163
 21
-4.180582029300141
 31
-1.00338245625876
  0
LINE
  5
2DA
  8
PAREDES
 10
19.96927879039163
 20
-4.180582029300141
 30
-1.00338245625876
 11
19.96927879039163
 21
-4.125009784747169
 31
-1.061132874076091
  0
LINE
  5
2DB
  8
PAREDES
 10
19.96927879039163
 20
-4.125009784747169
 30
-1.061132874076091
 11
19.96927879039163
 21
-4.096562257032407
 31
-1.089182260034582
  0
LINE
  5
2DC
  8
PAREDES
 10
19.96927879039163
 20
-4.096562257032407
 30
-1.089182260034582
 11
19.96927879039163
 21
-4.067670136583966
 31
-1.116667654214452
  0
LINE
  5
2DD
  8
PAREDES
 10
19.96927879039163
 20
-4.067670136583966
 30
-1.116667654214452
 11
19.96927879039163
 21
-4.038330681570725
 31
-1.14357897425682
  0
LINE
  5
2DE
  8
PAREDES
 10
19.96927879039163
 20
-4.038330681570725
 30
-1.14357897425682
 11
19.96927879039163
 21
-4.008541150161564
 31
-1.169906137802806
  0
LINE
  5
2DF
  8
PAREDES
 10
19.96927879039163
 20
-4.008541150161564
 30
-1.169906137802806
 11
19.96927879039163
 21
-3.97829880052536
 31
-1.195639062493531
  0
LINE
  5
2E0
  8
PAREDES
 10
19.96927879039163
 20
-3.97829880052536
 30
-1.195639062493531
 11
19.96927879039163
 21
-3.947600890830992
 31
-1.220767665970113
  0
LINE
  5
2E1
  8
PAREDES
 10
19.96927879039163
 20
-3.947600890830992
 30
-1.220767665970113
 11
19.96927879039163
 21
-3.91644467924734
 31
-1.245281865873674
  0
LINE
  5
2E2
  8
PAREDES
 10
19.96927879039163
 20
-3.91644467924734
 30
-1.245281865873674
 11
19.96927879039163
 21
-3.88482742394328
 31
-1.269171579845333
  0
LINE
  5
2E3
  8
PAREDES
 10
19.96927879039163
 20
-3.88482742394328
 30
-1.269171579845333
 11
19.96927879039163
 21
-3.852746383087692
 31
-1.292426725526211
  0
LINE
  5
2E4
  8
PAREDES
 10
19.96927879039163
 20
-3.852746383087692
 30
-1.292426725526211
 11
19.96927879039163
 21
-3.820198814849456
 31
-1.315037220557427
  0
LINE
  5
2E5
  8
PAREDES
 10
19.96927879039163
 20
-3.820198814849456
 30
-1.315037220557427
 11
19.96927879039163
 21
-3.78718197739745
 31
-1.336992982580102
  0
LINE
  5
2E6
  8
PAREDES
 10
19.96927879039163
 20
-3.78718197739745
 30
-1.336992982580102
 11
19.96927879039163
 21
-3.753693128900551
 31
-1.358283929235356
  0
LINE
  5
2E7
  8
PAREDES
 10
19.96927879039163
 20
-3.753693128900551
 30
-1.358283929235356
 11
19.96927879039163
 21
-3.71972952752764
 31
-1.378899978164308
  0
LINE
  5
2E8
  8
PAREDES
 10
19.96927879039163
 20
-3.71972952752764
 30
-1.378899978164308
 11
19.96927879039163
 21
-3.685288431447596
 31
-1.398831047008079
  0
LINE
  5
2E9
  8
PAREDES
 10
19.96927879039163
 20
-3.685288431447596
 30
-1.398831047008079
 11
19.96927879039163
 21
-3.650367098829296
 31
-1.418067053407789
  0
LINE
  5
2EA
  8
PAREDES
 10
19.96927879039163
 20
-3.650367098829296
 30
-1.418067053407789
 11
19.96927879039163
 21
-3.614962787841619
 31
-1.436597915004558
  0
LINE
  5
2EB
  8
PAREDES
 10
19.96927879039163
 20
-3.614962787841619
 30
-1.436597915004558
 11
19.96927879039163
 21
-3.579072756653444
 31
-1.454413549439506
  0
LINE
  5
2EC
  8
PAREDES
 10
19.96927879039163
 20
-3.579072756653444
 30
-1.454413549439506
 11
19.96927879039163
 21
-3.54269426343365
 31
-1.471503874353753
  0
LINE
  5
2ED
  8
PAREDES
 10
19.96927879039163
 20
-3.54269426343365
 30
-1.471503874353753
 11
19.96927879039163
 21
-3.505824566351116
 31
-1.487858807388419
  0
LINE
  5
2EE
  8
PAREDES
 10
19.96927879039163
 20
-3.505824566351116
 30
-1.487858807388419
 11
19.96927879039163
 21
-3.46846092357472
 31
-1.503468266184624
  0
LINE
  5
2EF
  8
PAREDES
 10
19.96927879039163
 20
-3.46846092357472
 30
-1.503468266184624
 11
19.96927879039163
 21
-3.430600593273341
 31
-1.518322168383489
  0
LINE
  5
2F0
  8
PAREDES
 10
19.96927879039163
 20
-3.430600593273341
 30
-1.518322168383489
 11
19.96927879039163
 21
-3.392240833615857
 31
-1.532410431626133
  0
LINE
  5
2F1
  8
PAREDES
 10
19.96927879039163
 20
-3.392240833615857
 30
-1.532410431626133
 11
19.96927879039163
 21
-3.353378902771149
 31
-1.545722973553677
  0
LINE
  5
2F2
  8
PAREDES
 10
19.96927879039163
 20
-3.353378902771149
 30
-1.545722973553677
 11
19.96927879039163
 21
-3.314012058908093
 31
-1.558249711807239
  0
LINE
  5
2F3
  8
PAREDES
 10
19.96927879039163
 20
-3.314012058908093
 30
-1.558249711807239
 11
19.96927879039163
 21
-3.274137560195568
 31
-1.569980564027942
  0
LINE
  5
2F4
  8
PAREDES
 10
19.96927879039163
 20
-3.274137560195568
 30
-1.569980564027942
 11
19.96927879039163
 21
-3.233752664802455
 31
-1.580905447856904
  0
LINE
  5
2F5
  8
PAREDES
 10
19.96927879039163
 20
-3.233752664802455
 30
-1.580905447856904
 11
19.96927879039163
 21
-3.19285463089763
 31
-1.591014280935246
  0
LINE
  5
2F6
  8
PAREDES
 10
19.96927879039163
 20
-3.19285463089763
 30
-1.591014280935246
 11
19.96927879039163
 21
-3.151440716649974
 31
-1.600296980904088
  0
LINE
  5
2F7
  8
PAREDES
 10
19.96927879039163
 20
-3.151440716649974
 30
-1.600296980904088
 11
19.96927879039163
 21
-3.109508180228365
 31
-1.608743465404549
  0
LINE
  5
2F8
  8
PAREDES
 10
19.96927879039163
 20
-3.109508180228365
 30
-1.608743465404549
 11
19.96927879039163
 21
-3.06705427980168
 31
-1.616343652077751
  0
LINE
  5
2F9
  8
PAREDES
 10
19.96927879039163
 20
-3.06705427980168
 30
-1.616343652077751
 11
19.96927879039163
 21
-3.0240762735388
 31
-1.623087458564812
  0
LINE
  5
2FA
  8
PAREDES
 10
19.96927879039163
 20
-3.0240762735388
 30
-1.623087458564812
 11
19.96927879039163
 21
-2.980571419608603
 31
-1.628964802506853
  0
LINE
  5
2FB
  8
PAREDES
 10
19.96927879039163
 20
-2.980571419608603
 30
-1.628964802506853
 11
19.96927879039163
 21
-2.936536976179968
 31
-1.633965601544995
  0
LINE
  5
2FC
  8
PAREDES
 10
19.96927879039163
 20
-2.936536976179968
 30
-1.633965601544995
 11
19.96927879039163
 21
-2.891970201421772
 31
-1.638079773320356
  0
LINE
  5
2FD
  8
PAREDES
 10
19.96927879039163
 20
-2.891970201421772
 30
-1.638079773320356
 11
19.96927879039163
 21
-2.846868353502896
 31
-1.641297235474058
  0
LINE
  5
2FE
  8
PAREDES
 10
19.96927879039163
 20
-2.846868353502896
 30
-1.641297235474058
 11
19.96927879039163
 21
-2.801228690592218
 31
-1.643607905647221
  0
LINE
  5
2FF
  8
PAREDES
 10
19.96927879039163
 20
-2.801228690592218
 30
-1.643607905647221
 11
19.96927879039163
 21
-2.755048470858616
 31
-1.645001701480963
  0
LINE
  5
300
  8
PAREDES
 10
19.96927879039163
 20
-2.755048470858616
 30
-1.645001701480963
 11
19.96927879039163
 21
-2.708324952470969
 31
-1.645468540616406
  0
LINE
  5
301
  8
PAREDES
 10
19.96927879039163
 20
-2.708324952470969
 30
-1.645468540616406
 11
19.96927879039163
 21
-2.509899543682879
 31
-1.642449746259385
  0
LINE
  5
302
  8
PAREDES
 10
19.96927879039163
 20
-2.509899543682879
 30
-1.642449746259385
 11
19.96927879039163
 21
-2.325930090093557
 31
-1.633650281857002
  0
LINE
  5
303
  8
PAREDES
 10
19.96927879039163
 20
-2.325930090093557
 30
-1.633650281857002
 11
19.96927879039163
 21
-2.239097391272444
 31
-1.627203229014745
  0
LINE
  5
304
  8
PAREDES
 10
19.96927879039163
 20
-2.239097391272444
 30
-1.627203229014745
 11
19.96927879039163
 21
-2.155555934979836
 31
-1.619455525412282
  0
LINE
  5
305
  8
PAREDES
 10
19.96927879039163
 20
-2.155555934979836
 30
-1.619455525412282
 11
19.96927879039163
 21
-2.075198139125337
 31
-1.61045534329999
  0
LINE
  5
306
  8
PAREDES
 10
19.96927879039163
 20
-2.075198139125337
 30
-1.61045534329999
 11
19.96927879039163
 21
-1.997916421618552
 31
-1.600250854928248
  0
LINE
  5
307
  8
PAREDES
 10
19.96927879039163
 20
-1.997916421618552
 30
-1.600250854928248
 11
19.96927879039163
 21
-1.923603200369085
 31
-1.588890232547434
  0
LINE
  5
308
  8
PAREDES
 10
19.96927879039163
 20
-1.923603200369085
 30
-1.588890232547434
 11
19.96927879039163
 21
-1.85215089328654
 31
-1.576421648407926
  0
LINE
  5
309
  8
PAREDES
 10
19.96927879039163
 20
-1.85215089328654
 30
-1.576421648407926
 11
19.96927879039163
 21
-1.783451918280523
 31
-1.562893274760102
  0
LINE
  5
30A
  8
PAREDES
 10
19.96927879039163
 20
-1.783451918280523
 30
-1.562893274760102
 11
19.96927879039163
 21
-1.717398693260636
 31
-1.548353283854339
  0
LINE
  5
30B
  8
PAREDES
 10
19.96927879039163
 20
-1.717398693260636
 30
-1.548353283854339
 11
19.96927879039163
 21
-1.653883636136485
 31
-1.532849847941017
  0
LINE
  5
30C
  8
PAREDES
 10
19.96927879039163
 20
-1.653883636136485
 30
-1.532849847941017
 11
19.96927879039163
 21
-1.592799164817674
 31
-1.516431139270512
  0
LINE
  5
30D
  8
PAREDES
 10
19.96927879039163
 20
-1.592799164817674
 30
-1.516431139270512
 11
19.96927879039163
 21
-1.534037697213807
 31
-1.499145330093202
  0
LINE
  5
30E
  8
PAREDES
 10
19.96927879039163
 20
-1.534037697213807
 30
-1.499145330093202
 11
19.96927879039163
 21
-1.477491651234489
 31
-1.481040592659467
  0
LINE
  5
30F
  8
PAREDES
 10
19.96927879039163
 20
-1.477491651234489
 30
-1.481040592659467
 11
19.96927879039163
 21
-1.423053444789323
 31
-1.462165099219684
  0
LINE
  5
310
  8
PAREDES
 10
19.96927879039163
 20
-1.423053444789323
 30
-1.462165099219684
 11
19.96927879039163
 21
-1.370615495787916
 31
-1.44256702202423
  0
LINE
  5
311
  8
PAREDES
 10
19.96927879039163
 20
-1.370615495787916
 30
-1.44256702202423
 11
19.96927879039163
 21
-1.32007022213987
 31
-1.422294533323485
  0
LINE
  5
312
  8
PAREDES
 10
19.96927879039163
 20
-1.32007022213987
 30
-1.422294533323485
 11
19.96927879039163
 21
-1.271310041754791
 31
-1.401395805367825
  0
LINE
  5
313
  8
PAREDES
 10
19.96927879039163
 20
-1.271310041754791
 30
-1.401395805367825
 11
19.96927879039163
 21
-1.224227372542282
 31
-1.379919010407629
  0
LINE
  5
314
  8
PAREDES
 10
19.96927879039163
 20
-1.224227372542282
 30
-1.379919010407629
 11
19.96927879039164
 21
-1.178714632411948
 31
-1.357912320693275
  0
LINE
  5
315
  8
PAREDES
 10
19.96927879039164
 20
-1.178714632411948
 30
-1.357912320693275
 11
19.96927879039164
 21
-1.134664239273394
 31
-1.335423908475141
  0
LINE
  5
316
  8
PAREDES
 10
19.96927879039164
 20
-1.134664239273394
 30
-1.335423908475141
 11
19.96927879039164
 21
-1.091968611036223
 31
-1.312501946003605
  0
LINE
  5
317
  8
PAREDES
 10
19.96927879039164
 20
-1.091968611036223
 30
-1.312501946003605
 11
19.96927879039164
 21
-1.050520165610041
 31
-1.289194605529044
  0
LINE
  5
318
  8
PAREDES
 10
19.96927879039164
 20
-1.050520165610041
 30
-1.289194605529044
 11
19.96927879039164
 21
-1.010211320904451
 31
-1.265550059301838
  0
LINE
  5
319
  8
PAREDES
 10
19.96927879039164
 20
-1.010211320904451
 30
-1.265550059301838
 11
19.96927879039164
 21
-0.932582105293466
 31
-1.217442038590999
  0
LINE
  5
31A
  8
PAREDES
 10
19.96927879039164
 20
-0.932582105293466
 30
-1.217442038590999
 11
19.96927879039164
 21
-0.858220307480104
 31
-1.168563261874112
  0
LINE
  5
31B
  8
PAREDES
 10
19.96927879039164
 20
-0.858220307480104
 30
-1.168563261874112
 11
19.96927879039164
 21
-0.5762341597395857
 31
-0.9730481550065645
  0
LINE
  5
31C
  8
PAREDES
 10
19.96927879039164
 20
-0.5762341597395857
 30
-0.9730481550065645
 11
19.96927879039164
 21
-0.5052996000668639
 31
-0.9260962683047979
  0
LINE
  5
31D
  8
PAREDES
 10
19.96927879039164
 20
-0.5052996000668639
 30
-0.9260962683047979
 11
19.96927879039164
 21
-0.4324685178527753
 31
-0.8806858936151275
  0
LINE
  5
31E
  8
PAREDES
 10
19.96927879039164
 20
-0.4324685178527753
 30
-0.8806858936151275
 11
19.96927879039164
 21
-0.3950728255667295
 31
-0.8586792039007736
  0
LINE
  5
31F
  8
PAREDES
 10
19.96927879039164
 20
-0.3950728255667295
 30
-0.8586792039007736
 11
19.96927879039164
 21
-0.3568802563741551
 31
-0.8372024089405776
  0
LINE
  5
320
  8
PAREDES
 10
19.96927879039164
 20
-0.3568802563741551
 30
-0.8372024089405776
 11
19.96927879039164
 21
-0.3177832281846565
 31
-0.8163036809849178
  0
LINE
  5
321
  8
PAREDES
 10
19.96927879039164
 20
-0.3177832281846565
 30
-0.8163036809849178
 11
19.96927879039164
 21
-0.2776741589078383
 31
-0.7960311922841722
  0
LINE
  5
322
  8
PAREDES
 10
19.96927879039164
 20
-0.2776741589078383
 30
-0.7960311922841722
 11
19.96927879039164
 21
-0.2364454664533045
 31
-0.7764331150887187
  0
LINE
  5
323
  8
PAREDES
 10
19.96927879039164
 20
-0.2364454664533045
 30
-0.7764331150887187
 11
19.96927879039164
 21
-0.1939895687306598
 31
-0.7575576216489353
  0
LINE
  5
324
  8
PAREDES
 10
19.96927879039164
 20
-0.1939895687306598
 30
-0.7575576216489353
 11
19.96927879039164
 21
-0.1501988836495085
 31
-0.7394528842152
  0
LINE
  5
325
  8
PAREDES
 10
19.96927879039164
 20
-0.1501988836495085
 30
-0.7394528842152
 11
19.96927879039164
 21
-0.1049658291194549
 31
-0.7221670750378909
  0
LINE
  5
326
  8
PAREDES
 10
19.96927879039164
 20
-0.1049658291194549
 30
-0.7221670750378909
 11
19.96927879039164
 21
-0.0581828230501035
 31
-0.705748366367386
  0
LINE
  5
327
  8
PAREDES
 10
19.96927879039164
 20
-0.0581828230501035
 30
-0.705748366367386
 11
19.96927879039164
 21
-0.0097422833510587
 31
-0.6902449304540632
  0
LINE
  5
328
  8
PAREDES
 10
19.96927879039164
 20
-0.0097422833510587
 30
-0.6902449304540632
 11
19.96927879039164
 21
0.0404633720680753
 31
-0.6757049395483008
  0
LINE
  5
329
  8
PAREDES
 10
19.96927879039164
 20
0.0404633720680753
 30
-0.6757049395483008
 11
19.96927879039164
 21
0.0925417252976939
 31
-0.6621765659004764
  0
LINE
  5
32A
  8
PAREDES
 10
19.96927879039164
 20
0.0925417252976939
 30
-0.6621765659004764
 11
19.96927879039164
 21
0.1466003584281929
 31
-0.6497079817609683
  0
LINE
  5
32B
  8
PAREDES
 10
19.96927879039164
 20
0.1466003584281929
 30
-0.6497079817609683
 11
19.96927879039164
 21
0.2027468535499678
 31
-0.6383473593801544
  0
LINE
  5
32C
  8
PAREDES
 10
19.96927879039164
 20
0.2027468535499678
 30
-0.6383473593801544
 11
19.96927879039164
 21
0.2610887927534142
 31
-0.6281428710084127
  0
LINE
  5
32D
  8
PAREDES
 10
19.96927879039164
 20
0.2610887927534142
 30
-0.6281428710084127
 11
19.96927879039164
 21
0.3217337581289278
 31
-0.6191426888961213
  0
LINE
  5
32E
  8
PAREDES
 10
19.96927879039164
 20
0.3217337581289278
 30
-0.6191426888961213
 11
19.96927879039164
 21
0.3847893317669042
 31
-0.611394985293658
  0
LINE
  5
32F
  8
PAREDES
 10
19.96927879039164
 20
0.3847893317669042
 30
-0.611394985293658
 11
19.96927879039164
 21
0.4503630957577389
 31
-0.6049479324514011
  0
LINE
  5
330
  8
PAREDES
 10
19.96927879039164
 20
0.4503630957577389
 30
-0.6049479324514011
 11
19.96927879039164
 21
0.5185626321918276
 31
-0.5998497026197285
  0
LINE
  5
331
  8
PAREDES
 10
19.96927879039164
 20
0.5185626321918276
 30
-0.5998497026197285
 11
19.96927879039164
 21
0.589495523159566
 31
-0.5961484680490181
  0
LINE
  5
332
  8
PAREDES
 10
19.96927879039164
 20
0.589495523159566
 30
-0.5961484680490181
 11
19.96927879039164
 21
0.6632693507513497
 31
-0.593892400989648
  0
LINE
  5
333
  8
PAREDES
 10
19.96927879039164
 20
0.6632693507513497
 30
-0.593892400989648
 11
19.96927879039164
 21
0.7399916970575742
 31
-0.5931296736919962
  0
LINE
  5
334
  8
PAREDES
 10
19.96927879039164
 20
0.7399916970575742
 30
-0.5931296736919962
 11
19.96927879039164
 21
0.8167568316550704
 31
-0.5938924006278656
  0
LINE
  5
335
  8
PAREDES
 10
19.96927879039164
 20
0.8167568316550704
 30
-0.5938924006278656
 11
19.96927879039164
 21
0.8906571905041845
 31
-0.5961484666248585
  0
LINE
  5
336
  8
PAREDES
 10
19.96927879039164
 20
0.8906571905041845
 30
-0.5961484666248585
 11
19.96927879039164
 21
0.9617975493143639
 31
-0.5998496994670526
  0
LINE
  5
337
  8
PAREDES
 10
19.96927879039164
 20
0.9617975493143639
 30
-0.5998496994670526
 11
19.96927879039164
 21
1.030282683795056
 31
-0.6049479269385254
  0
LINE
  5
338
  8
PAREDES
 10
19.96927879039164
 20
1.030282683795056
 30
-0.6049479269385254
 11
19.96927879039164
 21
1.096217369655709
 31
-0.6113949768233542
  0
LINE
  5
339
  8
PAREDES
 10
19.96927879039164
 20
1.096217369655709
 30
-0.6113949768233542
 11
19.96927879039164
 21
1.15970638260577
 31
-0.6191426769056163
  0
LINE
  5
33A
  8
PAREDES
 10
19.96927879039164
 20
1.15970638260577
 30
-0.6191426769056163
 11
19.96927879039164
 21
1.220854498354687
 31
-0.6281428549693895
  0
LINE
  5
33B
  8
PAREDES
 10
19.96927879039164
 20
1.220854498354687
 30
-0.6281428549693895
 11
19.96927879039164
 21
1.279766492611906
 31
-0.6383473387987512
  0
LINE
  5
33C
  8
PAREDES
 10
19.96927879039164
 20
1.279766492611906
 30
-0.6383473387987512
 11
19.96927879039164
 21
1.336547141086877
 31
-0.6497079561777788
  0
LINE
  5
33D
  8
PAREDES
 10
19.96927879039164
 20
1.336547141086877
 30
-0.6497079561777788
 11
19.96927879039164
 21
1.391301219489046
 31
-0.6621765348905496
  0
LINE
  5
33E
  8
PAREDES
 10
19.96927879039164
 20
1.391301219489046
 30
-0.6621765348905496
 11
19.96927879039164
 21
1.444133503527861
 31
-0.6757049027211414
  0
LINE
  5
33F
  8
PAREDES
 10
19.96927879039164
 20
1.444133503527861
 30
-0.6757049027211414
 11
19.96927879039164
 21
1.495148768912769
 31
-0.6902448874536313
  0
LINE
  5
340
  8
PAREDES
 10
19.96927879039164
 20
1.495148768912769
 30
-0.6902448874536313
 11
19.96927879039164
 21
1.544451791353218
 31
-0.705748316872097
  0
LINE
  5
341
  8
PAREDES
 10
19.96927879039164
 20
1.544451791353218
 30
-0.705748316872097
 11
19.96927879039164
 21
1.592147346558656
 31
-0.7221670187606162
  0
LINE
  5
342
  8
PAREDES
 10
19.96927879039164
 20
1.592147346558656
 30
-0.7221670187606162
 11
19.96927879039164
 21
1.63834021023853
 31
-0.7394528209032659
  0
LINE
  5
343
  8
PAREDES
 10
19.96927879039164
 20
1.63834021023853
 30
-0.7394528209032659
 11
19.96927879039164
 21
1.683135158102288
 31
-0.7575575510841238
  0
LINE
  5
344
  8
PAREDES
 10
19.96927879039164
 20
1.683135158102288
 30
-0.7575575510841238
 11
19.96927879039164
 21
1.726636965859377
 31
-0.7764330370872673
  0
LINE
  5
345
  8
PAREDES
 10
19.96927879039164
 20
1.726636965859377
 30
-0.7764330370872673
 11
19.96927879039164
 21
1.768950409219245
 31
-0.7960311066967739
  0
LINE
  5
346
  8
PAREDES
 10
19.96927879039164
 20
1.768950409219245
 30
-0.7960311066967739
 11
19.96927879039164
 21
1.81018026389134
 31
-0.8163035876967211
  0
LINE
  5
347
  8
PAREDES
 10
19.96927879039164
 20
1.81018026389134
 30
-0.8163035876967211
 11
19.96927879039164
 21
1.850431305585108
 31
-0.8372023078711862
  0
LINE
  5
348
  8
PAREDES
 10
19.96927879039164
 20
1.850431305585108
 30
-0.8372023078711862
 11
19.96927879039164
 21
1.889808310009998
 31
-0.8586790950042469
  0
LINE
  5
349
  8
PAREDES
 10
19.96927879039164
 20
1.889808310009998
 30
-0.8586790950042469
 11
19.96927879039164
 21
1.928416052875457
 31
-0.8806857768799805
  0
LINE
  5
34A
  8
PAREDES
 10
19.96927879039164
 20
1.928416052875457
 30
-0.8806857768799805
 11
19.96927879039164
 21
2.003742856765872
 31
-0.9260961359957764
  0
LINE
  5
34B
  8
PAREDES
 10
19.96927879039164
 20
2.003742856765872
 30
-0.9260961359957764
 11
19.96927879039164
 21
2.369844923864268
 31
-1.16856306272147
  0
LINE
  5
34C
  8
PAREDES
 10
19.96927879039164
 20
2.369844923864268
 30
-1.16856306272147
 11
19.96927879039164
 21
2.446826386542275
 31
-1.21744183020429
  0
LINE
  5
34D
  8
PAREDES
 10
19.96927879039164
 20
2.446826386542275
 30
-1.21744183020429
 11
19.96927879039164
 21
2.527017345549412
 31
-1.26554984370245
  0
LINE
  5
34E
  8
PAREDES
 10
19.96927879039164
 20
2.527017345549412
 30
-1.26554984370245
 11
19.96927879039164
 21
2.611256006561259
 31
-1.312501725488569
  0
LINE
  5
34F
  8
PAREDES
 10
19.96927879039164
 20
2.611256006561259
 30
-1.312501725488569
 11
19.96927879039164
 21
2.655155164592569
 31
-1.335423686449807
  0
LINE
  5
350
  8
PAREDES
 10
19.96927879039164
 20
2.655155164592569
 30
-1.335423686449807
 11
19.96927879039164
 21
2.700380575253399
 31
-1.357912097835267
  0
LINE
  5
351
  8
PAREDES
 10
19.96927879039164
 20
2.700380575253399
 30
-1.357912097835267
 11
19.96927879039164
 21
2.747037014253197
 31
-1.379918787429027
  0
LINE
  5
352
  8
PAREDES
 10
19.96927879039164
 20
2.747037014253197
 30
-1.379918787429027
 11
19.96927879039164
 21
2.795229257301409
 31
-1.401395583015164
  0
LINE
  5
353
  8
PAREDES
 10
19.96927879039164
 20
2.795229257301409
 30
-1.401395583015164
 11
19.96927879039164
 21
2.845062080107486
 31
-1.422294312377756
  0
LINE
  5
354
  8
PAREDES
 10
19.96927879039164
 20
2.845062080107486
 30
-1.422294312377756
 11
19.96927879039164
 21
2.896640258380872
 31
-1.442566803300879
  0
LINE
  5
355
  8
PAREDES
 10
19.96927879039164
 20
2.896640258380872
 30
-1.442566803300879
 11
19.96927879039164
 21
2.950068567831017
 31
-1.462164883568613
  0
LINE
  5
356
  8
PAREDES
 10
19.96927879039164
 20
2.950068567831017
 30
-1.462164883568613
 11
19.96927879039164
 21
3.005451784167368
 31
-1.481040380965033
  0
LINE
  5
357
  8
PAREDES
 10
19.96927879039164
 20
3.005451784167368
 30
-1.481040380965033
 11
19.96927879039164
 21
3.062894683099372
 31
-1.499145123274218
  0
LINE
  5
358
  8
PAREDES
 10
19.96927879039164
 20
3.062894683099372
 30
-1.499145123274218
 11
19.96927879039164
 21
3.122502040336478
 31
-1.516430938280245
  0
LINE
  5
359
  8
PAREDES
 10
19.96927879039164
 20
3.122502040336478
 30
-1.516430938280245
 11
19.96927879039164
 21
3.184378631588131
 31
-1.532849653767191
  0
LINE
  5
35A
  8
PAREDES
 10
19.96927879039164
 20
3.184378631588131
 30
-1.532849653767191
 11
19.96927879039164
 21
3.248629232563781
 31
-1.548353097519134
  0
LINE
  5
35B
  8
PAREDES
 10
19.96927879039164
 20
3.248629232563781
 30
-1.548353097519134
 11
19.96927879039164
 21
3.315358618972874
 31
-1.562893097320152
  0
LINE
  5
35C
  8
PAREDES
 10
19.96927879039164
 20
3.315358618972874
 30
-1.562893097320152
 11
19.96927879039164
 21
3.384671566524859
 31
-1.576421480954321
  0
LINE
  5
35D
  8
PAREDES
 10
19.96927879039164
 20
3.384671566524859
 30
-1.576421480954321
 11
19.96927879039164
 21
3.456672850929182
 31
-1.58889007620572
  0
LINE
  5
35E
  8
PAREDES
 10
19.96927879039164
 20
3.456672850929182
 30
-1.58889007620572
 11
19.96927879039164
 21
3.531467247895291
 31
-1.600250710858425
  0
LINE
  5
35F
  8
PAREDES
 10
19.96927879039164
 20
3.531467247895291
 30
-1.600250710858425
 11
19.96927879039164
 21
3.609159533132634
 31
-1.610455212696515
  0
LINE
  5
360
  8
PAREDES
 10
19.96927879039164
 20
3.609159533132634
 30
-1.610455212696515
 11
19.96927879039164
 21
3.689854482350659
 31
-1.619455409504066
  0
LINE
  5
361
  8
PAREDES
 10
19.96927879039164
 20
3.689854482350659
 30
-1.619455409504066
 11
19.96927879039164
 21
3.773656871258813
 31
-1.627203129065156
  0
LINE
  5
362
  8
PAREDES
 10
19.96927879039164
 20
3.773656871258813
 30
-1.627203129065156
 11
19.96927879039164
 21
3.860671475566543
 31
-1.633650199163863
  0
LINE
  5
363
  8
PAREDES
 10
19.96927879039164
 20
3.860671475566543
 30
-1.633650199163863
 11
19.96927879039164
 21
4.044756433218524
 31
-1.642449702110437
  0
LINE
  5
364
  8
PAREDES
 10
19.96927879039164
 20
4.044756433218524
 30
-1.642449702110437
 11
19.96927879039164
 21
4.242947560982182
 31
-1.645468540616406
  0
LINE
  5
365
  8
PAREDES
 10
19.96927879039164
 20
0.7735469270839115
 30
4.324675229592446
 11
19.96927879039164
 21
0.7610756814272985
 31
4.324675229592446
  0
LINE
  5
366
  8
PAREDES
 10
20.56927879039164
 20
0.7610756814272985
 30
4.324675229592446
 11
19.96927879039164
 21
0.7610756814272985
 31
4.324675229592446
  0
LINE
  5
367
  8
PAREDES
 10
20.56927879039164
 20
0.7735469270839115
 30
4.324675229592446
 11
19.96927879039164
 21
0.7735469270839115
 31
4.324675229592446
  0
LINE
  5
368
  8
PAREDES
 10
19.96927879039164
 20
-19.17919083796294
 30
-3.3939687858533
 11
20.56927879039165
 21
-19.17919083796294
 31
-3.3939687858533
  0
LINE
  5
369
  8
PAREDES
 10
20.26927879039165
 20
-19.17919083796294
 30
-13.7879375717066
 11
20.26927879039165
 21
-19.17919083796294
 31
7.0
  0
LINE
  5
36A
  8
PAREDES
 10
20.56927879039165
 20
-19.17919083796294
 30
-3.3939687858533
 11
20.56927879039165
 21
20.82080916203706
 31
-3.3939687858533
  0
LINE
  5
36B
  8
PAREDES
 10
20.56927879039165
 20
0.8208091620370581
 30
-13.7879375717066
 11
20.56927879039165
 21
0.8208091620370581
 31
-0.5939762939419362
  0
LINE
  5
36C
  8
PAREDES
 10
20.56927879039165
 20
0.8208091620370581
 30
4.325289572703739
 11
20.56927879039165
 21
0.8208091620370581
 31
7.0
  0
LINE
  5
36D
  8
PAREDES
 10
20.56927879039165
 20
20.82080916203706
 30
-3.3939687858533
 11
19.96927879039164
 21
20.82080916203706
 31
-3.3939687858533
  0
LINE
  5
36E
  8
PAREDES
 10
20.26927879039164
 20
20.82080916203706
 30
-13.7879375717066
 11
20.26927879039164
 21
20.82080916203706
 31
7.0
  0
LINE
  5
36F
  8
PAREDES
 10
19.96927879039164
 20
20.82080916203706
 30
-3.3939687858533
 11
19.96927879039164
 21
-19.17919083796294
 31
-3.3939687858533
  0
LINE
  5
370
  8
PAREDES
 10
19.96927879039164
 20
0.8208091620370581
 30
-13.7879375717066
 11
19.96927879039164
 21
0.8208091620370581
 31
-0.5939762939419362
  0
LINE
  5
371
  8
PAREDES
 10
19.96927879039164
 20
0.8208091620370581
 30
4.325289572703737
 11
19.96927879039164
 21
0.8208091620370581
 31
7.0
  0
LINE
  5
372
  8
PAREDES
 10
19.96927879039164
 20
0.8208091620370581
 30
-13.7879375717066
 11
20.56927879039165
 21
0.8208091620370581
 31
-13.7879375717066
  0
LINE
  5
373
  8
PAREDES
 10
20.26927879039165
 20
-19.17919083796294
 30
-13.7879375717066
 11
20.26927879039165
 21
20.82080916203706
 31
-13.7879375717066
  0
LINE
  5
374
  8
PAREDES
 10
19.96927879039164
 20
0.8208091620370581
 30
7.0
 11
20.56927879039165
 21
0.8208091620370581
 31
7.0
  0
LINE
  5
375
  8
PAREDES
 10
20.26927879039165
 20
-19.17919083796294
 30
7.0
 11
20.26927879039165
 21
20.82080916203706
 31
7.0
  0
LINE
  5
376
  8
PAREDES
 10
20.26927879039164
 20
4.242947560982183
 30
-1.645468540616406
 11
20.26927879039164
 21
4.044756419317906
 31
-1.642449746259385
  0
LINE
  5
377
  8
PAREDES
 10
20.26927879039164
 20
4.044756419317906
 30
-1.642449746259385
 11
20.26927879039164
 21
3.860671451786304
 31
-1.633650281857002
  0
LINE
  5
378
  8
PAREDES
 10
20.26927879039164
 20
3.860671451786304
 30
-1.633650281857002
 11
20.26927879039164
 21
3.773656843949007
 31
-1.627203229014745
  0
LINE
  5
379
  8
PAREDES
 10
20.26927879039164
 20
3.773656843949007
 30
-1.627203229014745
 11
20.26927879039164
 21
3.689854452399379
 31
-1.619455525412282
  0
LINE
  5
37A
  8
PAREDES
 10
20.26927879039164
 20
3.689854452399379
 30
-1.619455525412282
 11
20.26927879039164
 21
3.609159501388921
 31
-1.61045534329999
  0
LINE
  5
37B
  8
PAREDES
 10
20.26927879039164
 20
3.609159501388921
 30
-1.61045534329999
 11
20.26927879039164
 21
3.531467215169131
 31
-1.600250854928248
  0
LINE
  5
37C
  8
PAREDES
 10
20.26927879039164
 20
3.531467215169131
 30
-1.600250854928248
 11
20.26927879039164
 21
3.456672817991511
 31
-1.588890232547434
  0
LINE
  5
37D
  8
PAREDES
 10
20.26927879039164
 20
3.456672817991511
 30
-1.588890232547434
 11
20.26927879039164
 21
3.384671534107561
 31
-1.576421648407926
  0
LINE
  5
37E
  8
PAREDES
 10
20.26927879039164
 20
3.384671534107561
 30
-1.576421648407926
 11
20.26927879039164
 21
3.315358587768781
 31
-1.562893274760102
  0
LINE
  5
37F
  8
PAREDES
 10
20.26927879039164
 20
3.315358587768781
 30
-1.562893274760102
 11
20.26927879039164
 21
3.24862920322667
 31
-1.548353283854339
  0
LINE
  5
380
  8
PAREDES
 10
20.26927879039164
 20
3.24862920322667
 30
-1.548353283854339
 11
20.26927879039164
 21
3.18437860473273
 31
-1.532849847941017
  0
LINE
  5
381
  8
PAREDES
 10
20.26927879039164
 20
3.18437860473273
 30
-1.532849847941017
 11
20.26927879039164
 21
3.12250201653846
 31
-1.516431139270512
  0
LINE
  5
382
  8
PAREDES
 10
20.26927879039164
 20
3.12250201653846
 30
-1.516431139270512
 11
20.26927879039164
 21
3.062894662895361
 31
-1.499145330093202
  0
LINE
  5
383
  8
PAREDES
 10
20.26927879039164
 20
3.062894662895361
 30
-1.499145330093202
 11
20.26927879039164
 21
3.005451768054932
 31
-1.481040592659467
  0
LINE
  5
384
  8
PAREDES
 10
20.26927879039164
 20
3.005451768054932
 30
-1.481040592659467
 11
20.26927879039164
 21
2.950068556268673
 31
-1.462165099219684
  0
LINE
  5
385
  8
PAREDES
 10
20.26927879039164
 20
2.950068556268673
 30
-1.462165099219684
 11
20.26927879039164
 21
2.896640251788085
 31
-1.44256702202423
  0
LINE
  5
386
  8
PAREDES
 10
20.26927879039164
 20
2.896640251788085
 30
-1.44256702202423
 11
20.26927879039164
 21
2.845062078864669
 31
-1.422294533323485
  0
LINE
  5
387
  8
PAREDES
 10
20.26927879039164
 20
2.845062078864669
 30
-1.422294533323485
 11
20.26927879039164
 21
2.795229261749923
 31
-1.401395805367825
  0
LINE
  5
388
  8
PAREDES
 10
20.26927879039164
 20
2.795229261749923
 30
-1.401395805367825
 11
20.26927879039164
 21
2.747037024695349
 31
-1.379919010407629
  0
LINE
  5
389
  8
PAREDES
 10
20.26927879039164
 20
2.747037024695349
 30
-1.379919010407629
 11
20.26927879039164
 21
2.700380591952446
 31
-1.357912320693275
  0
LINE
  5
38A
  8
PAREDES
 10
20.26927879039164
 20
2.700380591952446
 30
-1.357912320693275
 11
20.26927879039164
 21
2.655155187772715
 31
-1.335423908475141
  0
LINE
  5
38B
  8
PAREDES
 10
20.26927879039164
 20
2.655155187772715
 30
-1.335423908475141
 11
20.26927879039164
 21
2.611256036407655
 31
-1.312501946003605
  0
LINE
  5
38C
  8
PAREDES
 10
20.26927879039164
 20
2.611256036407655
 30
-1.312501946003605
 11
20.26927879039164
 21
2.52701738912755
 31
-1.265550059301838
  0
LINE
  5
38D
  8
PAREDES
 10
20.26927879039164
 20
2.52701738912755
 30
-1.265550059301838
 11
20.26927879039164
 21
2.446826444124134
 31
-1.217442038590999
  0
LINE
  5
38E
  8
PAREDES
 10
20.26927879039164
 20
2.446826444124134
 30
-1.217442038590999
 11
20.26927879039164
 21
2.369844995409407
 31
-1.168563261874112
  0
LINE
  5
38F
  8
PAREDES
 10
20.26927879039164
 20
2.369844995409407
 30
-1.168563261874112
 11
20.26927879039164
 21
2.00374298658615
 31
-0.9260962683047979
  0
LINE
  5
390
  8
PAREDES
 10
20.26927879039164
 20
2.00374298658615
 30
-0.9260962683047979
 11
20.26927879039164
 21
1.928416189855582
 31
-0.8806858936151275
  0
LINE
  5
391
  8
PAREDES
 10
20.26927879039164
 20
1.928416189855582
 30
-0.8806858936151275
 11
20.26927879039164
 21
1.889808449754309
 31
-0.8586792039007736
  0
LINE
  5
392
  8
PAREDES
 10
20.26927879039164
 20
1.889808449754309
 30
-0.8586792039007736
 11
20.26927879039164
 21
1.850431447497711
 31
-0.8372024089405776
  0
LINE
  5
393
  8
PAREDES
 10
20.26927879039164
 20
1.850431447497711
 30
-0.8372024089405776
 11
20.26927879039164
 21
1.810180407337286
 31
-0.8163036809849178
  0
LINE
  5
394
  8
PAREDES
 10
20.26927879039164
 20
1.810180407337286
 30
-0.8163036809849178
 11
20.26927879039164
 21
1.768950553524538
 31
-0.7960311922841722
  0
LINE
  5
395
  8
PAREDES
 10
20.26927879039164
 20
1.768950553524538
 30
-0.7960311922841722
 11
20.26927879039164
 21
1.726637110310963
 31
-0.7764331150887187
  0
LINE
  5
396
  8
PAREDES
 10
20.26927879039164
 20
1.726637110310963
 30
-0.7764331150887187
 11
20.26927879039164
 21
1.683135301948063
 31
-0.7575576216489353
  0
LINE
  5
397
  8
PAREDES
 10
20.26927879039164
 20
1.683135301948063
 30
-0.7575576216489353
 11
20.26927879039164
 21
1.638340352687339
 31
-0.7394528842152
  0
LINE
  5
398
  8
PAREDES
 10
20.26927879039164
 20
1.638340352687339
 30
-0.7394528842152
 11
20.26927879039164
 21
1.59214748678029
 31
-0.7221670750378909
  0
LINE
  5
399
  8
PAREDES
 10
20.26927879039164
 20
1.59214748678029
 30
-0.7221670750378909
 11
20.26927879039164
 21
1.544451928478416
 31
-0.705748366367386
  0
LINE
  5
39A
  8
PAREDES
 10
20.26927879039164
 20
1.544451928478416
 30
-0.705748366367386
 11
20.26927879039164
 21
1.495148902033217
 31
-0.6902449304540632
  0
LINE
  5
39B
  8
PAREDES
 10
20.26927879039164
 20
1.495148902033217
 30
-0.6902449304540632
 11
20.26927879039164
 21
1.444133631696195
 31
-0.6757049395483008
  0
LINE
  5
39C
  8
PAREDES
 10
20.26927879039164
 20
1.444133631696195
 30
-0.6757049395483008
 11
20.26927879039164
 21
1.391301341718848
 31
-0.6621765659004764
  0
LINE
  5
39D
  8
PAREDES
 10
20.26927879039164
 20
1.391301341718848
 30
-0.6621765659004764
 11
20.26927879039164
 21
1.336547256352677
 31
-0.6497079817609683
  0
LINE
  5
39E
  8
PAREDES
 10
20.26927879039164
 20
1.336547256352677
 30
-0.6497079817609683
 11
20.26927879039164
 21
1.279766599849181
 31
-0.6383473593801544
  0
LINE
  5
39F
  8
PAREDES
 10
20.26927879039164
 20
1.279766599849181
 30
-0.6383473593801544
 11
20.26927879039164
 21
1.220854596459862
 31
-0.6281428710084127
  0
LINE
  5
3A0
  8
PAREDES
 10
20.26927879039164
 20
1.220854596459862
 30
-0.6281428710084127
 11
20.26927879039164
 21
1.15970647043622
 31
-0.6191426888961213
  0
LINE
  5
3A1
  8
PAREDES
 10
20.26927879039164
 20
1.15970647043622
 30
-0.6191426888961213
 11
20.26927879039164
 21
1.096217446029754
 31
-0.611394985293658
  0
LINE
  5
3A2
  8
PAREDES
 10
20.26927879039164
 20
1.096217446029754
 30
-0.611394985293658
 11
20.26927879039164
 21
1.030282747491964
 31
-0.6049479324514011
  0
LINE
  5
3A3
  8
PAREDES
 10
20.26927879039164
 20
1.030282747491964
 30
-0.6049479324514011
 11
20.26927879039164
 21
0.961797599074351
 31
-0.5998497026197285
  0
LINE
  5
3A4
  8
PAREDES
 10
20.26927879039164
 20
0.961797599074351
 30
-0.5998497026197285
 11
20.26927879039164
 21
0.890657225028415
 31
-0.5961484680490181
  0
LINE
  5
3A5
  8
PAREDES
 10
20.26927879039164
 20
0.890657225028415
 30
-0.5961484680490181
 11
20.26927879039164
 21
0.8167568496056561
 31
-0.593892400989648
  0
LINE
  5
3A6
  8
PAREDES
 10
20.26927879039164
 20
0.8167568496056561
 30
-0.593892400989648
 11
20.26927879039164
 21
0.7399916970575742
 31
-0.5931296736919962
  0
LINE
  5
3A7
  8
PAREDES
 10
20.26927879039164
 20
0.7399916970575742
 30
-0.5931296736919962
 11
20.26927879039164
 21
0.6632693507513497
 31
-0.593892400989648
  0
LINE
  5
3A8
  8
PAREDES
 10
20.26927879039164
 20
0.6632693507513497
 30
-0.593892400989648
 11
20.26927879039164
 21
0.589495523159566
 31
-0.5961484680490181
  0
LINE
  5
3A9
  8
PAREDES
 10
20.26927879039164
 20
0.589495523159566
 30
-0.5961484680490181
 11
20.26927879039164
 21
0.5185626321918276
 31
-0.5998497026197285
  0
LINE
  5
3AA
  8
PAREDES
 10
20.26927879039164
 20
0.5185626321918276
 30
-0.5998497026197285
 11
20.26927879039164
 21
0.4503630957577389
 31
-0.6049479324514011
  0
LINE
  5
3AB
  8
PAREDES
 10
20.26927879039164
 20
0.4503630957577389
 30
-0.6049479324514011
 11
20.26927879039164
 21
0.3847893317669042
 31
-0.611394985293658
  0
LINE
  5
3AC
  8
PAREDES
 10
20.26927879039164
 20
0.3847893317669042
 30
-0.611394985293658
 11
20.26927879039164
 21
0.3217337581289278
 31
-0.6191426888961213
  0
LINE
  5
3AD
  8
PAREDES
 10
20.26927879039164
 20
0.3217337581289278
 30
-0.6191426888961213
 11
20.26927879039164
 21
0.2610887927534142
 31
-0.6281428710084127
  0
LINE
  5
3AE
  8
PAREDES
 10
20.26927879039164
 20
0.2610887927534142
 30
-0.6281428710084127
 11
20.26927879039164
 21
0.2027468535499678
 31
-0.6383473593801544
  0
LINE
  5
3AF
  8
PAREDES
 10
20.26927879039164
 20
0.2027468535499678
 30
-0.6383473593801544
 11
20.26927879039164
 21
0.1466003584281929
 31
-0.6497079817609683
  0
LINE
  5
3B0
  8
PAREDES
 10
20.26927879039164
 20
0.1466003584281929
 30
-0.6497079817609683
 11
20.26927879039164
 21
0.0925417252976939
 31
-0.6621765659004764
  0
LINE
  5
3B1
  8
PAREDES
 10
20.26927879039164
 20
0.0925417252976939
 30
-0.6621765659004764
 11
20.26927879039164
 21
0.0404633720680753
 31
-0.6757049395483008
  0
LINE
  5
3B2
  8
PAREDES
 10
20.26927879039164
 20
0.0404633720680753
 30
-0.6757049395483008
 11
20.26927879039164
 21
-0.0097422833510587
 31
-0.6902449304540632
  0
LINE
  5
3B3
  8
PAREDES
 10
20.26927879039164
 20
-0.0097422833510587
 30
-0.6902449304540632
 11
20.26927879039164
 21
-0.0581828230501035
 31
-0.705748366367386
  0
LINE
  5
3B4
  8
PAREDES
 10
20.26927879039164
 20
-0.0581828230501035
 30
-0.705748366367386
 11
20.26927879039164
 21
-0.1049658291194549
 31
-0.7221670750378909
  0
LINE
  5
3B5
  8
PAREDES
 10
20.26927879039164
 20
-0.1049658291194549
 30
-0.7221670750378909
 11
20.26927879039164
 21
-0.1501988836495085
 31
-0.7394528842152
  0
LINE
  5
3B6
  8
PAREDES
 10
20.26927879039164
 20
-0.1501988836495085
 30
-0.7394528842152
 11
20.26927879039164
 21
-0.1939895687306598
 31
-0.7575576216489353
  0
LINE
  5
3B7
  8
PAREDES
 10
20.26927879039164
 20
-0.1939895687306598
 30
-0.7575576216489353
 11
20.26927879039164
 21
-0.2364454664533045
 31
-0.7764331150887187
  0
LINE
  5
3B8
  8
PAREDES
 10
20.26927879039164
 20
-0.2364454664533045
 30
-0.7764331150887187
 11
20.26927879039164
 21
-0.2776741589078383
 31
-0.7960311922841722
  0
LINE
  5
3B9
  8
PAREDES
 10
20.26927879039164
 20
-0.2776741589078383
 30
-0.7960311922841722
 11
20.26927879039164
 21
-0.3177832281846565
 31
-0.8163036809849178
  0
LINE
  5
3BA
  8
PAREDES
 10
20.26927879039164
 20
-0.3177832281846565
 30
-0.8163036809849178
 11
20.26927879039164
 21
-0.3568802563741551
 31
-0.8372024089405776
  0
LINE
  5
3BB
  8
PAREDES
 10
20.26927879039164
 20
-0.3568802563741551
 30
-0.8372024089405776
 11
20.26927879039164
 21
-0.3950728255667295
 31
-0.8586792039007736
  0
LINE
  5
3BC
  8
PAREDES
 10
20.26927879039164
 20
-0.3950728255667295
 30
-0.8586792039007736
 11
20.26927879039164
 21
-0.4324685178527753
 31
-0.8806858936151275
  0
LINE
  5
3BD
  8
PAREDES
 10
20.26927879039164
 20
-0.4324685178527753
 30
-0.8806858936151275
 11
20.26927879039164
 21
-0.5052996000668639
 31
-0.9260962683047979
  0
LINE
  5
3BE
  8
PAREDES
 10
20.26927879039164
 20
-0.5052996000668639
 30
-0.9260962683047979
 11
20.26927879039164
 21
-0.5762341597395857
 31
-0.9730481550065645
  0
LINE
  5
3BF
  8
PAREDES
 10
20.26927879039164
 20
-0.5762341597395857
 30
-0.9730481550065645
 11
20.26927879039164
 21
-0.858220307480104
 31
-1.168563261874112
  0
LINE
  5
3C0
  8
PAREDES
 10
20.26927879039164
 20
-0.858220307480104
 30
-1.168563261874112
 11
20.26927879039164
 21
-0.932582105293466
 31
-1.217442038590999
  0
LINE
  5
3C1
  8
PAREDES
 10
20.26927879039164
 20
-0.932582105293466
 30
-1.217442038590999
 11
20.26927879039164
 21
-1.010211320904451
 31
-1.265550059301838
  0
LINE
  5
3C2
  8
PAREDES
 10
20.26927879039164
 20
-1.010211320904451
 30
-1.265550059301838
 11
20.26927879039164
 21
-1.050520165610041
 31
-1.289194605529044
  0
LINE
  5
3C3
  8
PAREDES
 10
20.26927879039164
 20
-1.050520165610041
 30
-1.289194605529044
 11
20.26927879039164
 21
-1.091968611036223
 31
-1.312501946003605
  0
LINE
  5
3C4
  8
PAREDES
 10
20.26927879039164
 20
-1.091968611036223
 30
-1.312501946003605
 11
20.26927879039164
 21
-1.134664239273394
 31
-1.335423908475141
  0
LINE
  5
3C5
  8
PAREDES
 10
20.26927879039164
 20
-1.134664239273394
 30
-1.335423908475141
 11
20.26927879039164
 21
-1.178714632411948
 31
-1.357912320693275
  0
LINE
  5
3C6
  8
PAREDES
 10
20.26927879039164
 20
-1.178714632411948
 30
-1.357912320693275
 11
20.26927879039164
 21
-1.224227372542282
 31
-1.379919010407629
  0
LINE
  5
3C7
  8
PAREDES
 10
20.26927879039164
 20
-1.224227372542282
 30
-1.379919010407629
 11
20.26927879039164
 21
-1.271310041754791
 31
-1.401395805367825
  0
LINE
  5
3C8
  8
PAREDES
 10
20.26927879039164
 20
-1.271310041754791
 30
-1.401395805367825
 11
20.26927879039164
 21
-1.32007022213987
 31
-1.422294533323485
  0
LINE
  5
3C9
  8
PAREDES
 10
20.26927879039164
 20
-1.32007022213987
 30
-1.422294533323485
 11
20.26927879039164
 21
-1.370615495787916
 31
-1.44256702202423
  0
LINE
  5
3CA
  8
PAREDES
 10
20.26927879039164
 20
-1.370615495787916
 30
-1.44256702202423
 11
20.26927879039164
 21
-1.423053444789323
 31
-1.462165099219684
  0
LINE
  5
3CB
  8
PAREDES
 10
20.26927879039164
 20
-1.423053444789323
 30
-1.462165099219684
 11
20.26927879039164
 21
-1.477491651234489
 31
-1.481040592659467
  0
LINE
  5
3CC
  8
PAREDES
 10
20.26927879039164
 20
-1.477491651234489
 30
-1.481040592659467
 11
20.26927879039164
 21
-1.534037697213807
 31
-1.499145330093202
  0
LINE
  5
3CD
  8
PAREDES
 10
20.26927879039164
 20
-1.534037697213807
 30
-1.499145330093202
 11
20.26927879039164
 21
-1.592799164817674
 31
-1.516431139270512
  0
LINE
  5
3CE
  8
PAREDES
 10
20.26927879039164
 20
-1.592799164817674
 30
-1.516431139270512
 11
20.26927879039164
 21
-1.653883636136485
 31
-1.532849847941017
  0
LINE
  5
3CF
  8
PAREDES
 10
20.26927879039164
 20
-1.653883636136485
 30
-1.532849847941017
 11
20.26927879039164
 21
-1.717398693260636
 31
-1.548353283854339
  0
LINE
  5
3D0
  8
PAREDES
 10
20.26927879039164
 20
-1.717398693260636
 30
-1.548353283854339
 11
20.26927879039164
 21
-1.783451918280523
 31
-1.562893274760102
  0
LINE
  5
3D1
  8
PAREDES
 10
20.26927879039164
 20
-1.783451918280523
 30
-1.562893274760102
 11
20.26927879039164
 21
-1.85215089328654
 31
-1.576421648407926
  0
LINE
  5
3D2
  8
PAREDES
 10
20.26927879039164
 20
-1.85215089328654
 30
-1.576421648407926
 11
20.26927879039164
 21
-1.923603200369085
 31
-1.588890232547434
  0
LINE
  5
3D3
  8
PAREDES
 10
20.26927879039164
 20
-1.923603200369085
 30
-1.588890232547434
 11
20.26927879039164
 21
-1.997916421618552
 31
-1.600250854928248
  0
LINE
  5
3D4
  8
PAREDES
 10
20.26927879039164
 20
-1.997916421618552
 30
-1.600250854928248
 11
20.26927879039164
 21
-2.075198139125337
 31
-1.61045534329999
  0
LINE
  5
3D5
  8
PAREDES
 10
20.26927879039164
 20
-2.075198139125337
 30
-1.61045534329999
 11
20.26927879039164
 21
-2.155555934979836
 31
-1.619455525412282
  0
LINE
  5
3D6
  8
PAREDES
 10
20.26927879039164
 20
-2.155555934979836
 30
-1.619455525412282
 11
20.26927879039164
 21
-2.239097391272444
 31
-1.627203229014745
  0
LINE
  5
3D7
  8
PAREDES
 10
20.26927879039164
 20
-2.239097391272444
 30
-1.627203229014745
 11
20.26927879039164
 21
-2.325930090093557
 31
-1.633650281857002
  0
LINE
  5
3D8
  8
PAREDES
 10
20.26927879039164
 20
-2.325930090093557
 30
-1.633650281857002
 11
20.26927879039164
 21
-2.509899543682879
 31
-1.642449746259385
  0
LINE
  5
3D9
  8
PAREDES
 10
20.26927879039164
 20
-2.509899543682879
 30
-1.642449746259385
 11
20.26927879039163
 21
-2.708324952470969
 31
-1.645468540616406
  0
LINE
  5
3DA
  8
PAREDES
 10
20.26927879039163
 20
-2.708324952470969
 30
-1.645468540616406
 11
20.26927879039164
 21
-2.755048470858616
 31
-1.645001701480963
  0
LINE
  5
3DB
  8
PAREDES
 10
20.26927879039164
 20
-2.755048470858616
 30
-1.645001701480963
 11
20.26927879039164
 21
-2.801228690592218
 31
-1.643607905647221
  0
LINE
  5
3DC
  8
PAREDES
 10
20.26927879039164
 20
-2.801228690592218
 30
-1.643607905647221
 11
20.26927879039164
 21
-2.846868353502896
 31
-1.641297235474058
  0
LINE
  5
3DD
  8
PAREDES
 10
20.26927879039164
 20
-2.846868353502896
 30
-1.641297235474058
 11
20.26927879039164
 21
-2.891970201421772
 31
-1.638079773320356
  0
LINE
  5
3DE
  8
PAREDES
 10
20.26927879039164
 20
-2.891970201421772
 30
-1.638079773320356
 11
20.26927879039164
 21
-2.936536976179968
 31
-1.633965601544995
  0
LINE
  5
3DF
  8
PAREDES
 10
20.26927879039164
 20
-2.936536976179968
 30
-1.633965601544995
 11
20.26927879039164
 21
-2.980571419608603
 31
-1.628964802506853
  0
LINE
  5
3E0
  8
PAREDES
 10
20.26927879039164
 20
-2.980571419608603
 30
-1.628964802506853
 11
20.26927879039164
 21
-3.0240762735388
 31
-1.623087458564812
  0
LINE
  5
3E1
  8
PAREDES
 10
20.26927879039164
 20
-3.0240762735388
 30
-1.623087458564812
 11
20.26927879039164
 21
-3.06705427980168
 31
-1.616343652077751
  0
LINE
  5
3E2
  8
PAREDES
 10
20.26927879039164
 20
-3.06705427980168
 30
-1.616343652077751
 11
20.26927879039164
 21
-3.109508180228365
 31
-1.608743465404549
  0
LINE
  5
3E3
  8
PAREDES
 10
20.26927879039164
 20
-3.109508180228365
 30
-1.608743465404549
 11
20.26927879039164
 21
-3.151440716649974
 31
-1.600296980904088
  0
LINE
  5
3E4
  8
PAREDES
 10
20.26927879039164
 20
-3.151440716649974
 30
-1.600296980904088
 11
20.26927879039164
 21
-3.19285463089763
 31
-1.591014280935246
  0
LINE
  5
3E5
  8
PAREDES
 10
20.26927879039164
 20
-3.19285463089763
 30
-1.591014280935246
 11
20.26927879039164
 21
-3.233752664802455
 31
-1.580905447856904
  0
LINE
  5
3E6
  8
PAREDES
 10
20.26927879039164
 20
-3.233752664802455
 30
-1.580905447856904
 11
20.26927879039164
 21
-3.274137560195568
 31
-1.569980564027942
  0
LINE
  5
3E7
  8
PAREDES
 10
20.26927879039164
 20
-3.274137560195568
 30
-1.569980564027942
 11
20.26927879039164
 21
-3.314012058908093
 31
-1.558249711807239
  0
LINE
  5
3E8
  8
PAREDES
 10
20.26927879039164
 20
-3.314012058908093
 30
-1.558249711807239
 11
20.26927879039164
 21
-3.353378902771149
 31
-1.545722973553677
  0
LINE
  5
3E9
  8
PAREDES
 10
20.26927879039164
 20
-3.353378902771149
 30
-1.545722973553677
 11
20.26927879039164
 21
-3.392240833615857
 31
-1.532410431626133
  0
LINE
  5
3EA
  8
PAREDES
 10
20.26927879039164
 20
-3.392240833615857
 30
-1.532410431626133
 11
20.26927879039164
 21
-3.430600593273341
 31
-1.518322168383489
  0
LINE
  5
3EB
  8
PAREDES
 10
20.26927879039164
 20
-3.430600593273341
 30
-1.518322168383489
 11
20.26927879039164
 21
-3.46846092357472
 31
-1.503468266184624
  0
LINE
  5
3EC
  8
PAREDES
 10
20.26927879039164
 20
-3.46846092357472
 30
-1.503468266184624
 11
20.26927879039164
 21
-3.505824566351116
 31
-1.487858807388419
  0
LINE
  5
3ED
  8
PAREDES
 10
20.26927879039164
 20
-3.505824566351116
 30
-1.487858807388419
 11
20.26927879039164
 21
-3.54269426343365
 31
-1.471503874353753
  0
LINE
  5
3EE
  8
PAREDES
 10
20.26927879039164
 20
-3.54269426343365
 30
-1.471503874353753
 11
20.26927879039164
 21
-3.579072756653444
 31
-1.454413549439506
  0
LINE
  5
3EF
  8
PAREDES
 10
20.26927879039164
 20
-3.579072756653444
 30
-1.454413549439506
 11
20.26927879039164
 21
-3.614962787841619
 31
-1.436597915004558
  0
LINE
  5
3F0
  8
PAREDES
 10
20.26927879039164
 20
-3.614962787841619
 30
-1.436597915004558
 11
20.26927879039164
 21
-3.650367098829296
 31
-1.418067053407789
  0
LINE
  5
3F1
  8
PAREDES
 10
20.26927879039164
 20
-3.650367098829296
 30
-1.418067053407789
 11
20.26927879039164
 21
-3.685288431447596
 31
-1.398831047008079
  0
LINE
  5
3F2
  8
PAREDES
 10
20.26927879039164
 20
-3.685288431447596
 30
-1.398831047008079
 11
20.26927879039164
 21
-3.71972952752764
 31
-1.378899978164308
  0
LINE
  5
3F3
  8
PAREDES
 10
20.26927879039164
 20
-3.71972952752764
 30
-1.378899978164308
 11
20.26927879039164
 21
-3.753693128900551
 31
-1.358283929235356
  0
LINE
  5
3F4
  8
PAREDES
 10
20.26927879039164
 20
-3.753693128900551
 30
-1.358283929235356
 11
20.26927879039164
 21
-3.78718197739745
 31
-1.336992982580102
  0
LINE
  5
3F5
  8
PAREDES
 10
20.26927879039164
 20
-3.78718197739745
 30
-1.336992982580102
 11
20.26927879039164
 21
-3.820198814849456
 31
-1.315037220557427
  0
LINE
  5
3F6
  8
PAREDES
 10
20.26927879039164
 20
-3.820198814849456
 30
-1.315037220557427
 11
20.26927879039164
 21
-3.852746383087692
 31
-1.292426725526211
  0
LINE
  5
3F7
  8
PAREDES
 10
20.26927879039164
 20
-3.852746383087692
 30
-1.292426725526211
 11
20.26927879039164
 21
-3.88482742394328
 31
-1.269171579845333
  0
LINE
  5
3F8
  8
PAREDES
 10
20.26927879039164
 20
-3.88482742394328
 30
-1.269171579845333
 11
20.26927879039164
 21
-3.91644467924734
 31
-1.245281865873674
  0
LINE
  5
3F9
  8
PAREDES
 10
20.26927879039164
 20
-3.91644467924734
 30
-1.245281865873674
 11
20.26927879039164
 21
-3.947600890830992
 31
-1.220767665970113
  0
LINE
  5
3FA
  8
PAREDES
 10
20.26927879039164
 20
-3.947600890830992
 30
-1.220767665970113
 11
20.26927879039164
 21
-3.97829880052536
 31
-1.195639062493531
  0
LINE
  5
3FB
  8
PAREDES
 10
20.26927879039164
 20
-3.97829880052536
 30
-1.195639062493531
 11
20.26927879039164
 21
-4.008541150161564
 31
-1.169906137802806
  0
LINE
  5
3FC
  8
PAREDES
 10
20.26927879039164
 20
-4.008541150161564
 30
-1.169906137802806
 11
20.26927879039164
 21
-4.038330681570725
 31
-1.14357897425682
  0
LINE
  5
3FD
  8
PAREDES
 10
20.26927879039164
 20
-4.038330681570725
 30
-1.14357897425682
 11
20.26927879039164
 21
-4.067670136583966
 31
-1.116667654214452
  0
LINE
  5
3FE
  8
PAREDES
 10
20.26927879039164
 20
-4.067670136583966
 30
-1.116667654214452
 11
20.26927879039164
 21
-4.096562257032407
 31
-1.089182260034582
  0
LINE
  5
3FF
  8
PAREDES
 10
20.26927879039164
 20
-4.096562257032407
 30
-1.089182260034582
 11
20.26927879039164
 21
-4.125009784747169
 31
-1.061132874076091
  0
LINE
  5
400
  8
PAREDES
 10
20.26927879039164
 20
-4.125009784747169
 30
-1.061132874076091
 11
20.26927879039164
 21
-4.180582029300141
 31
-1.00338245625876
  0
LINE
  5
401
  8
PAREDES
 10
20.26927879039164
 20
-4.180582029300141
 30
-1.00338245625876
 11
20.26927879039164
 21
-4.234408804891854
 31
-0.9434970596335013
  0
LINE
  5
402
  8
PAREDES
 10
20.26927879039164
 20
-4.234408804891854
 30
-0.9434970596335013
 11
20.26927879039164
 21
-4.286512046171278
 31
-0.8815573430713528
  0
LINE
  5
403
  8
PAREDES
 10
20.26927879039164
 20
-4.286512046171278
 30
-0.8815573430713528
 11
20.26927879039164
 21
-4.336913687787382
 31
-0.8176439654433544
  0
LINE
  5
404
  8
PAREDES
 10
20.26927879039164
 20
-4.336913687787382
 30
-0.8176439654433544
 11
20.26927879039164
 21
-4.385635664389138
 31
-0.7518375856205454
  0
LINE
  5
405
  8
PAREDES
 10
20.26927879039164
 20
-4.385635664389138
 30
-0.7518375856205454
 11
20.26927879039164
 21
-4.432699910625516
 31
-0.6842188624739654
  0
LINE
  5
406
  8
PAREDES
 10
20.26927879039164
 20
-4.432699910625516
 30
-0.6842188624739654
 11
20.26927879039164
 21
-4.478128361145485
 31
-0.6148684548746537
  0
LINE
  5
407
  8
PAREDES
 10
20.26927879039164
 20
-4.478128361145485
 30
-0.6148684548746537
 11
20.26927879039164
 21
-4.521942950598016
 31
-0.5438670216936499
  0
LINE
  5
408
  8
PAREDES
 10
20.26927879039164
 20
-4.521942950598016
 30
-0.5438670216936499
 11
20.26927879039164
 21
-4.564165613632079
 31
-0.4712952218019933
  0
LINE
  5
409
  8
PAREDES
 10
20.26927879039164
 20
-4.564165613632079
 30
-0.4712952218019933
 11
20.26927879039164
 21
-4.604818284896646
 31
-0.3972337140707236
  0
LINE
  5
40A
  8
PAREDES
 10
20.26927879039164
 20
-4.604818284896646
 30
-0.3972337140707236
 11
20.26927879039164
 21
-4.643922899040684
 31
-0.32176315737088
  0
LINE
  5
40B
  8
PAREDES
 10
20.26927879039164
 20
-4.643922899040684
 30
-0.32176315737088
 11
20.26927879039164
 21
-4.681501390713166
 31
-0.2449642105735021
  0
LINE
  5
40C
  8
PAREDES
 10
20.26927879039164
 20
-4.681501390713166
 30
-0.2449642105735021
 11
20.26927879039164
 21
-4.71757569456306
 31
-0.1669175325496293
  0
LINE
  5
40D
  8
PAREDES
 10
20.26927879039164
 20
-4.71757569456306
 30
-0.1669175325496293
 11
20.26927879039164
 21
-4.752167745239339
 31
-0.087703782170301
  0
LINE
  5
40E
  8
PAREDES
 10
20.26927879039164
 20
-4.752167745239339
 30
-0.087703782170301
 11
20.26927879039164
 21
-4.785299477390971
 31
-0.0074036183065567
  0
LINE
  5
40F
  8
PAREDES
 10
20.26927879039164
 20
-4.785299477390971
 30
-0.0074036183065567
 11
20.26927879039164
 21
-4.816992825666927
 31
0.0739023001705642
  0
LINE
  5
410
  8
PAREDES
 10
20.26927879039164
 20
-4.816992825666927
 30
0.0739023001705642
 11
20.26927879039164
 21
-4.847269724716178
 31
0.1561333143900221
  0
LINE
  5
411
  8
PAREDES
 10
20.26927879039164
 20
-4.847269724716178
 30
0.1561333143900221
 11
20.26927879039164
 21
-4.876152109187693
 31
0.2392087654807777
  0
LINE
  5
412
  8
PAREDES
 10
20.26927879039164
 20
-4.876152109187693
 30
0.2392087654807777
 11
20.26927879039164
 21
-4.903661913730443
 31
0.3230479945717914
  0
LINE
  5
413
  8
PAREDES
 10
20.26927879039164
 20
-4.903661913730443
 30
0.3230479945717914
 11
20.26927879039164
 21
-4.954651521625528
 31
0.4926951512704357
  0
LINE
  5
414
  8
PAREDES
 10
20.26927879039164
 20
-4.954651521625528
 30
0.4926951512704357
 11
20.26927879039164
 21
-5.000414025593194
 31
0.6644295135176393
  0
LINE
  5
415
  8
PAREDES
 10
20.26927879039164
 20
-5.000414025593194
 30
0.6644295135176393
 11
20.26927879039164
 21
-5.041124902825205
 31
0.8376058103450867
  0
LINE
  5
416
  8
PAREDES
 10
20.26927879039164
 20
-5.041124902825205
 30
0.8376058103450867
 11
20.26927879039164
 21
-5.07695963051332
 31
1.011578770784462
  0
LINE
  5
417
  8
PAREDES
 10
20.26927879039164
 20
-5.07695963051332
 30
1.011578770784462
 11
20.26927879039164
 21
-5.108093685849304
 31
1.18570312386745
  0
LINE
  5
418
  8
PAREDES
 10
20.26927879039164
 20
-5.108093685849304
 30
1.18570312386745
 11
20.26927879039164
 21
-5.134702546024917
 31
1.359333598625736
  0
LINE
  5
419
  8
PAREDES
 10
20.26927879039164
 20
-5.134702546024917
 30
1.359333598625736
 11
20.26927879039164
 21
-5.156961688231922
 31
1.531824924091002
  0
LINE
  5
41A
  8
PAREDES
 10
20.26927879039164
 20
-5.156961688231922
 30
1.531824924091002
 11
20.26927879039164
 21
-5.175046589662081
 31
1.702531829294934
  0
LINE
  5
41B
  8
PAREDES
 10
20.26927879039164
 20
-5.175046589662081
 30
1.702531829294934
 11
20.26927879039164
 21
-5.189132727507156
 31
1.870809043269215
  0
LINE
  5
41C
  8
PAREDES
 10
20.26927879039164
 20
-5.189132727507156
 30
1.870809043269215
 11
20.26927879039164
 21
-5.199395578958907
 31
2.036011295045532
  0
LINE
  5
41D
  8
PAREDES
 10
20.26927879039164
 20
-5.199395578958907
 30
2.036011295045532
 11
20.26927879039164
 21
-5.206010621209098
 31
2.197493313655567
  0
LINE
  5
41E
  8
PAREDES
 10
20.26927879039164
 20
-5.206010621209098
 30
2.197493313655567
 11
20.26927879039164
 21
-5.209153331449492
 31
2.354609828131006
  0
LINE
  5
41F
  8
PAREDES
 10
20.26927879039164
 20
-5.209153331449492
 30
2.354609828131006
 11
20.26927879039164
 21
-5.208999186871848
 31
2.506715567503532
  0
LINE
  5
420
  8
PAREDES
 10
20.26927879039164
 20
-5.208999186871848
 30
2.506715567503532
 11
20.26927879039164
 21
-5.208464634688649
 31
2.529241741834321
  0
LINE
  5
421
  8
PAREDES
 10
20.26927879039164
 20
-5.208464634688649
 30
2.529241741834321
 11
20.26927879039164
 21
-5.207391877319564
 31
2.551581695582321
  0
LINE
  5
422
  8
PAREDES
 10
20.26927879039164
 20
-5.207391877319564
 30
2.551581695582321
 11
20.26927879039164
 21
-5.205785160721835
 31
2.573736199322325
  0
LINE
  5
423
  8
PAREDES
 10
20.26927879039164
 20
-5.205785160721835
 30
2.573736199322325
 11
20.26927879039164
 21
-5.203648730852701
 31
2.595706023629128
  0
LINE
  5
424
  8
PAREDES
 10
20.26927879039164
 20
-5.203648730852701
 30
2.595706023629128
 11
20.26927879039164
 21
-5.200986833669409
 31
2.617491939077524
  0
LINE
  5
425
  8
PAREDES
 10
20.26927879039164
 20
-5.200986833669409
 30
2.617491939077524
 11
20.26927879039164
 21
-5.197803715129197
 31
2.639094716242306
  0
LINE
  5
426
  8
PAREDES
 10
20.26927879039164
 20
-5.197803715129197
 30
2.639094716242306
 11
20.26927879039164
 21
-5.19410362118931
 31
2.660515125698272
  0
LINE
  5
427
  8
PAREDES
 10
20.26927879039164
 20
-5.19410362118931
 30
2.660515125698272
 11
20.26927879039164
 21
-5.189890797806989
 31
2.681753938020212
  0
LINE
  5
428
  8
PAREDES
 10
20.26927879039164
 20
-5.189890797806989
 30
2.681753938020212
 11
20.26927879039164
 21
-5.185169490939476
 31
2.702811923782924
  0
LINE
  5
429
  8
PAREDES
 10
20.26927879039164
 20
-5.185169490939476
 30
2.702811923782924
 11
20.26927879039164
 21
-5.179943946544014
 31
2.7236898535612
  0
LINE
  5
42A
  8
PAREDES
 10
20.26927879039164
 20
-5.179943946544014
 30
2.7236898535612
 11
20.26927879039164
 21
-5.174218410577844
 31
2.744388497929835
  0
LINE
  5
42B
  8
PAREDES
 10
20.26927879039164
 20
-5.174218410577844
 30
2.744388497929835
 11
20.26927879039164
 21
-5.16799712899821
 31
2.764908627463624
  0
LINE
  5
42C
  8
PAREDES
 10
20.26927879039164
 20
-5.16799712899821
 30
2.764908627463624
 11
20.26927879039164
 21
-5.161284347762352
 31
2.785251012737361
  0
LINE
  5
42D
  8
PAREDES
 10
20.26927879039164
 20
-5.161284347762352
 30
2.785251012737361
 11
20.26927879039164
 21
-5.154084312827514
 31
2.805416424325839
  0
LINE
  5
42E
  8
PAREDES
 10
20.26927879039164
 20
-5.154084312827514
 30
2.805416424325839
 11
20.26927879039164
 21
-5.146401270150939
 31
2.825405632803855
  0
LINE
  5
42F
  8
PAREDES
 10
20.26927879039164
 20
-5.146401270150939
 30
2.825405632803855
 11
20.26927879039164
 21
-5.138239465689866
 31
2.845219408746201
  0
LINE
  5
430
  8
PAREDES
 10
20.26927879039164
 20
-5.138239465689866
 30
2.845219408746201
 11
20.26927879039164
 21
-5.129603145401539
 31
2.864858522727673
  0
LINE
  5
431
  8
PAREDES
 10
20.26927879039164
 20
-5.129603145401539
 30
2.864858522727673
 11
20.26927879039164
 21
-5.120496555243201
 31
2.884323745323064
  0
LINE
  5
432
  8
PAREDES
 10
20.26927879039164
 20
-5.120496555243201
 30
2.884323745323064
 11
20.26927879039164
 21
-5.110923941172093
 31
2.903615847107169
  0
LINE
  5
433
  8
PAREDES
 10
20.26927879039164
 20
-5.110923941172093
 30
2.903615847107169
 11
20.26927879039164
 21
-5.100889549145457
 31
2.922735598654782
  0
LINE
  5
434
  8
PAREDES
 10
20.26927879039164
 20
-5.100889549145457
 30
2.922735598654782
 11
20.26927879039164
 21
-5.090397625120536
 31
2.941683770540698
  0
LINE
  5
435
  8
PAREDES
 10
20.26927879039164
 20
-5.090397625120536
 30
2.941683770540698
 11
20.26927879039164
 21
-5.079452415054572
 31
2.96046113333971
  0
LINE
  5
436
  8
PAREDES
 10
20.26927879039164
 20
-5.079452415054572
 30
2.96046113333971
 11
20.26927879039164
 21
-5.068058164904808
 31
2.979068457626615
  0
LINE
  5
437
  8
PAREDES
 10
20.26927879039164
 20
-5.068058164904808
 30
2.979068457626615
 11
20.26927879039164
 21
-5.056219120628485
 31
2.997506513976204
  0
LINE
  5
438
  8
PAREDES
 10
20.26927879039164
 20
-5.056219120628485
 30
2.997506513976204
 11
20.26927879039164
 21
-5.043939528182845
 31
3.015776072963274
  0
LINE
  5
439
  8
PAREDES
 10
20.26927879039164
 20
-5.043939528182845
 30
3.015776072963274
 11
20.26927879039164
 21
-5.031223633525132
 31
3.033877905162618
  0
LINE
  5
43A
  8
PAREDES
 10
20.26927879039164
 20
-5.031223633525132
 30
3.033877905162618
 11
20.26927879039164
 21
-5.018075682612585
 31
3.051812781149031
  0
LINE
  5
43B
  8
PAREDES
 10
20.26927879039164
 20
-5.018075682612585
 30
3.051812781149031
 11
20.26927879039164
 21
-5.004499921402449
 31
3.069581471497306
  0
LINE
  5
43C
  8
PAREDES
 10
20.26927879039164
 20
-5.004499921402449
 30
3.069581471497306
 11
20.26927879039164
 21
-4.990500595851964
 31
3.087184746782239
  0
LINE
  5
43D
  8
PAREDES
 10
20.26927879039164
 20
-4.990500595851964
 30
3.087184746782239
 11
20.26927879039164
 21
-4.976081951918375
 31
3.104623377578624
  0
LINE
  5
43E
  8
PAREDES
 10
20.26927879039164
 20
-4.976081951918375
 30
3.104623377578624
 11
20.26927879039164
 21
-4.961248235558923
 31
3.121898134461255
  0
LINE
  5
43F
  8
PAREDES
 10
20.26927879039164
 20
-4.961248235558923
 30
3.121898134461255
 11
20.26927879039164
 21
-4.946003692730849
 31
3.139009788004926
  0
LINE
  5
440
  8
PAREDES
 10
20.26927879039164
 20
-4.946003692730849
 30
3.139009788004926
 11
20.26927879039164
 21
-4.914299111497806
 31
3.172746867374567
  0
LINE
  5
441
  8
PAREDES
 10
20.26927879039164
 20
-4.914299111497806
 30
3.172746867374567
 11
20.26927879039164
 21
-4.881002175877186
 31
3.205840780285901
  0
LINE
  5
442
  8
PAREDES
 10
20.26927879039164
 20
-4.881002175877186
 30
3.205840780285901
 11
20.26927879039164
 21
-4.846146853526925
 31
3.238297691337285
  0
LINE
  5
443
  8
PAREDES
 10
20.26927879039164
 20
-4.846146853526925
 30
3.238297691337285
 11
20.26927879039164
 21
-4.809767112104962
 31
3.270123765127071
  0
LINE
  5
444
  8
PAREDES
 10
20.26927879039164
 20
-4.809767112104962
 30
3.270123765127071
 11
20.26927879039164
 21
-4.771896919269233
 31
3.301325166253616
  0
LINE
  5
445
  8
PAREDES
 10
20.26927879039164
 20
-4.771896919269233
 30
3.301325166253616
 11
20.26927879039164
 21
-4.732570242677675
 31
3.331908059315273
  0
LINE
  5
446
  8
PAREDES
 10
20.26927879039164
 20
-4.732570242677675
 30
3.331908059315273
 11
20.26927879039164
 21
-4.691821049988228
 31
3.361878608910398
  0
LINE
  5
447
  8
PAREDES
 10
20.26927879039164
 20
-4.691821049988228
 30
3.361878608910398
 11
20.26927879039164
 21
-4.649683308858828
 31
3.391242979637346
  0
LINE
  5
448
  8
PAREDES
 10
20.26927879039164
 20
-4.649683308858828
 30
3.391242979637346
 11
20.26927879039164
 21
-4.606190986947412
 31
3.42000733609447
  0
LINE
  5
449
  8
PAREDES
 10
20.26927879039164
 20
-4.606190986947412
 30
3.42000733609447
 11
20.26927879039164
 21
-4.56137805191192
 31
3.448177842880127
  0
LINE
  5
44A
  8
PAREDES
 10
20.26927879039164
 20
-4.56137805191192
 30
3.448177842880127
 11
20.26927879039164
 21
-4.515278471410285
 31
3.47576066459267
  0
LINE
  5
44B
  8
PAREDES
 10
20.26927879039164
 20
-4.515278471410285
 30
3.47576066459267
 11
20.26927879039164
 21
-4.46792621310045
 31
3.502761965830455
  0
LINE
  5
44C
  8
PAREDES
 10
20.26927879039164
 20
-4.46792621310045
 30
3.502761965830455
 11
20.26927879039164
 21
-4.419355244640348
 31
3.529187911191836
  0
LINE
  5
44D
  8
PAREDES
 10
20.26927879039164
 20
-4.419355244640348
 30
3.529187911191836
 11
20.26927879039164
 21
-4.369599533687921
 31
3.555044665275168
  0
LINE
  5
44E
  8
PAREDES
 10
20.26927879039164
 20
-4.369599533687921
 30
3.555044665275168
 11
20.26927879039164
 21
-4.266669754937832
 31
3.605075258001104
  0
LINE
  5
44F
  8
PAREDES
 10
20.26927879039164
 20
-4.266669754937832
 30
3.605075258001104
 11
20.26927879039164
 21
-4.159408618113684
 31
3.652903060795102
  0
LINE
  5
450
  8
PAREDES
 10
20.26927879039164
 20
-4.159408618113684
 30
3.652903060795102
 11
20.26927879039164
 21
-4.048087864478978
 31
3.698577390443999
  0
LINE
  5
451
  8
PAREDES
 10
20.26927879039164
 20
-4.048087864478978
 30
3.698577390443999
 11
20.26927879039164
 21
-3.932979235297213
 31
3.742147563734633
  0
LINE
  5
452
  8
PAREDES
 10
20.26927879039164
 20
-3.932979235297213
 30
3.742147563734633
 11
20.26927879039164
 21
-3.814354471831891
 31
3.783662897453843
  0
LINE
  5
453
  8
PAREDES
 10
20.26927879039164
 20
-3.814354471831891
 30
3.783662897453843
 11
20.26927879039164
 21
-3.692485315346511
 31
3.823172708388467
  0
LINE
  5
454
  8
PAREDES
 10
20.26927879039164
 20
-3.692485315346511
 30
3.823172708388467
 11
20.26927879039164
 21
-3.567643507104576
 31
3.860726313325344
  0
LINE
  5
455
  8
PAREDES
 10
20.26927879039164
 20
-3.567643507104576
 30
3.860726313325344
 11
20.26927879039164
 21
-3.440100788369584
 31
3.89637302905131
  0
LINE
  5
456
  8
PAREDES
 10
20.26927879039164
 20
-3.440100788369584
 30
3.89637302905131
 11
20.26927879039164
 21
-3.310128900405036
 31
3.930162172353206
  0
LINE
  5
457
  8
PAREDES
 10
20.26927879039164
 20
-3.310128900405036
 30
3.930162172353206
 11
20.26927879039164
 21
-3.043984581841274
 31
3.992365008832134
  0
LINE
  5
458
  8
PAREDES
 10
20.26927879039164
 20
-3.043984581841274
 30
3.992365008832134
 11
20.26927879039164
 21
-2.771384481521294
 31
4.047729357056834
  0
LINE
  5
459
  8
PAREDES
 10
20.26927879039164
 20
-2.771384481521294
 30
4.047729357056834
 11
20.26927879039164
 21
-2.494502529553101
 31
4.096649751322012
  0
LINE
  5
45A
  8
PAREDES
 10
20.26927879039164
 20
-2.494502529553101
 30
4.096649751322012
 11
20.26927879039164
 21
-2.215512656044698
 31
4.13952072592237
  0
LINE
  5
45B
  8
PAREDES
 10
20.26927879039164
 20
-2.215512656044698
 30
4.13952072592237
 11
20.26927879039164
 21
-1.936588791104088
 31
4.176736815152617
  0
LINE
  5
45C
  8
PAREDES
 10
20.26927879039164
 20
-1.936588791104088
 30
4.176736815152617
 11
20.26927879039164
 21
-1.659904864839275
 31
4.208692553307458
  0
LINE
  5
45D
  8
PAREDES
 10
20.26927879039164
 20
-1.659904864839275
 30
4.208692553307458
 11
20.26927879039164
 21
-1.121952548769057
 31
4.258401113569738
  0
LINE
  5
45E
  8
PAREDES
 10
20.26927879039164
 20
-1.121952548769057
 30
4.258401113569738
 11
20.26927879039164
 21
-0.6190471486980724
 31
4.291802681066853
  0
LINE
  5
45F
  8
PAREDES
 10
20.26927879039164
 20
-0.6190471486980724
 30
4.291802681066853
 11
20.26927879039164
 21
-0.1685801054903517
 31
4.312053530156446
  0
LINE
  5
460
  8
PAREDES
 10
20.26927879039164
 20
-0.1685801054903517
 30
4.312053530156446
 11
20.26927879039164
 21
0.5054731468791795
 31
4.325728170543636
  0
LINE
  5
461
  8
PAREDES
 10
20.26927879039164
 20
0.5054731468791795
 30
4.325728170543636
 11
20.26927879039164
 21
0.7610756814272985
 31
4.324675229592446
  0
LINE
  5
462
  8
PAREDES
 10
20.56927879039164
 20
0.7399916970575742
 30
-0.5931296736919962
 11
19.96927879039164
 21
0.7399916970575742
 31
-0.5931296736919962
  0
LINE
  5
463
  8
PAREDES
 10
20.56927879039163
 20
-2.708324952470969
 30
-1.645468540616406
 11
19.96927879039163
 21
-2.708324952470969
 31
-1.645468540616406
  0
LINE
  5
464
  8
PAREDES
 10
20.56927879039164
 20
-5.208999186871848
 30
2.506715567503532
 11
19.96927879039164
 21
-5.208999186871848
 31
2.506715567503532
  0
LINE
  5
465
  8
PAREDES
 10
20.26927879039164
 20
0.7610756814272985
 30
4.324675229592446
 11
20.26927879039164
 21
0.7735469270839115
 31
4.324675229592446
  0
LINE
  5
466
  8
PAREDES
 10
20.56927879039164
 20
0.767311304255605
 30
4.324675229592446
 11
19.96927879039164
 21
0.767311304255605
 31
4.324675229592446
  0
LINE
  5
467
  8
PAREDES
 10
20.26927879039164
 20
0.7735469270839115
 30
4.324675229592446
 11
20.26927879039164
 21
1.029148721474798
 31
4.325728170543636
  0
LINE
  5
468
  8
PAREDES
 10
20.26927879039164
 20
1.029148721474798
 30
4.325728170543636
 11
20.26927879039164
 21
1.703200022520716
 31
4.312053530156446
  0
LINE
  5
469
  8
PAREDES
 10
20.26927879039164
 20
1.703200022520716
 30
4.312053530156446
 11
20.26927879039164
 21
2.153665762042401
 31
4.291802681066853
  0
LINE
  5
46A
  8
PAREDES
 10
20.26927879039164
 20
2.153665762042401
 30
4.291802681066853
 11
20.26927879039164
 21
2.656569707031553
 31
4.258401113569738
  0
LINE
  5
46B
  8
PAREDES
 10
20.26927879039164
 20
2.656569707031553
 30
4.258401113569738
 11
20.26927879039164
 21
3.194520467089407
 31
4.208692553307458
  0
LINE
  5
46C
  8
PAREDES
 10
20.26927879039164
 20
3.194520467089407
 30
4.208692553307458
 11
20.26927879039164
 21
3.471203593269484
 31
4.176736815152617
  0
LINE
  5
46D
  8
PAREDES
 10
20.26927879039164
 20
3.471203593269484
 30
4.176736815152617
 11
20.26927879039164
 21
3.750126651817199
 31
4.13952072592237
  0
LINE
  5
46E
  8
PAREDES
 10
20.26927879039164
 20
3.750126651817199
 30
4.13952072592237
 11
20.26927879039164
 21
4.029115718932709
 31
4.096649751322012
  0
LINE
  5
46F
  8
PAREDES
 10
20.26927879039164
 20
4.029115718932709
 30
4.096649751322012
 11
20.26927879039164
 21
4.305996870816165
 31
4.047729357056834
  0
LINE
  5
470
  8
PAREDES
 10
20.26927879039164
 20
4.305996870816165
 30
4.047729357056834
 11
20.26927879039164
 21
4.578596183667725
 31
3.992365008832134
  0
LINE
  5
471
  8
PAREDES
 10
20.26927879039164
 20
4.578596183667725
 30
3.992365008832134
 11
20.26927879039164
 21
4.844739733687542
 31
3.930162172353206
  0
LINE
  5
472
  8
PAREDES
 10
20.26927879039164
 20
4.844739733687542
 30
3.930162172353206
 11
20.26927879039164
 21
4.974711246448095
 31
3.89637302905131
  0
LINE
  5
473
  8
PAREDES
 10
20.26927879039164
 20
4.974711246448095
 30
3.89637302905131
 11
20.26927879039164
 21
5.102253597075769
 31
3.860726313325344
  0
LINE
  5
474
  8
PAREDES
 10
20.26927879039164
 20
5.102253597075769
 30
3.860726313325344
 11
20.26927879039164
 21
5.227095045095586
 31
3.823172708388467
  0
LINE
  5
475
  8
PAREDES
 10
20.26927879039164
 20
5.227095045095586
 30
3.823172708388467
 11
20.26927879039164
 21
5.348963850032565
 31
3.783662897453843
  0
LINE
  5
476
  8
PAREDES
 10
20.26927879039164
 20
5.348963850032565
 30
3.783662897453843
 11
20.26927879039164
 21
5.467588271411723
 31
3.742147563734633
  0
LINE
  5
477
  8
PAREDES
 10
20.26927879039164
 20
5.467588271411723
 30
3.742147563734633
 11
20.26927879039164
 21
5.582696568758079
 31
3.698577390443999
  0
LINE
  5
478
  8
PAREDES
 10
20.26927879039164
 20
5.582696568758079
 30
3.698577390443999
 11
20.26927879039164
 21
5.694017001596655
 31
3.652903060795102
  0
LINE
  5
479
  8
PAREDES
 10
20.26927879039164
 20
5.694017001596655
 30
3.652903060795102
 11
20.26927879039164
 21
5.801277829452469
 31
3.605075258001104
  0
LINE
  5
47A
  8
PAREDES
 10
20.26927879039164
 20
5.801277829452469
 30
3.605075258001104
 11
20.26927879039164
 21
5.90420731185054
 31
3.555044665275168
  0
LINE
  5
47B
  8
PAREDES
 10
20.26927879039164
 20
5.90420731185054
 30
3.555044665275168
 11
20.26927879039164
 21
5.953962879604491
 31
3.529187911191836
  0
LINE
  5
47C
  8
PAREDES
 10
20.26927879039164
 20
5.953962879604491
 30
3.529187911191836
 11
20.26927879039164
 21
6.002533708315888
 31
3.502761965830455
  0
LINE
  5
47D
  8
PAREDES
 10
20.26927879039164
 20
6.002533708315888
 30
3.502761965830455
 11
20.26927879039164
 21
6.04988583042536
 31
3.47576066459267
  0
LINE
  5
47E
  8
PAREDES
 10
20.26927879039164
 20
6.04988583042536
 30
3.47576066459267
 11
20.26927879039164
 21
6.095985278373533
 31
3.448177842880127
  0
LINE
  5
47F
  8
PAREDES
 10
20.26927879039164
 20
6.095985278373533
 30
3.448177842880127
 11
20.26927879039164
 21
6.140798084601034
 31
3.42000733609447
  0
LINE
  5
480
  8
PAREDES
 10
20.26927879039164
 20
6.140798084601034
 30
3.42000733609447
 11
20.26927879039164
 21
6.184290281548492
 31
3.391242979637346
  0
LINE
  5
481
  8
PAREDES
 10
20.26927879039164
 20
6.184290281548492
 30
3.391242979637346
 11
20.26927879039164
 21
6.226427901656534
 31
3.361878608910398
  0
LINE
  5
482
  8
PAREDES
 10
20.26927879039164
 20
6.226427901656534
 30
3.361878608910398
 11
20.26927879039164
 21
6.267176977365786
 31
3.331908059315273
  0
LINE
  5
483
  8
PAREDES
 10
20.26927879039164
 20
6.267176977365786
 30
3.331908059315273
 11
20.26927879039164
 21
6.306503541116877
 31
3.301325166253616
  0
LINE
  5
484
  8
PAREDES
 10
20.26927879039164
 20
6.306503541116877
 30
3.301325166253616
 11
20.26927879039164
 21
6.344373625350435
 31
3.270123765127071
  0
LINE
  5
485
  8
PAREDES
 10
20.26927879039164
 20
6.344373625350435
 30
3.270123765127071
 11
20.26927879039164
 21
6.380753262507085
 31
3.238297691337285
  0
LINE
  5
486
  8
PAREDES
 10
20.26927879039164
 20
6.380753262507085
 30
3.238297691337285
 11
20.26927879039164
 21
6.415608485027456
 31
3.205840780285901
  0
LINE
  5
487
  8
PAREDES
 10
20.26927879039164
 20
6.415608485027456
 30
3.205840780285901
 11
20.26927879039164
 21
6.448905325352175
 31
3.172746867374567
  0
LINE
  5
488
  8
PAREDES
 10
20.26927879039164
 20
6.448905325352175
 30
3.172746867374567
 11
20.26927879039164
 21
6.48060981592187
 31
3.139009788004926
  0
LINE
  5
489
  8
PAREDES
 10
20.26927879039164
 20
6.48060981592187
 30
3.139009788004926
 11
20.26927879039164
 21
6.495854315186279
 31
3.121898134461255
  0
LINE
  5
48A
  8
PAREDES
 10
20.26927879039164
 20
6.495854315186279
 30
3.121898134461255
 11
20.26927879039164
 21
6.510687989177168
 31
3.104623377578624
  0
LINE
  5
48B
  8
PAREDES
 10
20.26927879039164
 20
6.510687989177168
 30
3.104623377578624
 11
20.26927879039164
 21
6.525106591949614
 31
3.087184746782239
  0
LINE
  5
48C
  8
PAREDES
 10
20.26927879039164
 20
6.525106591949614
 30
3.087184746782239
 11
20.26927879039164
 21
6.539105877558696
 31
3.069581471497306
  0
LINE
  5
48D
  8
PAREDES
 10
20.26927879039164
 20
6.539105877558696
 30
3.069581471497306
 11
20.26927879039164
 21
6.552681600059493
 31
3.051812781149031
  0
LINE
  5
48E
  8
PAREDES
 10
20.26927879039164
 20
6.552681600059493
 30
3.051812781149031
 11
20.26927879039164
 21
6.565829513507082
 31
3.033877905162618
  0
LINE
  5
48F
  8
PAREDES
 10
20.26927879039164
 20
6.565829513507082
 30
3.033877905162618
 11
20.26927879039164
 21
6.578545371956542
 31
3.015776072963274
  0
LINE
  5
490
  8
PAREDES
 10
20.26927879039164
 20
6.578545371956542
 30
3.015776072963274
 11
20.26927879039164
 21
6.590824929462953
 31
2.997506513976204
  0
LINE
  5
491
  8
PAREDES
 10
20.26927879039164
 20
6.590824929462953
 30
2.997506513976204
 11
20.26927879039164
 21
6.602663940081392
 31
2.979068457626615
  0
LINE
  5
492
  8
PAREDES
 10
20.26927879039164
 20
6.602663940081392
 30
2.979068457626615
 11
20.26927879039164
 21
6.614058157866937
 31
2.96046113333971
  0
LINE
  5
493
  8
PAREDES
 10
20.26927879039164
 20
6.614058157866937
 30
2.96046113333971
 11
20.26927879039164
 21
6.625003336874666
 31
2.941683770540698
  0
LINE
  5
494
  8
PAREDES
 10
20.26927879039164
 20
6.625003336874666
 30
2.941683770540698
 11
20.26927879039164
 21
6.635495231159661
 31
2.922735598654782
  0
LINE
  5
495
  8
PAREDES
 10
20.26927879039164
 20
6.635495231159661
 30
2.922735598654782
 11
20.26927879039164
 21
6.645529594776996
 31
2.903615847107169
  0
LINE
  5
496
  8
PAREDES
 10
20.26927879039164
 20
6.645529594776996
 30
2.903615847107169
 11
20.26927879039164
 21
6.655102181781752
 31
2.884323745323064
  0
LINE
  5
497
  8
PAREDES
 10
20.26927879039164
 20
6.655102181781752
 30
2.884323745323064
 11
20.26927879039164
 21
6.664208746229006
 31
2.864858522727673
  0
LINE
  5
498
  8
PAREDES
 10
20.26927879039164
 20
6.664208746229006
 30
2.864858522727673
 11
20.26927879039164
 21
6.672845042173838
 31
2.845219408746201
  0
LINE
  5
499
  8
PAREDES
 10
20.26927879039164
 20
6.672845042173838
 30
2.845219408746201
 11
20.26927879039164
 21
6.681006823671326
 31
2.825405632803855
  0
LINE
  5
49A
  8
PAREDES
 10
20.26927879039164
 20
6.681006823671326
 30
2.825405632803855
 11
20.26927879039164
 21
6.688689844776547
 31
2.805416424325839
  0
LINE
  5
49B
  8
PAREDES
 10
20.26927879039164
 20
6.688689844776547
 30
2.805416424325839
 11
20.26927879039164
 21
6.695889859544581
 31
2.785251012737361
  0
LINE
  5
49C
  8
PAREDES
 10
20.26927879039164
 20
6.695889859544581
 30
2.785251012737361
 11
20.26927879039164
 21
6.702602622030505
 31
2.764908627463624
  0
LINE
  5
49D
  8
PAREDES
 10
20.26927879039164
 20
6.702602622030505
 30
2.764908627463624
 11
20.26927879039164
 21
6.708823886289399
 31
2.744388497929835
  0
LINE
  5
49E
  8
PAREDES
 10
20.26927879039164
 20
6.708823886289399
 30
2.744388497929835
 11
20.26927879039164
 21
6.71454940637634
 31
2.7236898535612
  0
LINE
  5
49F
  8
PAREDES
 10
20.26927879039164
 20
6.71454940637634
 30
2.7236898535612
 11
20.26927879039164
 21
6.719774936346409
 31
2.702811923782924
  0
LINE
  5
4A0
  8
PAREDES
 10
20.26927879039164
 20
6.719774936346409
 30
2.702811923782924
 11
20.26927879039164
 21
6.72449623025468
 31
2.681753938020212
  0
LINE
  5
4A1
  8
PAREDES
 10
20.26927879039164
 20
6.72449623025468
 30
2.681753938020212
 11
20.26927879039164
 21
6.728709042156236
 31
2.660515125698272
  0
LINE
  5
4A2
  8
PAREDES
 10
20.26927879039164
 20
6.728709042156236
 30
2.660515125698272
 11
20.26927879039164
 21
6.732409126106152
 31
2.639094716242306
  0
LINE
  5
4A3
  8
PAREDES
 10
20.26927879039164
 20
6.732409126106152
 30
2.639094716242306
 11
20.26927879039164
 21
6.735592236159508
 31
2.617491939077524
  0
LINE
  5
4A4
  8
PAREDES
 10
20.26927879039164
 20
6.735592236159508
 30
2.617491939077524
 11
20.26927879039164
 21
6.738254126371383
 31
2.595706023629128
  0
LINE
  5
4A5
  8
PAREDES
 10
20.26927879039164
 20
6.738254126371383
 30
2.595706023629128
 11
20.26927879039164
 21
6.740390550796855
 31
2.573736199322325
  0
LINE
  5
4A6
  8
PAREDES
 10
20.26927879039164
 20
6.740390550796855
 30
2.573736199322325
 11
20.26927879039164
 21
6.741997263491001
 31
2.551581695582321
  0
LINE
  5
4A7
  8
PAREDES
 10
20.26927879039164
 20
6.741997263491001
 30
2.551581695582321
 11
20.26927879039164
 21
6.743070018508901
 31
2.529241741834321
  0
LINE
  5
4A8
  8
PAREDES
 10
20.26927879039164
 20
6.743070018508901
 30
2.529241741834321
 11
20.26927879039164
 21
6.743604569905633
 31
2.506715567503532
  0
LINE
  5
4A9
  8
PAREDES
 10
20.26927879039164
 20
6.743604569905633
 30
2.506715567503532
 11
20.26927879039164
 21
6.743758812785409
 31
2.354609828131006
  0
LINE
  5
4AA
  8
PAREDES
 10
20.26927879039164
 20
6.743758812785409
 30
2.354609828131006
 11
20.26927879039164
 21
6.740616386937816
 31
2.197493313655567
  0
LINE
  5
4AB
  8
PAREDES
 10
20.26927879039164
 20
6.740616386937816
 30
2.197493313655567
 11
20.26927879039164
 21
6.734001799400698
 31
2.036011295045532
  0
LINE
  5
4AC
  8
PAREDES
 10
20.26927879039164
 20
6.734001799400698
 30
2.036011295045532
 11
20.26927879039164
 21
6.723739557211896
 31
1.870809043269215
  0
LINE
  5
4AD
  8
PAREDES
 10
20.26927879039164
 20
6.723739557211896
 30
1.870809043269215
 11
20.26927879039164
 21
6.709654167409253
 31
1.702531829294934
  0
LINE
  5
4AE
  8
PAREDES
 10
20.26927879039164
 20
6.709654167409253
 30
1.702531829294934
 11
20.26927879039164
 21
6.691570137030611
 31
1.531824924091002
  0
LINE
  5
4AF
  8
PAREDES
 10
20.26927879039164
 20
6.691570137030611
 30
1.531824924091002
 11
20.26927879039164
 21
6.669311973113814
 31
1.359333598625736
  0
LINE
  5
4B0
  8
PAREDES
 10
20.26927879039164
 20
6.669311973113814
 30
1.359333598625736
 11
20.26927879039164
 21
6.642704182696701
 31
1.18570312386745
  0
LINE
  5
4B1
  8
PAREDES
 10
20.26927879039164
 20
6.642704182696701
 30
1.18570312386745
 11
20.26927879039164
 21
6.611571272817117
 31
1.011578770784462
  0
LINE
  5
4B2
  8
PAREDES
 10
20.26927879039164
 20
6.611571272817117
 30
1.011578770784462
 11
20.26927879039164
 21
6.575737750512904
 31
0.8376058103450867
  0
LINE
  5
4B3
  8
PAREDES
 10
20.26927879039164
 20
6.575737750512904
 30
0.8376058103450867
 11
20.26927879039164
 21
6.535028122821904
 31
0.6644295135176393
  0
LINE
  5
4B4
  8
PAREDES
 10
20.26927879039164
 20
6.535028122821904
 30
0.6644295135176393
 11
20.26927879039164
 21
6.489266896781961
 31
0.4926951512704357
  0
LINE
  5
4B5
  8
PAREDES
 10
20.26927879039164
 20
6.489266896781961
 30
0.4926951512704357
 11
20.26927879039164
 21
6.438278579430917
 31
0.3230479945717914
  0
LINE
  5
4B6
  8
PAREDES
 10
20.26927879039164
 20
6.438278579430917
 30
0.3230479945717914
 11
20.26927879039164
 21
6.410769419963058
 31
0.2392087654807777
  0
LINE
  5
4B7
  8
PAREDES
 10
20.26927879039164
 20
6.410769419963058
 30
0.2392087654807777
 11
20.26927879039164
 21
6.381887677806613
 31
0.1561333143900221
  0
LINE
  5
4B8
  8
PAREDES
 10
20.26927879039164
 20
6.381887677806613
 30
0.1561333143900221
 11
20.26927879039164
 21
6.351611416341315
 31
0.0739023001705642
  0
LINE
  5
4B9
  8
PAREDES
 10
20.26927879039164
 20
6.351611416341315
 30
0.0739023001705642
 11
20.26927879039164
 21
6.319918698946892
 31
-0.0074036183065567
  0
LINE
  5
4BA
  8
PAREDES
 10
20.26927879039164
 20
6.319918698946892
 30
-0.0074036183065567
 11
20.26927879039164
 21
6.286787589003076
 31
-0.087703782170301
  0
LINE
  5
4BB
  8
PAREDES
 10
20.26927879039164
 20
6.286787589003076
 30
-0.087703782170301
 11
20.26927879039164
 21
6.252196149889597
 31
-0.1669175325496293
  0
LINE
  5
4BC
  8
PAREDES
 10
20.26927879039164
 20
6.252196149889597
 30
-0.1669175325496293
 11
20.26927879039164
 21
6.216122444986185
 31
-0.2449642105735021
  0
LINE
  5
4BD
  8
PAREDES
 10
20.26927879039164
 20
6.216122444986185
 30
-0.2449642105735021
 11
20.26927879039164
 21
6.17854453767257
 31
-0.32176315737088
  0
LINE
  5
4BE
  8
PAREDES
 10
20.26927879039164
 20
6.17854453767257
 30
-0.32176315737088
 11
20.26927879039164
 21
6.139440491328482
 31
-0.3972337140707236
  0
LINE
  5
4BF
  8
PAREDES
 10
20.26927879039164
 20
6.139440491328482
 30
-0.3972337140707236
 11
20.26927879039164
 21
6.098788369333652
 31
-0.4712952218019933
  0
LINE
  5
4C0
  8
PAREDES
 10
20.26927879039164
 20
6.098788369333652
 30
-0.4712952218019933
 11
20.26927879039164
 21
6.056566235067811
 31
-0.5438670216936499
  0
LINE
  5
4C1
  8
PAREDES
 10
20.26927879039164
 20
6.056566235067811
 30
-0.5438670216936499
 11
20.26927879039164
 21
6.012752151910689
 31
-0.6148684548746537
  0
LINE
  5
4C2
  8
PAREDES
 10
20.26927879039164
 20
6.012752151910689
 30
-0.6148684548746537
 11
20.26927879039164
 21
5.967324183242015
 31
-0.6842188624739654
  0
LINE
  5
4C3
  8
PAREDES
 10
20.26927879039164
 20
5.967324183242015
 30
-0.6842188624739654
 11
20.26927879039164
 21
5.92026039244152
 31
-0.7518375856205454
  0
LINE
  5
4C4
  8
PAREDES
 10
20.26927879039164
 20
5.92026039244152
 30
-0.7518375856205454
 11
20.26927879039164
 21
5.871538842888935
 31
-0.8176439654433544
  0
LINE
  5
4C5
  8
PAREDES
 10
20.26927879039164
 20
5.871538842888935
 30
-0.8176439654433544
 11
20.26927879039164
 21
5.82113759796399
 31
-0.8815573430713528
  0
LINE
  5
4C6
  8
PAREDES
 10
20.26927879039164
 20
5.82113759796399
 30
-0.8815573430713528
 11
20.26927879039164
 21
5.769034721046415
 31
-0.9434970596335013
  0
LINE
  5
4C7
  8
PAREDES
 10
20.26927879039164
 20
5.769034721046415
 30
-0.9434970596335013
 11
20.26927879039164
 21
5.715208275515939
 31
-1.00338245625876
  0
LINE
  5
4C8
  8
PAREDES
 10
20.26927879039164
 20
5.715208275515939
 30
-1.00338245625876
 11
20.26927879039164
 21
5.659636324752295
 31
-1.061132874076091
  0
LINE
  5
4C9
  8
PAREDES
 10
20.26927879039164
 20
5.659636324752295
 30
-1.061132874076091
 11
20.26927879039164
 21
5.631188929714201
 31
-1.089182260034582
  0
LINE
  5
4CA
  8
PAREDES
 10
20.26927879039164
 20
5.631188929714201
 30
-1.089182260034582
 11
20.26927879039164
 21
5.602296932135213
 31
-1.116667654214452
  0
LINE
  5
4CB
  8
PAREDES
 10
20.26927879039164
 20
5.602296932135213
 30
-1.116667654214452
 11
20.26927879039164
 21
5.572957589937796
 31
-1.14357897425682
  0
LINE
  5
4CC
  8
PAREDES
 10
20.26927879039164
 20
5.572957589937796
 30
-1.14357897425682
 11
20.26927879039164
 21
5.54316816104442
 31
-1.169906137802806
  0
LINE
  5
4CD
  8
PAREDES
 10
20.26927879039164
 20
5.54316816104442
 30
-1.169906137802806
 11
20.26927879039164
 21
5.512925903377548
 31
-1.195639062493531
  0
LINE
  5
4CE
  8
PAREDES
 10
20.26927879039164
 20
5.512925903377548
 30
-1.195639062493531
 11
20.26927879039164
 21
5.482228074859648
 31
-1.220767665970113
  0
LINE
  5
4CF
  8
PAREDES
 10
20.26927879039164
 20
5.482228074859648
 30
-1.220767665970113
 11
20.26927879039164
 21
5.451071933413187
 31
-1.245281865873674
  0
LINE
  5
4D0
  8
PAREDES
 10
20.26927879039164
 20
5.451071933413187
 30
-1.245281865873674
 11
20.26927879039164
 21
5.419454736960629
 31
-1.269171579845333
  0
LINE
  5
4D1
  8
PAREDES
 10
20.26927879039164
 20
5.419454736960629
 30
-1.269171579845333
 11
20.26927879039164
 21
5.387373743424443
 31
-1.292426725526211
  0
LINE
  5
4D2
  8
PAREDES
 10
20.26927879039164
 20
5.387373743424443
 30
-1.292426725526211
 11
20.26927879039164
 21
5.354826210727093
 31
-1.315037220557427
  0
LINE
  5
4D3
  8
PAREDES
 10
20.26927879039164
 20
5.354826210727093
 30
-1.315037220557427
 11
20.26927879039164
 21
5.321809396791046
 31
-1.336992982580102
  0
LINE
  5
4D4
  8
PAREDES
 10
20.26927879039164
 20
5.321809396791046
 30
-1.336992982580102
 11
20.26927879039164
 21
5.28832055953877
 31
-1.358283929235356
  0
LINE
  5
4D5
  8
PAREDES
 10
20.26927879039164
 20
5.28832055953877
 30
-1.358283929235356
 11
20.26927879039164
 21
5.254356956892728
 31
-1.378899978164308
  0
LINE
  5
4D6
  8
PAREDES
 10
20.26927879039164
 20
5.254356956892728
 30
-1.378899978164308
 11
20.26927879039164
 21
5.219915846775388
 31
-1.398831047008079
  0
LINE
  5
4D7
  8
PAREDES
 10
20.26927879039164
 20
5.219915846775388
 30
-1.398831047008079
 11
20.26927879039164
 21
5.184994487109217
 31
-1.418067053407789
  0
LINE
  5
4D8
  8
PAREDES
 10
20.26927879039164
 20
5.184994487109217
 30
-1.418067053407789
 11
20.26927879039164
 21
5.14959013581668
 31
-1.436597915004558
  0
LINE
  5
4D9
  8
PAREDES
 10
20.26927879039164
 20
5.14959013581668
 30
-1.436597915004558
 11
20.26927879039164
 21
5.113700050820244
 31
-1.454413549439506
  0
LINE
  5
4DA
  8
PAREDES
 10
20.26927879039164
 20
5.113700050820244
 30
-1.454413549439506
 11
20.26927879039164
 21
5.077321490042375
 31
-1.471503874353753
  0
LINE
  5
4DB
  8
PAREDES
 10
20.26927879039164
 20
5.077321490042375
 30
-1.471503874353753
 11
20.26927879039164
 21
5.04045171140554
 31
-1.487858807388419
  0
LINE
  5
4DC
  8
PAREDES
 10
20.26927879039164
 20
5.04045171140554
 30
-1.487858807388419
 11
20.26927879039164
 21
5.003087972832205
 31
-1.503468266184624
  0
LINE
  5
4DD
  8
PAREDES
 10
20.26927879039164
 20
5.003087972832205
 30
-1.503468266184624
 11
20.26927879039164
 21
4.965227532244835
 31
-1.518322168383489
  0
LINE
  5
4DE
  8
PAREDES
 10
20.26927879039164
 20
4.965227532244835
 30
-1.518322168383489
 11
20.26927879039164
 21
4.926867647565897
 31
-1.532410431626133
  0
LINE
  5
4DF
  8
PAREDES
 10
20.26927879039164
 20
4.926867647565897
 30
-1.532410431626133
 11
20.26927879039164
 21
4.888005576717859
 31
-1.545722973553677
  0
LINE
  5
4E0
  8
PAREDES
 10
20.26927879039164
 20
4.888005576717859
 30
-1.545722973553677
 11
20.26927879039164
 21
4.848638577623185
 31
-1.558249711807239
  0
LINE
  5
4E1
  8
PAREDES
 10
20.26927879039164
 20
4.848638577623185
 30
-1.558249711807239
 11
20.26927879039164
 21
4.808763908204343
 31
-1.569980564027942
  0
LINE
  5
4E2
  8
PAREDES
 10
20.26927879039164
 20
4.808763908204343
 30
-1.569980564027942
 11
20.26927879039164
 21
4.768378826383797
 31
-1.580905447856904
  0
LINE
  5
4E3
  8
PAREDES
 10
20.26927879039164
 20
4.768378826383797
 30
-1.580905447856904
 11
20.26927879039164
 21
4.727480590084015
 31
-1.591014280935246
  0
LINE
  5
4E4
  8
PAREDES
 10
20.26927879039164
 20
4.727480590084015
 30
-1.591014280935246
 11
20.26927879039164
 21
4.686066457227463
 31
-1.600296980904088
  0
LINE
  5
4E5
  8
PAREDES
 10
20.26927879039164
 20
4.686066457227463
 30
-1.600296980904088
 11
20.26927879039164
 21
4.644133685736609
 31
-1.608743465404549
  0
LINE
  5
4E6
  8
PAREDES
 10
20.26927879039164
 20
4.644133685736609
 30
-1.608743465404549
 11
20.26927879039164
 21
4.601679533533916
 31
-1.616343652077751
  0
LINE
  5
4E7
  8
PAREDES
 10
20.26927879039164
 20
4.601679533533916
 30
-1.616343652077751
 11
20.26927879039164
 21
4.558701258541852
 31
-1.623087458564812
  0
LINE
  5
4E8
  8
PAREDES
 10
20.26927879039164
 20
4.558701258541852
 30
-1.623087458564812
 11
20.26927879039164
 21
4.515196118682884
 31
-1.628964802506853
  0
LINE
  5
4E9
  8
PAREDES
 10
20.26927879039164
 20
4.515196118682884
 30
-1.628964802506853
 11
20.26927879039164
 21
4.471161371879477
 31
-1.633965601544995
  0
LINE
  5
4EA
  8
PAREDES
 10
20.26927879039164
 20
4.471161371879477
 30
-1.633965601544995
 11
20.26927879039164
 21
4.426594276054097
 31
-1.638079773320356
  0
LINE
  5
4EB
  8
PAREDES
 10
20.26927879039164
 20
4.426594276054097
 30
-1.638079773320356
 11
20.26927879039164
 21
4.381492089129211
 31
-1.641297235474058
  0
LINE
  5
4EC
  8
PAREDES
 10
20.26927879039164
 20
4.381492089129211
 30
-1.641297235474058
 11
20.26927879039164
 21
4.335852069027286
 31
-1.643607905647221
  0
LINE
  5
4ED
  8
PAREDES
 10
20.26927879039164
 20
4.335852069027286
 30
-1.643607905647221
 11
20.26927879039164
 21
4.289671473670788
 31
-1.645001701480963
  0
LINE
  5
4EE
  8
PAREDES
 10
20.26927879039164
 20
4.289671473670788
 30
-1.645001701480963
 11
20.26927879039164
 21
4.242947560982183
 31
-1.645468540616406
  0
LINE
  5
4EF
  8
PAREDES
 10
20.56927879039164
 20
6.743604569905633
 30
2.506715567503532
 11
19.96927879039164
 21
6.743604569905633
 31
2.506715567503532
  0
LINE
  5
4F0
  8
PAREDES
 10
19.96927879039164
 20
-19.16944333983105
 30
-14.3879375717066
 11
20.56927879039165
 21
-19.16944333983105
 31
-14.3879375717066
  0
LINE
  5
4F1
  8
PAREDES
 10
20.56927879039165
 20
-19.16944333983105
 30
-14.3879375717066
 11
20.56927879039165
 21
20.83055666016895
 31
-14.3879375717066
  0
LINE
  5
4F2
  8
PAREDES
 10
20.56927879039165
 20
20.83055666016895
 30
-14.3879375717066
 11
19.96927879039164
 21
20.83055666016895
 31
-14.3879375717066
  0
LINE
  5
4F3
  8
PAREDES
 10
19.96927879039164
 20
20.83055666016895
 30
-14.3879375717066
 11
19.96927879039164
 21
-19.16944333983105
 31
-14.3879375717066
  0
LINE
  5
4F4
  8
PAREDES
 10
19.96927879039164
 20
0.830556660168952
 30
-14.3879375717066
 11
20.56927879039165
 21
0.830556660168952
 31
-14.3879375717066
  0
LINE
  5
4F5
  8
PAREDES
 10
20.26927879039165
 20
-19.16944333983105
 30
-14.3879375717066
 11
20.26927879039165
 21
20.83055666016895
 31
-14.3879375717066
  0
LINE
  5
4F6
  8
PAREDES
 10
19.96927879039164
 20
-19.16944333983105
 30
7.0
 11
20.56927879039165
 21
-19.16944333983105
 31
7.0
  0
LINE
  5
4F7
  8
PAREDES
 10
20.56927879039165
 20
-19.16944333983105
 30
7.0
 11
20.56927879039165
 21
20.83055666016895
 31
7.0
  0
LINE
  5
4F8
  8
PAREDES
 10
20.56927879039165
 20
20.83055666016895
 30
7.0
 11
19.96927879039164
 21
20.83055666016895
 31
7.0
  0
LINE
  5
4F9
  8
PAREDES
 10
19.96927879039164
 20
20.83055666016895
 30
7.0
 11
19.96927879039164
 21
-19.16944333983105
 31
7.0
  0
LINE
  5
4FA
  8
PAREDES
 10
19.96927879039164
 20
0.830556660168952
 30
7.0
 11
20.56927879039165
 21
0.830556660168952
 31
7.0
  0
LINE
  5
4FB
  8
PAREDES
 10
20.26927879039165
 20
-19.16944333983105
 30
7.0
 11
20.26927879039165
 21
20.83055666016895
 31
7.0
  0
LINE
  5
4FC
  8
PAREDES
 10
20.56927879039165
 20
20.83055666016895
 30
7.0
 11
19.96927879039164
 21
20.83055666016895
 31
7.0
  0
LINE
  5
4FD
  8
PAREDES
 10
20.56927879039165
 20
20.83055666016895
 30
-14.3879375717066
 11
19.96927879039164
 21
20.83055666016895
 31
-14.3879375717066
  0
LINE
  5
4FE
  8
PAREDES
 10
20.56927879039165
 20
20.83055666016895
 30
-14.3879375717066
 11
20.56927879039165
 21
20.83055666016895
 31
7.0
  0
LINE
  5
4FF
  8
PAREDES
 10
19.96927879039164
 20
20.83055666016895
 30
-14.3879375717066
 11
19.96927879039164
 21
20.83055666016895
 31
7.0
  0
LINE
  5
500
  8
PAREDES
 10
20.56927879039165
 20
20.83055666016895
 30
-13.0
 11
19.96927879039164
 21
20.83055666016895
 31
-13.0
  0
LINE
  5
501
  8
PAREDES
 10
20.26927879039164
 20
20.83055666016895
 30
-14.3879375717066
 11
20.26927879039164
 21
20.83055666016895
 31
7.0
  0
LINE
  5
502
  8
PAREDES
 10
19.96927879039164
 20
-19.16944333983105
 30
7.0
 11
20.56927879039165
 21
-19.16944333983105
 31
7.0
  0
LINE
  5
503
  8
PAREDES
 10
19.96927879039164
 20
-19.16944333983105
 30
-14.3879375717066
 11
20.56927879039165
 21
-19.16944333983105
 31
-14.3879375717066
  0
LINE
  5
504
  8
PAREDES
 10
20.56927879039165
 20
-19.16944333983105
 30
-14.3879375717066
 11
20.56927879039165
 21
-19.16944333983105
 31
7.0
  0
LINE
  5
505
  8
PAREDES
 10
19.96927879039164
 20
-19.16944333983105
 30
-14.3879375717066
 11
19.96927879039164
 21
-19.16944333983105
 31
7.0
  0
LINE
  5
506
  8
PAREDES
 10
19.96927879039164
 20
-19.16944333983105
 30
-13.0
 11
20.56927879039165
 21
-19.16944333983105
 31
-13.0
  0
LINE
  5
507
  8
PAREDES
 10
20.26927879039165
 20
-19.16944333983105
 30
-14.3879375717066
 11
20.26927879039165
 21
-19.16944333983105
 31
7.0
  0
LINE
  5
508
  8
PAREDES
 10
-19.43072120960835
 20
-19.16944333983105
 30
7.0
 11
20.56927879039165
 21
-19.16944333983105
 31
7.0
  0
LINE
  5
509
  8
PAREDES
 10
20.56927879039165
 20
-19.16944333983105
 30
7.0
 11
20.56927879039165
 21
-19.16944333983105
 31
7.600000000000001
  0
LINE
  5
50A
  8
PAREDES
 10
-19.43072120960835
 20
-19.16944333983105
 30
7.600000000000001
 11
20.56927879039165
 21
-19.16944333983105
 31
7.600000000000001
  0
LINE
  5
50B
  8
PAREDES
 10
-19.43072120960835
 20
-19.16944333983105
 30
7.0
 11
-19.43072120960835
 21
-19.16944333983105
 31
7.600000000000001
  0
LINE
  5
50C
  8
PAREDES
 10
20.56927879039165
 20
-19.16944333983105
 30
7.0
 11
20.56927879039165
 21
20.83055666016895
 31
7.0
  0
LINE
  5
50D
  8
PAREDES
 10
20.56927879039165
 20
20.83055666016895
 30
7.0
 11
20.56927879039165
 21
20.83055666016895
 31
7.600000000000001
  0
LINE
  5
50E
  8
PAREDES
 10
20.56927879039165
 20
-19.16944333983105
 30
7.600000000000001
 11
20.56927879039165
 21
20.83055666016895
 31
7.600000000000001
  0
LINE
  5
50F
  8
PAREDES
 10
20.56927879039165
 20
20.83055666016895
 30
7.0
 11
-19.43072120960835
 21
20.83055666016895
 31
7.0
  0
LINE
  5
510
  8
PAREDES
 10
-19.43072120960835
 20
20.83055666016895
 30
7.0
 11
-19.43072120960835
 21
20.83055666016895
 31
7.600000000000001
  0
LINE
  5
511
  8
PAREDES
 10
20.56927879039165
 20
20.83055666016895
 30
7.600000000000001
 11
-19.43072120960835
 21
20.83055666016895
 31
7.600000000000001
  0
LINE
  5
512
  8
PAREDES
 10
-19.43072120960835
 20
20.83055666016895
 30
7.0
 11
-19.43072120960835
 21
-19.16944333983105
 31
7.0
  0
LINE
  5
513
  8
PAREDES
 10
-19.43072120960835
 20
20.83055666016895
 30
7.600000000000001
 11
-19.43072120960835
 21
-19.16944333983105
 31
7.600000000000001
  0
LINE
  5
514
  8
PAREDES
 10
-18.83072120960835
 20
20.22080916203706
 30
-13.7879375717066
 11
19.96927879039164
 21
20.22080916203706
 31
-13.7879375717066
  0
LINE
  5
515
  8
PAREDES
 10
19.96927879039164
 20
20.22080916203706
 30
-13.7879375717066
 11
19.96927879039164
 21
20.22080916203706
 31
7.0
  0
LINE
  5
516
  8
PAREDES
 10
-18.83072120960835
 20
20.22080916203706
 30
7.0
 11
19.96927879039164
 21
20.22080916203706
 31
7.0
  0
LINE
  5
517
  8
PAREDES
 10
-18.83072120960835
 20
20.22080916203706
 30
-13.7879375717066
 11
-18.83072120960835
 21
20.22080916203706
 31
7.0
  0
LINE
  5
518
  8
PAREDES
 10
19.96927879039164
 20
20.22080916203706
 30
-13.7879375717066
 11
19.96927879039164
 21
20.82080916203706
 31
-13.7879375717066
  0
LINE
  5
519
  8
PAREDES
 10
19.96927879039164
 20
20.82080916203706
 30
-13.7879375717066
 11
19.96927879039164
 21
20.82080916203706
 31
7.0
  0
LINE
  5
51A
  8
PAREDES
 10
19.96927879039164
 20
20.22080916203706
 30
7.0
 11
19.96927879039164
 21
20.82080916203706
 31
7.0
  0
LINE
  5
51B
  8
PAREDES
 10
19.96927879039164
 20
20.82080916203706
 30
-13.7879375717066
 11
-18.83072120960835
 21
20.82080916203706
 31
-13.7879375717066
  0
LINE
  5
51C
  8
PAREDES
 10
-18.83072120960835
 20
20.82080916203706
 30
-13.7879375717066
 11
-18.83072120960835
 21
20.82080916203706
 31
7.0
  0
LINE
  5
51D
  8
PAREDES
 10
19.96927879039164
 20
20.82080916203706
 30
7.0
 11
-18.83072120960835
 21
20.82080916203706
 31
7.0
  0
LINE
  5
51E
  8
PAREDES
 10
-18.83072120960835
 20
20.82080916203706
 30
-13.7879375717066
 11
-18.83072120960835
 21
20.22080916203706
 31
-13.7879375717066
  0
LINE
  5
51F
  8
PAREDES
 10
-18.83072120960835
 20
20.82080916203706
 30
7.0
 11
-18.83072120960835
 21
20.22080916203706
 31
7.0
  0
LINE
  5
520
  8
PAREDES
 10
-19.43072120960835
 20
-19.17919083796294
 30
-13.7879375717066
 11
-18.83072120960835
 21
-19.17919083796294
 31
-13.7879375717066
  0
LINE
  5
521
  8
PAREDES
 10
-18.83072120960835
 20
-19.17919083796294
 30
-13.7879375717066
 11
-18.83072120960835
 21
-19.17919083796294
 31
7.0
  0
LINE
  5
522
  8
PAREDES
 10
-19.43072120960835
 20
-19.17919083796294
 30
7.0
 11
-18.83072120960835
 21
-19.17919083796294
 31
7.0
  0
LINE
  5
523
  8
PAREDES
 10
-19.43072120960835
 20
-19.17919083796294
 30
-13.7879375717066
 11
-19.43072120960835
 21
-19.17919083796294
 31
7.0
  0
LINE
  5
524
  8
PAREDES
 10
-18.83072120960835
 20
-19.17919083796294
 30
-13.7879375717066
 11
-18.83072120960835
 21
20.82080916203706
 31
-13.7879375717066
  0
LINE
  5
525
  8
PAREDES
 10
-18.83072120960835
 20
20.82080916203706
 30
-13.7879375717066
 11
-18.83072120960835
 21
20.82080916203706
 31
7.0
  0
LINE
  5
526
  8
PAREDES
 10
-18.83072120960835
 20
-19.17919083796294
 30
7.0
 11
-18.83072120960835
 21
20.82080916203706
 31
7.0
  0
LINE
  5
527
  8
PAREDES
 10
-18.83072120960835
 20
20.82080916203706
 30
-13.7879375717066
 11
-19.43072120960835
 21
20.82080916203706
 31
-13.7879375717066
  0
LINE
  5
528
  8
PAREDES
 10
-19.43072120960835
 20
20.82080916203706
 30
-13.7879375717066
 11
-19.43072120960835
 21
20.82080916203706
 31
7.0
  0
LINE
  5
529
  8
PAREDES
 10
-18.83072120960835
 20
20.82080916203706
 30
7.0
 11
-19.43072120960835
 21
20.82080916203706
 31
7.0
  0
LINE
  5
52A
  8
PAREDES
 10
-19.43072120960835
 20
20.82080916203706
 30
-13.7879375717066
 11
-19.43072120960835
 21
-19.17919083796294
 31
-13.7879375717066
  0
LINE
  5
52B
  8
PAREDES
 10
-19.43072120960835
 20
20.82080916203706
 30
7.0
 11
-19.43072120960835
 21
-19.17919083796294
 31
7.0
  0
LINE
  5
52C
  8
PAREDES
 10
-18.83072120960835
 20
-19.16944333983105
 30
-13.7879375717066
 11
19.96927879039164
 21
-19.16944333983105
 31
-13.7879375717066
  0
LINE
  5
52D
  8
PAREDES
 10
19.96927879039164
 20
-19.16944333983105
 30
-13.7879375717066
 11
19.96927879039164
 21
-19.16944333983105
 31
7.0
  0
LINE
  5
52E
  8
PAREDES
 10
-18.83072120960835
 20
-19.16944333983105
 30
7.0
 11
19.96927879039164
 21
-19.16944333983105
 31
7.0
  0
LINE
  5
52F
  8
PAREDES
 10
-18.83072120960835
 20
-19.16944333983105
 30
-13.7879375717066
 11
-18.83072120960835
 21
-19.16944333983105
 31
7.0
  0
LINE
  5
530
  8
PAREDES
 10
19.96927879039164
 20
-19.16944333983105
 30
-13.7879375717066
 11
19.96927879039164
 21
-18.56944333983105
 31
-13.7879375717066
  0
LINE
  5
531
  8
PAREDES
 10
19.96927879039164
 20
-18.56944333983105
 30
-13.7879375717066
 11
19.96927879039164
 21
-18.56944333983105
 31
7.0
  0
LINE
  5
532
  8
PAREDES
 10
19.96927879039164
 20
-19.16944333983105
 30
7.0
 11
19.96927879039164
 21
-18.56944333983105
 31
7.0
  0
LINE
  5
533
  8
PAREDES
 10
19.96927879039164
 20
-18.56944333983105
 30
-13.7879375717066
 11
-18.83072120960835
 21
-18.56944333983105
 31
-13.7879375717066
  0
LINE
  5
534
  8
PAREDES
 10
-18.83072120960835
 20
-18.56944333983105
 30
-13.7879375717066
 11
-18.83072120960835
 21
-18.56944333983105
 31
7.0
  0
LINE
  5
535
  8
PAREDES
 10
19.96927879039164
 20
-18.56944333983105
 30
7.0
 11
-18.83072120960835
 21
-18.56944333983105
 31
7.0
  0
LINE
  5
536
  8
PAREDES
 10
-18.83072120960835
 20
-18.56944333983105
 30
-13.7879375717066
 11
-18.83072120960835
 21
-19.16944333983105
 31
-13.7879375717066
  0
LINE
  5
537
  8
PAREDES
 10
-18.83072120960835
 20
-18.56944333983105
 30
7.0
 11
-18.83072120960835
 21
-19.16944333983105
 31
7.0
  0
CIRCLE
  5
539
  8
DEFAULT
 10
0.5907884757800377
 20
0.8390523102211336
 30
-5.5
 40
1.5
  0
LINE
  5
53A
  8
DEFAULT
 10
2.090788475780037
 20
0.8390523102211338
 30
-5.5
 11
2.090788475780037
 21
0.8390523102211338
 31
-4.5
  0
CIRCLE
  5
53B
  8
DEFAULT
 10
0.5907884757800377
 20
0.8390523102211336
 30
-4.5
 40
1.5
  0
CIRCLE
  5
53D
  8
DISCO
 10
0.5805811507866606
 20
0.8305566601689572
 30
-5.318284477956654
 40
16.91868865580865
  0
LINE
  5
53E
  8
DISCO
 10
-9.430277551581286
 20
14.46964511480596
 30
-5.318284477956654
 11
-9.430277551581286
 21
14.46964511480596
 31
-4.718284477956654
  0
CIRCLE
  5
53F
  8
DISCO
 10
0.5805811507866606
 20
0.8305566601689572
 30
-4.718284477956654
 40
16.91868865580865
  0
LINE
  5
540
  8
DEFAULT
 10
-19.41941884921334
 20
-19.16944333983104
 30
-14.3879375717066
 11
20.58058115078666
 21
-19.16944333983104
 31
-14.3879375717066
  0
LINE
  5
541
  8
DEFAULT
 10
20.58058115078666
 20
-19.16944333983104
 30
-14.3879375717066
 11
20.58058115078666
 21
-19.16944333983104
 31
-13.7879375717066
  0
LINE
  5
542
  8
DEFAULT
 10
-19.41941884921334
 20
-19.16944333983104
 30
-13.7879375717066
 11
20.58058115078666
 21
-19.16944333983104
 31
-13.7879375717066
  0
LINE
  5
543
  8
DEFAULT
 10
-19.41941884921334
 20
-19.16944333983104
 30
-14.3879375717066
 11
-19.41941884921334
 21
-19.16944333983104
 31
-13.7879375717066
  0
LINE
  5
544
  8
DEFAULT
 10
20.58058115078666
 20
-19.16944333983104
 30
-14.3879375717066
 11
20.58058115078666
 21
20.83055666016896
 31
-14.3879375717066
  0
LINE
  5
545
  8
DEFAULT
 10
20.58058115078666
 20
20.83055666016896
 30
-14.3879375717066
 11
20.58058115078666
 21
20.83055666016896
 31
-13.7879375717066
  0
LINE
  5
546
  8
DEFAULT
 10
20.58058115078666
 20
-19.16944333983104
 30
-13.7879375717066
 11
20.58058115078666
 21
20.83055666016896
 31
-13.7879375717066
  0
LINE
  5
547
  8
DEFAULT
 10
20.58058115078666
 20
20.83055666016896
 30
-14.3879375717066
 11
-19.41941884921334
 21
20.83055666016896
 31
-14.3879375717066
  0
LINE
  5
548
  8
DEFAULT
 10
-19.41941884921334
 20
20.83055666016896
 30
-14.3879375717066
 11
-19.41941884921334
 21
20.83055666016896
 31
-13.7879375717066
  0
LINE
  5
549
  8
DEFAULT
 10
20.58058115078666
 20
20.83055666016896
 30
-13.7879375717066
 11
-19.41941884921334
 21
20.83055666016896
 31
-13.7879375717066
  0
LINE
  5
54A
  8
DEFAULT
 10
-19.41941884921334
 20
20.83055666016896
 30
-14.3879375717066
 11
-19.41941884921334
 21
-19.16944333983104
 31
-14.3879375717066
  0
LINE
  5
54B
  8
DEFAULT
 10
-19.41941884921334
 20
20.83055666016896
 30
-13.7879375717066
 11
-19.41941884921334
 21
-19.16944333983104
 31
-13.7879375717066
  0
CIRCLE
  5
54C
  8
DEFAULT
 10
0.5907884757800376
 20
0.839052310221134
 30
-8.695609619854919
 40
0.2499999999999999
  0
LINE
  5
54D
  8
DEFAULT
 10
0.8407884757800375
 20
0.839052310221134
 30
-8.695609619854919
 11
0.8407884757800375
 21
0.839052310221134
 31
-4.033596078739338
  0
CIRCLE
  5
54E
  8
DEFAULT
 10
0.5907884757800376
 20
0.839052310221134
 30
-4.033596078739338
 40
0.2499999999999999
  0
CIRCLE
  5
54F
  8
DEFAULT
 10
0.5907884757800372
 20
0.8390523102203866
 30
-7.162931143194334
 40
1.5
  0
LINE
  5
550
  8
DEFAULT
 10
2.090788475780037
 20
0.8390523102203866
 30
-7.162931143194334
 11
2.090788475780037
 21
0.8390523102203866
 31
-6.162931143194334
  0
CIRCLE
  5
551
  8
DEFAULT
 10
0.5907884757800372
 20
0.8390523102203866
 30
-6.162931143194334
 40
1.5
  0
LINE
  5
552
  8
DEFAULT
 10
-5.712116271673445
 20
7.123254082629059
 30
-13.7879375717066
 11
-5.712116271673445
 21
7.123254082629059
 31
-6.7617950865993
  0
LINE
  5
553
  8
DEFAULT
 10
-5.712116271673445
 20
7.123254082629059
 30
-6.7617950865993
 11
-5.112116271673444
 21
7.123254082629059
 31
-6.7617950865993
  0
LINE
  5
554
  8
DEFAULT
 10
-5.112116271673444
 20
7.123254082629059
 30
-13.7879375717066
 11
-5.112116271673444
 21
7.123254082629059
 31
-6.7617950865993
  0
LINE
  5
555
  8
DEFAULT
 10
-5.712116271673445
 20
7.123254082629059
 30
-13.7879375717066
 11
-5.112116271673444
 21
7.123254082629059
 31
-13.7879375717066
  0
LINE
  5
556
  8
DEFAULT
 10
-5.712116271673445
 20
7.123254082629059
 30
-6.7617950865993
 11
-5.712116271673445
 21
-5.462140762291148
 31
-6.7617950865993
  0
LINE
  5
557
  8
DEFAULT
 10
-5.712116271673445
 20
-5.462140762291148
 30
-6.7617950865993
 11
-5.112116271673444
 21
-5.462140762291148
 31
-6.7617950865993
  0
LINE
  5
558
  8
DEFAULT
 10
-5.112116271673444
 20
7.123254082629059
 30
-6.7617950865993
 11
-5.112116271673444
 21
-5.462140762291148
 31
-6.7617950865993
  0
LINE
  5
559
  8
DEFAULT
 10
-5.712116271673445
 20
-5.462140762291148
 30
-6.7617950865993
 11
-5.712116271673445
 21
-5.462140762291148
 31
-13.7879375717066
  0
LINE
  5
55A
  8
DEFAULT
 10
-5.712116271673445
 20
-5.462140762291148
 30
-13.7879375717066
 11
-5.112116271673444
 21
-5.462140762291148
 31
-13.7879375717066
  0
LINE
  5
55B
  8
DEFAULT
 10
-5.112116271673444
 20
-5.462140762291148
 30
-6.7617950865993
 11
-5.112116271673444
 21
-5.462140762291148
 31
-13.7879375717066
  0
LINE
  5
55C
  8
DEFAULT
 10
-5.712116271673445
 20
-5.462140762291148
 30
-13.7879375717066
 11
-5.712116271673445
 21
7.123254082629059
 31
-13.7879375717066
  0
LINE
  5
55D
  8
DEFAULT
 10
-5.112116271673444
 20
-5.462140762291148
 30
-13.7879375717066
 11
-5.112116271673444
 21
7.123254082629059
 31
-13.7879375717066
  0
LINE
  5
55E
  8
DEFAULT
 10
-5.712116271673445
 20
6.523254082629058
 30
-13.7879375717066
 11
-5.712116271673445
 21
6.523254082629058
 31
-6.7617950865993
  0
LINE
  5
55F
  8
DEFAULT
 10
-5.712116271673445
 20
6.523254082629058
 30
-6.7617950865993
 11
-5.712116271673445
 21
7.123254082629059
 31
-6.7617950865993
  0
LINE
  5
560
  8
DEFAULT
 10
-5.712116271673445
 20
7.123254082629059
 30
-13.7879375717066
 11
-5.712116271673445
 21
7.123254082629059
 31
-6.7617950865993
  0
LINE
  5
561
  8
DEFAULT
 10
-5.712116271673445
 20
6.523254082629058
 30
-13.7879375717066
 11
-5.712116271673445
 21
7.123254082629059
 31
-13.7879375717066
  0
LINE
  5
562
  8
DEFAULT
 10
-5.712116271673445
 20
6.523254082629058
 30
-6.7617950865993
 11
23.87981940563541
 21
6.523254082629058
 31
-6.7617950865993
  0
LINE
  5
563
  8
DEFAULT
 10
23.87981940563541
 20
6.523254082629058
 30
-6.7617950865993
 11
23.87981940563541
 21
7.123254082629059
 31
-6.7617950865993
  0
LINE
  5
564
  8
DEFAULT
 10
-5.712116271673445
 20
7.123254082629059
 30
-6.7617950865993
 11
23.87981940563541
 21
7.123254082629059
 31
-6.7617950865993
  0
LINE
  5
565
  8
DEFAULT
 10
23.87981940563541
 20
6.523254082629058
 30
-6.7617950865993
 11
23.87981940563541
 21
6.523254082629058
 31
-13.7879375717066
  0
LINE
  5
566
  8
DEFAULT
 10
23.87981940563541
 20
6.523254082629058
 30
-13.7879375717066
 11
23.87981940563541
 21
7.123254082629059
 31
-13.7879375717066
  0
LINE
  5
567
  8
DEFAULT
 10
23.87981940563541
 20
7.123254082629059
 30
-6.7617950865993
 11
23.87981940563541
 21
7.123254082629059
 31
-13.7879375717066
  0
LINE
  5
568
  8
DEFAULT
 10
23.87981940563541
 20
6.523254082629058
 30
-13.7879375717066
 11
-5.712116271673445
 21
6.523254082629058
 31
-13.7879375717066
  0
LINE
  5
569
  8
DEFAULT
 10
23.87981940563541
 20
7.123254082629059
 30
-13.7879375717066
 11
-5.712116271673445
 21
7.123254082629059
 31
-13.7879375717066
  0
LINE
  5
56A
  8
DEFAULT
 10
23.2798194056354
 20
7.123254082629059
 30
-13.7879375717066
 11
23.2798194056354
 21
7.123254082629059
 31
-6.7617950865993
  0
LINE
  5
56B
  8
DEFAULT
 10
23.2798194056354
 20
7.123254082629059
 30
-6.7617950865993
 11
23.87981940563541
 21
7.123254082629059
 31
-6.7617950865993
  0
LINE
  5
56C
  8
DEFAULT
 10
23.87981940563541
 20
7.123254082629059
 30
-13.7879375717066
 11
23.87981940563541
 21
7.123254082629059
 31
-6.7617950865993
  0
LINE
  5
56D
  8
DEFAULT
 10
23.2798194056354
 20
7.123254082629059
 30
-13.7879375717066
 11
23.87981940563541
 21
7.123254082629059
 31
-13.7879375717066
  0
LINE
  5
56E
  8
DEFAULT
 10
23.2798194056354
 20
7.123254082629059
 30
-6.7617950865993
 11
23.2798194056354
 21
-5.462140762291148
 31
-6.7617950865993
  0
LINE
  5
56F
  8
DEFAULT
 10
23.2798194056354
 20
-5.462140762291148
 30
-6.7617950865993
 11
23.87981940563541
 21
-5.462140762291148
 31
-6.7617950865993
  0
LINE
  5
570
  8
DEFAULT
 10
23.87981940563541
 20
7.123254082629059
 30
-6.7617950865993
 11
23.87981940563541
 21
-5.462140762291148
 31
-6.7617950865993
  0
LINE
  5
571
  8
DEFAULT
 10
23.2798194056354
 20
-5.462140762291148
 30
-6.7617950865993
 11
23.2798194056354
 21
-5.462140762291148
 31
-13.7879375717066
  0
LINE
  5
572
  8
DEFAULT
 10
23.2798194056354
 20
-5.462140762291148
 30
-13.7879375717066
 11
23.87981940563541
 21
-5.462140762291148
 31
-13.7879375717066
  0
LINE
  5
573
  8
DEFAULT
 10
23.87981940563541
 20
-5.462140762291148
 30
-6.7617950865993
 11
23.87981940563541
 21
-5.462140762291148
 31
-13.7879375717066
  0
LINE
  5
574
  8
DEFAULT
 10
23.2798194056354
 20
-5.462140762291148
 30
-13.7879375717066
 11
23.2798194056354
 21
7.123254082629059
 31
-13.7879375717066
  0
LINE
  5
575
  8
DEFAULT
 10
23.87981940563541
 20
-5.462140762291148
 30
-13.7879375717066
 11
23.87981940563541
 21
7.123254082629059
 31
-13.7879375717066
  0
LINE
  5
576
  8
DEFAULT
 10
-5.712116271673445
 20
-5.462140762291148
 30
-13.7879375717066
 11
-5.712116271673445
 21
-5.462140762291148
 31
-6.7617950865993
  0
LINE
  5
577
  8
DEFAULT
 10
-5.712116271673445
 20
-5.462140762291148
 30
-6.7617950865993
 11
-5.712116271673445
 21
-4.862140762291147
 31
-6.7617950865993
  0
LINE
  5
578
  8
DEFAULT
 10
-5.712116271673445
 20
-4.862140762291147
 30
-13.7879375717066
 11
-5.712116271673445
 21
-4.862140762291147
 31
-6.7617950865993
  0
LINE
  5
579
  8
DEFAULT
 10
-5.712116271673445
 20
-5.462140762291148
 30
-13.7879375717066
 11
-5.712116271673445
 21
-4.862140762291147
 31
-13.7879375717066
  0
LINE
  5
57A
  8
DEFAULT
 10
-5.712116271673445
 20
-5.462140762291148
 30
-6.7617950865993
 11
23.87981940563541
 21
-5.462140762291148
 31
-6.7617950865993
  0
LINE
  5
57B
  8
DEFAULT
 10
23.87981940563541
 20
-5.462140762291148
 30
-6.7617950865993
 11
23.87981940563541
 21
-4.862140762291147
 31
-6.7617950865993
  0
LINE
  5
57C
  8
DEFAULT
 10
-5.712116271673445
 20
-4.862140762291147
 30
-6.7617950865993
 11
23.87981940563541
 21
-4.862140762291147
 31
-6.7617950865993
  0
LINE
  5
57D
  8
DEFAULT
 10
23.87981940563541
 20
-5.462140762291148
 30
-6.7617950865993
 11
23.87981940563541
 21
-5.462140762291148
 31
-13.7879375717066
  0
LINE
  5
57E
  8
DEFAULT
 10
23.87981940563541
 20
-5.462140762291148
 30
-13.7879375717066
 11
23.87981940563541
 21
-4.862140762291147
 31
-13.7879375717066
  0
LINE
  5
57F
  8
DEFAULT
 10
23.87981940563541
 20
-4.862140762291147
 30
-6.7617950865993
 11
23.87981940563541
 21
-4.862140762291147
 31
-13.7879375717066
  0
LINE
  5
580
  8
DEFAULT
 10
23.87981940563541
 20
-5.462140762291148
 30
-13.7879375717066
 11
-5.712116271673445
 21
-5.462140762291148
 31
-13.7879375717066
  0
LINE
  5
581
  8
DEFAULT
 10
23.87981940563541
 20
-4.862140762291147
 30
-13.7879375717066
 11
-5.712116271673445
 21
-4.862140762291147
 31
-13.7879375717066
  0
LINE
  5
582
  8
DEFAULT
 10
-5.712116271673445
 20
-5.462140762291148
 30
-6.7617950865993
 11
23.87981940563541
 21
-5.462140762291148
 31
-6.7617950865993
  0
LINE
  5
583
  8
DEFAULT
 10
23.87981940563541
 20
-5.462140762291148
 30
-6.7617950865993
 11
23.87981940563541
 21
-5.462140762291148
 31
-6.161795086599301
  0
LINE
  5
584
  8
DEFAULT
 10
-5.712116271673445
 20
-5.462140762291148
 30
-6.161795086599301
 11
23.87981940563541
 21
-5.462140762291148
 31
-6.161795086599301
  0
LINE
  5
585
  8
DEFAULT
 10
-5.712116271673445
 20
-5.462140762291148
 30
-6.7617950865993
 11
-5.712116271673445
 21
-5.462140762291148
 31
-6.161795086599301
  0
LINE
  5
586
  8
DEFAULT
 10
23.87981940563541
 20
-5.462140762291148
 30
-6.7617950865993
 11
23.87981940563541
 21
7.123254082629059
 31
-6.7617950865993
  0
LINE
  5
587
  8
DEFAULT
 10
23.87981940563541
 20
7.123254082629059
 30
-6.7617950865993
 11
23.87981940563541
 21
7.123254082629059
 31
-6.161795086599301
  0
LINE
  5
588
  8
DEFAULT
 10
23.87981940563541
 20
-5.462140762291148
 30
-6.161795086599301
 11
23.87981940563541
 21
7.123254082629059
 31
-6.161795086599301
  0
LINE
  5
589
  8
DEFAULT
 10
23.87981940563541
 20
7.123254082629059
 30
-6.7617950865993
 11
-5.712116271673445
 21
7.123254082629059
 31
-6.7617950865993
  0
LINE
  5
58A
  8
DEFAULT
 10
-5.712116271673445
 20
7.123254082629059
 30
-6.7617950865993
 11
-5.712116271673445
 21
7.123254082629059
 31
-6.161795086599301
  0
LINE
  5
58B
  8
DEFAULT
 10
23.87981940563541
 20
7.123254082629059
 30
-6.161795086599301
 11
-5.712116271673445
 21
7.123254082629059
 31
-6.161795086599301
  0
LINE
  5
58C
  8
DEFAULT
 10
-5.712116271673445
 20
7.123254082629059
 30
-6.7617950865993
 11
-5.712116271673445
 21
-5.462140762291148
 31
-6.7617950865993
  0
LINE
  5
58D
  8
DEFAULT
 10
-5.712116271673445
 20
7.123254082629059
 30
-6.161795086599301
 11
-5.712116271673445
 21
-5.462140762291148
 31
-6.161795086599301
  0
LINE
  5
58E
  8
DEFAULT
 10
-19.41941884921334
 20
-19.16944333983104
 30
-14.3879375717066
 11
20.58058115078666
 21
-19.16944333983104
 31
-14.3879375717066
  0
LINE
  5
58F
  8
DEFAULT
 10
20.58058115078666
 20
-19.16944333983104
 30
-14.3879375717066
 11
20.58058115078666
 21
20.83055666016896
 31
-14.3879375717066
  0
LINE
  5
590
  8
DEFAULT
 10
20.58058115078666
 20
20.83055666016896
 30
-14.3879375717066
 11
-19.41941884921334
 21
20.83055666016896
 31
-14.3879375717066
  0
LINE
  5
591
  8
DEFAULT
 10
-19.41941884921334
 20
20.83055666016896
 30
-14.3879375717066
 11
-19.41941884921334
 21
-19.16944333983104
 31
-14.3879375717066
  0
POINT
  5
592
  8
DEFAULT
 10
20.56927879039165
 20
0.8208091620370581
 30
-14.3879375717066
  0
POINT
  5
593
  8
DEFAULT
 10
-19.43072120960835
 20
0.8208091620370581
 30
-14.3879375717066
  0
POINT
  5
594
  8
DEFAULT
 10
0.5692787903916461
 20
-19.17919083796294
 30
-14.3879375717066
  0
POINT
  5
595
  8
DEFAULT
 10
0.5692787903916461
 20
20.82080916203706
 30
-14.3879375717066
  0
ENDSEC
  0
EOF
