  0
SECTION
  2
HEADER
  9
$ACADVER
  1
AC1009
  9
$DWGCODEPAGE
  3
mac-roman
  9
$INSBASE
 10
0.0
 20
0.0
 30
0.0
  9
$EXTMIN
 10
-19.43072120960835
 20
-19.17919083796294
 30
-14.3879375717066
  9
$EXTMAX
 10
23.87981940563541
 20
20.83055666016896
 30
7.600000000000001
  9
$LIMMIN
 10
0.0
 20
0.0
  9
$LIMMAX
 10
12.0
 20
9.0
  9
$ORTHOMODE
 70
     0
  9
$REGENMODE
 70
     1
  9
$FILLMODE
 70
     1
  9
$QTEXTMODE
 70
     0
  9
$MIRRTEXT
 70
     1
  9
$DRAGMODE
 70
     2
  9
$LTSCALE
 40
1.0
  9
$OSMODE
 70
    37
  9
$ATTMODE
 70
     1
  9
$TEXTSIZE
 40
0.2
  9
$TRACEWID
 40
0.05
  9
$TEXTSTYLE
  7
STANDARD
  9
$CLAYER
  8
PAREDES
  9
$CELTYPE
  6
BYLAYER
  9
$CECOLOR
 62
   256
  9
$DIMSCALE
 40
1.0
  9
$DIMASZ
 40
0.18
  9
$DIMEXO
 40
0.0625
  9
$DIMDLI
 40
0.38
  9
$DIMRND
 40
0.0
  9
$DIMDLE
 40
0.0
  9
$DIMEXE
 40
0.18
  9
$DIMTP
 40
0.0
  9
$DIMTM
 40
0.0
  9
$DIMTXT
 40
0.18
  9
$DIMCEN
 40
0.09
  9
$DIMTSZ
 40
0.0
  9
$DIMTOL
 70
     0
  9
$DIMLIM
 70
     0
  9
$DIMTIH
 70
     1
  9
$DIMTOH
 70
     1
  9
$DIMSE1
 70
     0
  9
$DIMSE2
 70
     0
  9
$DIMTAD
 70
     0
  9
$DIMZIN
 70
     0
  9
$DIMBLK
  1

  9
$DIMASO
 70
     1
  9
$DIMSHO
 70
     1
  9
$DIMPOST
  1

  9
$DIMAPOST
  1

  9
$DIMALT
 70
     0
  9
$DIMALTD
 70
     2
  9
$DIMALTF
 40
25.4
  9
$DIMLFAC
 40
1.0
  9
$DIMTOFL
 70
     0
  9
$DIMTVP
 40
0.0
  9
$DIMTIX
 70
     0
  9
$DIMSOXD
 70
     0
  9
$DIMSAH
 70
     0
  9
$DIMBLK1
  1

  9
$DIMBLK2
  1

  9
$DIMSTYLE
  2
STANDARD
  9
$DIMCLRD
 70
     0
  9
$DIMCLRE
 70
     0
  9
$DIMCLRT
 70
     0
  9
$DIMTFAC
 40
1.0
  9
$DIMGAP
 40
0.09
  9
$LUNITS
 70
     2
  9
$LUPREC
 70
     2
  9
$SKETCHINC
 40
0.1
  9
$FILLETRAD
 40
0.5
  9
$AUNITS
 70
     0
  9
$AUPREC
 70
     0
  9
$MENU
  1
.
  9
$ELEVATION
 40
0.0
  9
$PELEVATION
 40
0.0
  9
$THICKNESS
 40
0.0
  9
$LIMCHECK
 70
     0
  9
$CHAMFERA
 40
0.0
  9
$CHAMFERB
 40
0.0
  9
$SKPOLY
 70
     0
  9
$TDCREATE
 40
2457946.936226852
  9
$TDUPDATE
 40
2457946.93625
  9
$TDINDWG
 40
0.0000000116
  9
$TDUSRTIMER
 40
0.0000000116
  9
$USRTIMER
 70
     1
  9
$ANGBASE
 50
0.0
  9
$ANGDIR
 70
     0
  9
$PDMODE
 70
     0
  9
$PDSIZE
 40
0.0
  9
$PLINEWID
 40
0.0
  9
$COORDS
 70
     1
  9
$SPLFRAME
 70
     0
  9
$SPLINETYPE
 70
     6
  9
$SPLINESEGS
 70
     8
  9
$ATTDIA
 70
     0
  9
$ATTREQ
 70
     1
  9
$HANDLING
 70
     1
  9
$HANDSEED
  5
13C
  9
$SURFTAB1
 70
     6
  9
$SURFTAB2
 70
     6
  9
$SURFTYPE
 70
     6
  9
$SURFU
 70
     6
  9
$SURFV
 70
     6
  9
$UCSNAME
  2

  9
$UCSORG
 10
0.0
 20
0.0
 30
0.0
  9
$UCSXDIR
 10
1.0
 20
0.0
 30
0.0
  9
$UCSYDIR
 10
0.0
 20
1.0
 30
0.0
  9
$PUCSNAME
  2

  9
$PUCSORG
 10
0.0
 20
0.0
 30
0.0
  9
$PUCSXDIR
 10
1.0
 20
0.0
 30
0.0
  9
$PUCSYDIR
 10
0.0
 20
1.0
 30
0.0
  9
$USERI1
 70
     0
  9
$USERI2
 70
     0
  9
$USERI3
 70
     0
  9
$USERI4
 70
     0
  9
$USERI5
 70
     0
  9
$USERR1
 40
0.0
  9
$USERR2
 40
0.0
  9
$USERR3
 40
0.0
  9
$USERR4
 40
0.0
  9
$USERR5
 40
0.0
  9
$WORLDVIEW
 70
     1
  9
$SHADEDGE
 70
     3
  9
$SHADEDIF
 70
    70
  9
$TILEMODE
 70
     1
  9
$MAXACTVP
 70
    64
  9
$PLIMCHECK
 70
     0
  9
$PEXTMIN
 10
1.000000000000000E+20
 20
1.000000000000000E+20
 30
1.000000000000000E+20
  9
$PEXTMAX
 10
-1.000000000000000E+20
 20
-1.000000000000000E+20
 30
-1.000000000000000E+20
  9
$PLIMMIN
 10
0.0
 20
0.0
  9
$PLIMMAX
 10
12.0
 20
9.0
  9
$UNITMODE
 70
     0
  9
$VISRETAIN
 70
     1
  9
$PLINEGEN
 70
     0
  9
$PSLTSCALE
 70
     1
  0
ENDSEC
  0
SECTION
  2
TABLES
  0
TABLE
  2
VPORT
 70
     1
  0
VPORT
  2
*ACTIVE
 70
     0
 10
0.0
 20
0.0
 11
1.0
 21
1.0
 12
2.224549098013529
 22
0.8256829111030086
 13
0.0
 23
0.0
 14
0.5
 24
0.5
 15
0.5
 25
0.5
 16
0.0
 26
0.0
 36
1.0
 17
0.0
 27
0.0
 37
0.0
 40
40.80994244809454
 41
1.082499723780211
 42
50.0
 43
0.0
 44
0.0
 50
0.0
 51
0.0
 71
     0
 72
   100
 73
     1
 74
     3
 75
     0
 76
     0
 77
     0
 78
     0
  0
ENDTAB
  0
TABLE
  2
LTYPE
 70
     1
  0
LTYPE
  2
CONTINUOUS
 70
     0
  3
Solid line
 72
    65
 73
     0
 40
0.0
  0
ENDTAB
  0
TABLE
  2
LAYER
 70
     4
  0
LAYER
  2
0
 70
     0
 62
     7
  6
CONTINUOUS
  0
LAYER
  2
PAREDES
 70
     0
 62
     7
  6
CONTINUOUS
  0
LAYER
  2
DEFAULT
 70
     0
 62
     7
  6
CONTINUOUS
  0
LAYER
  2
DISCO
 70
     0
 62
   -96
  6
CONTINUOUS
  0
ENDTAB
  0
TABLE
  2
STYLE
 70
     1
  0
STYLE
  2
STANDARD
 70
     0
 40
0.0
 41
1.0
 50
0.0
 71
     0
 42
0.2
  3
txt
  4

  0
ENDTAB
  0
TABLE
  2
VIEW
 70
     0
  0
ENDTAB
  0
TABLE
  2
UCS
 70
     0
  0
ENDTAB
  0
TABLE
  2
APPID
 70
     1
  0
APPID
  2
ACAD
 70
     0
  0
ENDTAB
  0
TABLE
  2
DIMSTYLE
 70
     1
  0
DIMSTYLE
  2
STANDARD
 70
     0
  3

  4

  5

  6

  7

 40
1.0
 41
0.18
 42
0.0625
 43
0.38
 44
0.18
 45
0.0
 46
0.0
 47
0.0
 48
0.0
140
0.18
141
0.09
142
0.0
143
25.4
144
1.0
145
0.0
146
1.0
147
0.09
 71
     0
 72
     0
 73
     1
 74
     1
 75
     0
 76
     0
 77
     0
 78
     0
170
     0
171
     2
172
     0
173
     0
174
     0
175
     0
176
     0
177
     0
178
     0
  0
ENDTAB
  0
ENDSEC
  0
SECTION
  2
BLOCKS
  0
BLOCK
  8
0
  2
$MODEL_SPACE
 70
     0
 10
0.0
 20
0.0
 30
0.0
  3
$MODEL_SPACE
  1

  0
ENDBLK
  5
21
  8
0
  0
BLOCK
 67
     1
  8
0
  2
$PAPER_SPACE
 70
     0
 10
0.0
 20
0.0
 30
0.0
  3
$PAPER_SPACE
  1

  0
ENDBLK
  5
1D
 67
     1
  8
0
  0
ENDSEC
  0
SECTION
  2
ENTITIES
  0
LINE
  5
6F
  8
PAREDES
 10
-19.43072120960835
 20
-19.16944333983105
 30
7.0
 11
20.56927879039165
 21
-19.16944333983105
 31
7.0
  0
LINE
  5
70
  8
PAREDES
 10
20.56927879039165
 20
-19.16944333983105
 30
7.0
 11
20.56927879039165
 21
-19.16944333983105
 31
7.600000000000001
  0
LINE
  5
71
  8
PAREDES
 10
-19.43072120960835
 20
-19.16944333983105
 30
7.600000000000001
 11
20.56927879039165
 21
-19.16944333983105
 31
7.600000000000001
  0
LINE
  5
72
  8
PAREDES
 10
-19.43072120960835
 20
-19.16944333983105
 30
7.0
 11
-19.43072120960835
 21
-19.16944333983105
 31
7.600000000000001
  0
LINE
  5
73
  8
PAREDES
 10
20.56927879039165
 20
-19.16944333983105
 30
7.0
 11
20.56927879039165
 21
20.83055666016895
 31
7.0
  0
LINE
  5
74
  8
PAREDES
 10
20.56927879039165
 20
20.83055666016895
 30
7.0
 11
20.56927879039165
 21
20.83055666016895
 31
7.600000000000001
  0
LINE
  5
75
  8
PAREDES
 10
20.56927879039165
 20
-19.16944333983105
 30
7.600000000000001
 11
20.56927879039165
 21
20.83055666016895
 31
7.600000000000001
  0
LINE
  5
76
  8
PAREDES
 10
20.56927879039165
 20
20.83055666016895
 30
7.0
 11
-19.43072120960835
 21
20.83055666016895
 31
7.0
  0
LINE
  5
77
  8
PAREDES
 10
-19.43072120960835
 20
20.83055666016895
 30
7.0
 11
-19.43072120960835
 21
20.83055666016895
 31
7.600000000000001
  0
LINE
  5
78
  8
PAREDES
 10
20.56927879039165
 20
20.83055666016895
 30
7.600000000000001
 11
-19.43072120960835
 21
20.83055666016895
 31
7.600000000000001
  0
LINE
  5
79
  8
PAREDES
 10
-19.43072120960835
 20
20.83055666016895
 30
7.0
 11
-19.43072120960835
 21
-19.16944333983105
 31
7.0
  0
LINE
  5
7A
  8
PAREDES
 10
-19.43072120960835
 20
20.83055666016895
 30
7.600000000000001
 11
-19.43072120960835
 21
-19.16944333983105
 31
7.600000000000001
  0
LINE
  5
7B
  8
PAREDES
 10
-18.83072120960835
 20
20.22080916203706
 30
-13.7879375717066
 11
19.96927879039164
 21
20.22080916203706
 31
-13.7879375717066
  0
LINE
  5
7C
  8
PAREDES
 10
19.96927879039164
 20
20.22080916203706
 30
-13.7879375717066
 11
19.96927879039164
 21
20.22080916203706
 31
7.0
  0
LINE
  5
7D
  8
PAREDES
 10
-18.83072120960835
 20
20.22080916203706
 30
7.0
 11
19.96927879039164
 21
20.22080916203706
 31
7.0
  0
LINE
  5
7E
  8
PAREDES
 10
-18.83072120960835
 20
20.22080916203706
 30
-13.7879375717066
 11
-18.83072120960835
 21
20.22080916203706
 31
7.0
  0
LINE
  5
7F
  8
PAREDES
 10
19.96927879039164
 20
20.22080916203706
 30
-13.7879375717066
 11
19.96927879039164
 21
20.82080916203706
 31
-13.7879375717066
  0
LINE
  5
80
  8
PAREDES
 10
19.96927879039164
 20
20.82080916203706
 30
-13.7879375717066
 11
19.96927879039164
 21
20.82080916203706
 31
7.0
  0
LINE
  5
81
  8
PAREDES
 10
19.96927879039164
 20
20.22080916203706
 30
7.0
 11
19.96927879039164
 21
20.82080916203706
 31
7.0
  0
LINE
  5
82
  8
PAREDES
 10
19.96927879039164
 20
20.82080916203706
 30
-13.7879375717066
 11
-18.83072120960835
 21
20.82080916203706
 31
-13.7879375717066
  0
LINE
  5
83
  8
PAREDES
 10
-18.83072120960835
 20
20.82080916203706
 30
-13.7879375717066
 11
-18.83072120960835
 21
20.82080916203706
 31
7.0
  0
LINE
  5
84
  8
PAREDES
 10
19.96927879039164
 20
20.82080916203706
 30
7.0
 11
-18.83072120960835
 21
20.82080916203706
 31
7.0
  0
LINE
  5
85
  8
PAREDES
 10
-18.83072120960835
 20
20.82080916203706
 30
-13.7879375717066
 11
-18.83072120960835
 21
20.22080916203706
 31
-13.7879375717066
  0
LINE
  5
86
  8
PAREDES
 10
-18.83072120960835
 20
20.82080916203706
 30
7.0
 11
-18.83072120960835
 21
20.22080916203706
 31
7.0
  0
LINE
  5
87
  8
PAREDES
 10
-19.43072120960835
 20
-19.17919083796294
 30
-13.7879375717066
 11
-18.83072120960835
 21
-19.17919083796294
 31
-13.7879375717066
  0
LINE
  5
88
  8
PAREDES
 10
-18.83072120960835
 20
-19.17919083796294
 30
-13.7879375717066
 11
-18.83072120960835
 21
-19.17919083796294
 31
7.0
  0
LINE
  5
89
  8
PAREDES
 10
-19.43072120960835
 20
-19.17919083796294
 30
7.0
 11
-18.83072120960835
 21
-19.17919083796294
 31
7.0
  0
LINE
  5
8A
  8
PAREDES
 10
-19.43072120960835
 20
-19.17919083796294
 30
-13.7879375717066
 11
-19.43072120960835
 21
-19.17919083796294
 31
7.0
  0
LINE
  5
8B
  8
PAREDES
 10
-18.83072120960835
 20
-19.17919083796294
 30
-13.7879375717066
 11
-18.83072120960835
 21
20.82080916203706
 31
-13.7879375717066
  0
LINE
  5
8C
  8
PAREDES
 10
-18.83072120960835
 20
20.82080916203706
 30
-13.7879375717066
 11
-18.83072120960835
 21
20.82080916203706
 31
7.0
  0
LINE
  5
8D
  8
PAREDES
 10
-18.83072120960835
 20
-19.17919083796294
 30
7.0
 11
-18.83072120960835
 21
20.82080916203706
 31
7.0
  0
LINE
  5
8E
  8
PAREDES
 10
-18.83072120960835
 20
20.82080916203706
 30
-13.7879375717066
 11
-19.43072120960835
 21
20.82080916203706
 31
-13.7879375717066
  0
LINE
  5
8F
  8
PAREDES
 10
-19.43072120960835
 20
20.82080916203706
 30
-13.7879375717066
 11
-19.43072120960835
 21
20.82080916203706
 31
7.0
  0
LINE
  5
90
  8
PAREDES
 10
-18.83072120960835
 20
20.82080916203706
 30
7.0
 11
-19.43072120960835
 21
20.82080916203706
 31
7.0
  0
LINE
  5
91
  8
PAREDES
 10
-19.43072120960835
 20
20.82080916203706
 30
-13.7879375717066
 11
-19.43072120960835
 21
-19.17919083796294
 31
-13.7879375717066
  0
LINE
  5
92
  8
PAREDES
 10
-19.43072120960835
 20
20.82080916203706
 30
7.0
 11
-19.43072120960835
 21
-19.17919083796294
 31
7.0
  0
LINE
  5
93
  8
PAREDES
 10
19.96927879039164
 20
-19.16944333983105
 30
7.0
 11
20.56927879039165
 21
-19.16944333983105
 31
7.0
  0
LINE
  5
94
  8
PAREDES
 10
20.56927879039165
 20
-19.16944333983105
 30
7.0
 11
20.56927879039165
 21
20.83055666016895
 31
7.0
  0
LINE
  5
95
  8
PAREDES
 10
20.56927879039165
 20
20.83055666016895
 30
7.0
 11
19.96927879039164
 21
20.83055666016895
 31
7.0
  0
LINE
  5
96
  8
PAREDES
 10
19.96927879039164
 20
20.83055666016895
 30
7.0
 11
19.96927879039164
 21
-19.16944333983105
 31
7.0
  0
LINE
  5
97
  8
PAREDES
 10
20.56927879039165
 20
3.840304158300851
 30
-1.636418673245075
 11
20.56927879039165
 21
-2.15969584169915
 31
-1.636418673245075
  0
ARC
  5
98
  8
PAREDES
 10
3.840304158300803
 20
1.363581326754971
 30
20.56927879039166
 40
2.999999999999997
 50
270.0
 51
0.0000000000000466
210
1.0
220
2.368475785867005E-15
230
-2.368475785867003E-15
  0
ARC
  5
99
  8
PAREDES
 10
3.840304158300802
 20
1.363581326754878
 30
20.56927879039167
 40
2.999999999999998
 50
359.9999999999999
 51
90.0
210
1.0
220
2.368475785867000E-15
230
2.368475785867002E-15
  0
LINE
  5
9A
  8
PAREDES
 10
20.56927879039165
 20
-2.15969584169915
 30
4.363581326754925
 11
20.56927879039165
 21
3.840304158300851
 31
4.363581326754925
  0
ARC
  5
9B
  8
PAREDES
 10
-2.159695841699125
 20
1.363581326754873
 30
20.56927879039166
 40
3.000000000000003
 50
90.0
 51
179.9999999999999
210
1.0
220
-1.184237892933493E-15
230
2.368475785866995E-15
  0
ARC
  5
9C
  8
PAREDES
 10
-2.159695841699101
 20
1.363581326754976
 30
20.56927879039166
 40
3.000000000000002
 50
180.0
 51
270.0
210
1.0
220
-2.368475785866997E-15
230
-2.368475785866999E-15
  0
LINE
  5
9D
  8
PAREDES
 10
19.96927879039165
 20
-2.159695841699156
 30
-1.636418673245075
 11
19.96927879039165
 21
3.840304158300852
 31
-1.636418673245075
  0
ARC
  5
9E
  8
PAREDES
 10
3.840304158300824
 20
1.363581326754928
 30
19.96927879039165
 40
3.000000000000004
 50
270.0000000000001
 51
359.9999999999999
210
1.0
220
1.184237892933498E-15
230
2.103629080589369E-30
  0
ARC
  5
9F
  8
PAREDES
 10
3.840304158300825
 20
1.363581326754922
 30
19.96927879039165
 40
3.000000000000003
 50
0.0000000000000679
 51
89.99999999999994
210
1.0
220
1.184237892933498E-15
230
-1.928326657206915E-30
  0
LINE
  5
A0
  8
PAREDES
 10
19.96927879039165
 20
3.840304158300852
 30
4.363581326754925
 11
19.96927879039165
 21
-2.159695841699156
 31
4.363581326754929
  0
ARC
  5
A1
  8
PAREDES
 10
-2.159695841699123
 20
1.363581326754903
 30
19.96927879039166
 40
3.000000000000002
 50
90.00000000000018
 51
180.0
210
1.0
220
-1.184237892933498E-15
230
1.184237892933496E-15
  0
ARC
  5
A2
  8
PAREDES
 10
-2.159695841699125
 20
1.363581326754949
 30
19.96927879039166
 40
3.0
 50
180.0
 51
269.9999999999998
210
1.0
220
-1.184237892933500E-15
230
-1.184237892933497E-15
  0
LINE
  5
A3
  8
PAREDES
 10
20.56927879039165
 20
-2.15969584169915
 30
-1.636418673245075
 11
19.96927879039165
 21
-2.159695841699156
 31
-1.636418673245075
  0
LINE
  5
A4
  8
PAREDES
 10
19.96927879039165
 20
3.840304158300852
 30
-1.636418673245075
 11
20.56927879039165
 21
3.840304158300851
 31
-1.636418673245075
  0
LINE
  5
A5
  8
PAREDES
 10
19.96927879039164
 20
6.840304158300851
 30
1.363581326754925
 11
20.56927879039165
 21
6.840304158300849
 31
1.363581326754925
  0
LINE
  5
A6
  8
PAREDES
 10
19.96927879039165
 20
3.840304158300852
 30
4.363581326754925
 11
20.56927879039165
 21
3.840304158300851
 31
4.363581326754925
  0
LINE
  5
A7
  8
PAREDES
 10
19.96927879039165
 20
-2.159695841699156
 30
4.363581326754929
 11
20.56927879039165
 21
-2.15969584169915
 31
4.363581326754925
  0
LINE
  5
A8
  8
PAREDES
 10
19.96927879039165
 20
-5.159695841699149
 30
1.363581326754925
 11
20.56927879039165
 21
-5.159695841699152
 31
1.363581326754925
  0
LINE
  5
A9
  8
PAREDES
 10
19.96927879039164
 20
-19.16944333983105
 30
-14.3879375717066
 11
20.56927879039165
 21
-19.16944333983105
 31
-14.3879375717066
  0
LINE
  5
AA
  8
PAREDES
 10
20.56927879039165
 20
-19.16944333983105
 30
-14.3879375717066
 11
20.56927879039165
 21
20.83055666016895
 31
-14.3879375717066
  0
LINE
  5
AB
  8
PAREDES
 10
20.56927879039165
 20
20.83055666016895
 30
-14.3879375717066
 11
19.96927879039164
 21
20.83055666016895
 31
-14.3879375717066
  0
LINE
  5
AC
  8
PAREDES
 10
19.96927879039164
 20
20.83055666016895
 30
-14.3879375717066
 11
19.96927879039164
 21
-19.16944333983105
 31
-14.3879375717066
  0
LINE
  5
AD
  8
PAREDES
 10
20.56927879039165
 20
-19.16944333983105
 30
-14.3879375717066
 11
20.56927879039165
 21
-19.16944333983105
 31
7.0
  0
LINE
  5
AE
  8
PAREDES
 10
19.96927879039164
 20
-19.16944333983105
 30
-14.3879375717066
 11
19.96927879039164
 21
-19.16944333983105
 31
7.0
  0
LINE
  5
AF
  8
PAREDES
 10
20.56927879039165
 20
20.83055666016895
 30
-14.3879375717066
 11
20.56927879039165
 21
20.83055666016895
 31
7.0
  0
LINE
  5
B0
  8
PAREDES
 10
19.96927879039164
 20
20.83055666016895
 30
-14.3879375717066
 11
19.96927879039164
 21
20.83055666016895
 31
7.0
  0
LINE
  5
B1
  8
PAREDES
 10
19.96927879039164
 20
-19.16944333983105
 30
-13.0
 11
20.56927879039165
 21
-19.16944333983105
 31
-13.0
  0
LINE
  5
B2
  8
PAREDES
 10
20.26927879039165
 20
-19.16944333983105
 30
-14.3879375717066
 11
20.26927879039165
 21
-19.16944333983105
 31
7.0
  0
LINE
  5
B3
  8
PAREDES
 10
20.56927879039165
 20
-19.16944333983105
 30
-13.0
 11
20.56927879039165
 21
20.83055666016895
 31
-13.0
  0
LINE
  5
B4
  8
PAREDES
 10
20.56927879039165
 20
0.830556660168952
 30
-14.3879375717066
 11
20.56927879039165
 21
0.830556660168952
 31
-1.636418673245077
  0
LINE
  5
B5
  8
PAREDES
 10
20.56927879039164
 20
0.830556660168952
 30
4.363581326754925
 11
20.56927879039165
 21
0.830556660168952
 31
7.0
  0
LINE
  5
B6
  8
PAREDES
 10
20.56927879039165
 20
20.83055666016895
 30
-13.0
 11
19.96927879039164
 21
20.83055666016895
 31
-13.0
  0
LINE
  5
B7
  8
PAREDES
 10
20.26927879039164
 20
20.83055666016895
 30
-14.3879375717066
 11
20.26927879039164
 21
20.83055666016895
 31
7.0
  0
LINE
  5
B8
  8
PAREDES
 10
19.96927879039164
 20
20.83055666016895
 30
-13.0
 11
19.96927879039164
 21
-19.16944333983105
 31
-13.0
  0
LINE
  5
B9
  8
PAREDES
 10
19.96927879039164
 20
0.830556660168952
 30
-14.3879375717066
 11
19.96927879039164
 21
0.830556660168952
 31
-1.636418673245077
  0
LINE
  5
BA
  8
PAREDES
 10
19.96927879039164
 20
0.830556660168952
 30
4.363581326754925
 11
19.96927879039164
 21
0.830556660168952
 31
7.0
  0
LINE
  5
BB
  8
PAREDES
 10
19.96927879039164
 20
0.830556660168952
 30
7.0
 11
20.56927879039165
 21
0.830556660168952
 31
7.0
  0
LINE
  5
BC
  8
PAREDES
 10
20.26927879039165
 20
-19.16944333983105
 30
7.0
 11
20.26927879039165
 21
20.83055666016895
 31
7.0
  0
LINE
  5
BD
  8
PAREDES
 10
20.26927879039165
 20
3.840304158300849
 30
-1.636418673245075
 11
20.26927879039165
 21
-2.159695841699151
 31
-1.636418673245075
  0
LINE
  5
BE
  8
PAREDES
 10
20.56927879039165
 20
0.8403041583008495
 30
-1.636418673245075
 11
19.96927879039165
 21
0.8403041583008495
 31
-1.636418673245075
  0
ARC
  5
BF
  8
PAREDES
 10
3.840304158300849
 20
1.363581326754925
 30
20.26927879039165
 40
3.0
 50
270.0
 51
0.0
210
1.0
220
0.0
230
0.0
  0
LINE
  5
C0
  8
PAREDES
 10
20.56927879039165
 20
5.961624501860491
 30
-0.7577390168047176
 11
19.96927879039165
 21
5.961624501860491
 31
-0.7577390168047176
  0
ARC
  5
C1
  8
PAREDES
 10
3.840304158300849
 20
1.363581326754925
 30
20.26927879039165
 40
3.0
 50
0.0
 51
90.0
210
1.0
220
0.0
230
0.0
  0
LINE
  5
C2
  8
PAREDES
 10
20.56927879039165
 20
5.961624501860492
 30
3.484901670314568
 11
19.96927879039165
 21
5.961624501860492
 31
3.484901670314568
  0
LINE
  5
C3
  8
PAREDES
 10
20.26927879039165
 20
-2.159695841699151
 30
4.363581326754925
 11
20.26927879039165
 21
3.840304158300849
 31
4.363581326754925
  0
LINE
  5
C4
  8
PAREDES
 10
20.56927879039165
 20
0.8403041583008495
 30
4.363581326754925
 11
19.96927879039165
 21
0.8403041583008495
 31
4.363581326754925
  0
ARC
  5
C5
  8
PAREDES
 10
-2.159695841699151
 20
1.363581326754925
 30
20.26927879039165
 40
3.0
 50
90.0
 51
180.0
210
1.0
220
0.0
230
0.0
  0
LINE
  5
C6
  8
PAREDES
 10
20.56927879039165
 20
-4.281016185258792
 30
3.484901670314568
 11
19.96927879039165
 21
-4.281016185258792
 31
3.484901670314568
  0
ARC
  5
C7
  8
PAREDES
 10
-2.159695841699151
 20
1.363581326754925
 30
20.26927879039165
 40
3.0
 50
180.0
 51
270.0
210
1.0
220
0.0
230
0.0
  0
LINE
  5
C8
  8
PAREDES
 10
20.56927879039165
 20
-4.281016185258793
 30
-0.7577390168047171
 11
19.96927879039165
 21
-4.281016185258793
 31
-0.7577390168047171
  0
LINE
  5
C9
  8
PAREDES
 10
19.96927879039164
 20
0.830556660168952
 30
-14.3879375717066
 11
20.56927879039165
 21
0.830556660168952
 31
-14.3879375717066
  0
LINE
  5
CA
  8
PAREDES
 10
20.26927879039165
 20
-19.16944333983105
 30
-14.3879375717066
 11
20.26927879039165
 21
20.83055666016895
 31
-14.3879375717066
  0
LINE
  5
CB
  8
PAREDES
 10
-18.83072120960835
 20
-19.16944333983105
 30
-13.7879375717066
 11
19.96927879039164
 21
-19.16944333983105
 31
-13.7879375717066
  0
LINE
  5
CC
  8
PAREDES
 10
19.96927879039164
 20
-19.16944333983105
 30
-13.7879375717066
 11
19.96927879039164
 21
-19.16944333983105
 31
7.0
  0
LINE
  5
CD
  8
PAREDES
 10
-18.83072120960835
 20
-19.16944333983105
 30
7.0
 11
19.96927879039164
 21
-19.16944333983105
 31
7.0
  0
LINE
  5
CE
  8
PAREDES
 10
-18.83072120960835
 20
-19.16944333983105
 30
-13.7879375717066
 11
-18.83072120960835
 21
-19.16944333983105
 31
7.0
  0
LINE
  5
CF
  8
PAREDES
 10
19.96927879039164
 20
-19.16944333983105
 30
-13.7879375717066
 11
19.96927879039164
 21
-18.56944333983105
 31
-13.7879375717066
  0
LINE
  5
D0
  8
PAREDES
 10
19.96927879039164
 20
-18.56944333983105
 30
-13.7879375717066
 11
19.96927879039164
 21
-18.56944333983105
 31
7.0
  0
LINE
  5
D1
  8
PAREDES
 10
19.96927879039164
 20
-19.16944333983105
 30
7.0
 11
19.96927879039164
 21
-18.56944333983105
 31
7.0
  0
LINE
  5
D2
  8
PAREDES
 10
19.96927879039164
 20
-18.56944333983105
 30
-13.7879375717066
 11
-18.83072120960835
 21
-18.56944333983105
 31
-13.7879375717066
  0
LINE
  5
D3
  8
PAREDES
 10
-18.83072120960835
 20
-18.56944333983105
 30
-13.7879375717066
 11
-18.83072120960835
 21
-18.56944333983105
 31
7.0
  0
LINE
  5
D4
  8
PAREDES
 10
19.96927879039164
 20
-18.56944333983105
 30
7.0
 11
-18.83072120960835
 21
-18.56944333983105
 31
7.0
  0
LINE
  5
D5
  8
PAREDES
 10
-18.83072120960835
 20
-18.56944333983105
 30
-13.7879375717066
 11
-18.83072120960835
 21
-19.16944333983105
 31
-13.7879375717066
  0
LINE
  5
D6
  8
PAREDES
 10
-18.83072120960835
 20
-18.56944333983105
 30
7.0
 11
-18.83072120960835
 21
-19.16944333983105
 31
7.0
  0
CIRCLE
  5
D8
  8
DEFAULT
 10
0.5907884757800377
 20
0.8390523102211336
 30
-5.5
 40
1.5
  0
LINE
  5
D9
  8
DEFAULT
 10
2.090788475780037
 20
0.8390523102211338
 30
-5.5
 11
2.090788475780037
 21
0.8390523102211338
 31
-4.5
  0
CIRCLE
  5
DA
  8
DEFAULT
 10
0.5907884757800377
 20
0.8390523102211336
 30
-4.5
 40
1.5
  0
CIRCLE
  5
DC
  8
DISCO
 10
0.5805811507866606
 20
0.8305566601689572
 30
-5.318284477956654
 40
16.91868865580865
  0
LINE
  5
DD
  8
DISCO
 10
-9.430277551581286
 20
14.46964511480596
 30
-5.318284477956654
 11
-9.430277551581286
 21
14.46964511480596
 31
-4.718284477956654
  0
CIRCLE
  5
DE
  8
DISCO
 10
0.5805811507866606
 20
0.8305566601689572
 30
-4.718284477956654
 40
16.91868865580865
  0
LINE
  5
DF
  8
DEFAULT
 10
-19.41941884921334
 20
-19.16944333983104
 30
-14.3879375717066
 11
20.58058115078666
 21
-19.16944333983104
 31
-14.3879375717066
  0
LINE
  5
E0
  8
DEFAULT
 10
20.58058115078666
 20
-19.16944333983104
 30
-14.3879375717066
 11
20.58058115078666
 21
-19.16944333983104
 31
-13.7879375717066
  0
LINE
  5
E1
  8
DEFAULT
 10
-19.41941884921334
 20
-19.16944333983104
 30
-13.7879375717066
 11
20.58058115078666
 21
-19.16944333983104
 31
-13.7879375717066
  0
LINE
  5
E2
  8
DEFAULT
 10
-19.41941884921334
 20
-19.16944333983104
 30
-14.3879375717066
 11
-19.41941884921334
 21
-19.16944333983104
 31
-13.7879375717066
  0
LINE
  5
E3
  8
DEFAULT
 10
20.58058115078666
 20
-19.16944333983104
 30
-14.3879375717066
 11
20.58058115078666
 21
20.83055666016896
 31
-14.3879375717066
  0
LINE
  5
E4
  8
DEFAULT
 10
20.58058115078666
 20
20.83055666016896
 30
-14.3879375717066
 11
20.58058115078666
 21
20.83055666016896
 31
-13.7879375717066
  0
LINE
  5
E5
  8
DEFAULT
 10
20.58058115078666
 20
-19.16944333983104
 30
-13.7879375717066
 11
20.58058115078666
 21
20.83055666016896
 31
-13.7879375717066
  0
LINE
  5
E6
  8
DEFAULT
 10
20.58058115078666
 20
20.83055666016896
 30
-14.3879375717066
 11
-19.41941884921334
 21
20.83055666016896
 31
-14.3879375717066
  0
LINE
  5
E7
  8
DEFAULT
 10
-19.41941884921334
 20
20.83055666016896
 30
-14.3879375717066
 11
-19.41941884921334
 21
20.83055666016896
 31
-13.7879375717066
  0
LINE
  5
E8
  8
DEFAULT
 10
20.58058115078666
 20
20.83055666016896
 30
-13.7879375717066
 11
-19.41941884921334
 21
20.83055666016896
 31
-13.7879375717066
  0
LINE
  5
E9
  8
DEFAULT
 10
-19.41941884921334
 20
20.83055666016896
 30
-14.3879375717066
 11
-19.41941884921334
 21
-19.16944333983104
 31
-14.3879375717066
  0
LINE
  5
EA
  8
DEFAULT
 10
-19.41941884921334
 20
20.83055666016896
 30
-13.7879375717066
 11
-19.41941884921334
 21
-19.16944333983104
 31
-13.7879375717066
  0
CIRCLE
  5
EB
  8
DEFAULT
 10
0.5907884757800376
 20
0.839052310221134
 30
-8.695609619854919
 40
0.2499999999999999
  0
LINE
  5
EC
  8
DEFAULT
 10
0.8407884757800375
 20
0.839052310221134
 30
-8.695609619854919
 11
0.8407884757800375
 21
0.839052310221134
 31
-4.033596078739338
  0
CIRCLE
  5
ED
  8
DEFAULT
 10
0.5907884757800376
 20
0.839052310221134
 30
-4.033596078739338
 40
0.2499999999999999
  0
CIRCLE
  5
EE
  8
DEFAULT
 10
0.5907884757800372
 20
0.8390523102203866
 30
-7.162931143194334
 40
1.5
  0
LINE
  5
EF
  8
DEFAULT
 10
2.090788475780037
 20
0.8390523102203866
 30
-7.162931143194334
 11
2.090788475780037
 21
0.8390523102203866
 31
-6.162931143194334
  0
CIRCLE
  5
F0
  8
DEFAULT
 10
0.5907884757800372
 20
0.8390523102203866
 30
-6.162931143194334
 40
1.5
  0
LINE
  5
F1
  8
DEFAULT
 10
-5.712116271673445
 20
7.123254082629059
 30
-13.7879375717066
 11
-5.712116271673445
 21
7.123254082629059
 31
-6.7617950865993
  0
LINE
  5
F2
  8
DEFAULT
 10
-5.712116271673445
 20
7.123254082629059
 30
-6.7617950865993
 11
-5.112116271673444
 21
7.123254082629059
 31
-6.7617950865993
  0
LINE
  5
F3
  8
DEFAULT
 10
-5.112116271673444
 20
7.123254082629059
 30
-13.7879375717066
 11
-5.112116271673444
 21
7.123254082629059
 31
-6.7617950865993
  0
LINE
  5
F4
  8
DEFAULT
 10
-5.712116271673445
 20
7.123254082629059
 30
-13.7879375717066
 11
-5.112116271673444
 21
7.123254082629059
 31
-13.7879375717066
  0
LINE
  5
F5
  8
DEFAULT
 10
-5.712116271673445
 20
7.123254082629059
 30
-6.7617950865993
 11
-5.712116271673445
 21
-5.462140762291148
 31
-6.7617950865993
  0
LINE
  5
F6
  8
DEFAULT
 10
-5.712116271673445
 20
-5.462140762291148
 30
-6.7617950865993
 11
-5.112116271673444
 21
-5.462140762291148
 31
-6.7617950865993
  0
LINE
  5
F7
  8
DEFAULT
 10
-5.112116271673444
 20
7.123254082629059
 30
-6.7617950865993
 11
-5.112116271673444
 21
-5.462140762291148
 31
-6.7617950865993
  0
LINE
  5
F8
  8
DEFAULT
 10
-5.712116271673445
 20
-5.462140762291148
 30
-6.7617950865993
 11
-5.712116271673445
 21
-5.462140762291148
 31
-13.7879375717066
  0
LINE
  5
F9
  8
DEFAULT
 10
-5.712116271673445
 20
-5.462140762291148
 30
-13.7879375717066
 11
-5.112116271673444
 21
-5.462140762291148
 31
-13.7879375717066
  0
LINE
  5
FA
  8
DEFAULT
 10
-5.112116271673444
 20
-5.462140762291148
 30
-6.7617950865993
 11
-5.112116271673444
 21
-5.462140762291148
 31
-13.7879375717066
  0
LINE
  5
FB
  8
DEFAULT
 10
-5.712116271673445
 20
-5.462140762291148
 30
-13.7879375717066
 11
-5.712116271673445
 21
7.123254082629059
 31
-13.7879375717066
  0
LINE
  5
FC
  8
DEFAULT
 10
-5.112116271673444
 20
-5.462140762291148
 30
-13.7879375717066
 11
-5.112116271673444
 21
7.123254082629059
 31
-13.7879375717066
  0
LINE
  5
FD
  8
DEFAULT
 10
-5.712116271673445
 20
6.523254082629058
 30
-13.7879375717066
 11
-5.712116271673445
 21
6.523254082629058
 31
-6.7617950865993
  0
LINE
  5
FE
  8
DEFAULT
 10
-5.712116271673445
 20
6.523254082629058
 30
-6.7617950865993
 11
-5.712116271673445
 21
7.123254082629059
 31
-6.7617950865993
  0
LINE
  5
FF
  8
DEFAULT
 10
-5.712116271673445
 20
7.123254082629059
 30
-13.7879375717066
 11
-5.712116271673445
 21
7.123254082629059
 31
-6.7617950865993
  0
LINE
  5
100
  8
DEFAULT
 10
-5.712116271673445
 20
6.523254082629058
 30
-13.7879375717066
 11
-5.712116271673445
 21
7.123254082629059
 31
-13.7879375717066
  0
LINE
  5
101
  8
DEFAULT
 10
-5.712116271673445
 20
6.523254082629058
 30
-6.7617950865993
 11
23.87981940563541
 21
6.523254082629058
 31
-6.7617950865993
  0
LINE
  5
102
  8
DEFAULT
 10
23.87981940563541
 20
6.523254082629058
 30
-6.7617950865993
 11
23.87981940563541
 21
7.123254082629059
 31
-6.7617950865993
  0
LINE
  5
103
  8
DEFAULT
 10
-5.712116271673445
 20
7.123254082629059
 30
-6.7617950865993
 11
23.87981940563541
 21
7.123254082629059
 31
-6.7617950865993
  0
LINE
  5
104
  8
DEFAULT
 10
23.87981940563541
 20
6.523254082629058
 30
-6.7617950865993
 11
23.87981940563541
 21
6.523254082629058
 31
-13.7879375717066
  0
LINE
  5
105
  8
DEFAULT
 10
23.87981940563541
 20
6.523254082629058
 30
-13.7879375717066
 11
23.87981940563541
 21
7.123254082629059
 31
-13.7879375717066
  0
LINE
  5
106
  8
DEFAULT
 10
23.87981940563541
 20
7.123254082629059
 30
-6.7617950865993
 11
23.87981940563541
 21
7.123254082629059
 31
-13.7879375717066
  0
LINE
  5
107
  8
DEFAULT
 10
23.87981940563541
 20
6.523254082629058
 30
-13.7879375717066
 11
-5.712116271673445
 21
6.523254082629058
 31
-13.7879375717066
  0
LINE
  5
108
  8
DEFAULT
 10
23.87981940563541
 20
7.123254082629059
 30
-13.7879375717066
 11
-5.712116271673445
 21
7.123254082629059
 31
-13.7879375717066
  0
LINE
  5
109
  8
DEFAULT
 10
23.2798194056354
 20
7.123254082629059
 30
-13.7879375717066
 11
23.2798194056354
 21
7.123254082629059
 31
-6.7617950865993
  0
LINE
  5
10A
  8
DEFAULT
 10
23.2798194056354
 20
7.123254082629059
 30
-6.7617950865993
 11
23.87981940563541
 21
7.123254082629059
 31
-6.7617950865993
  0
LINE
  5
10B
  8
DEFAULT
 10
23.87981940563541
 20
7.123254082629059
 30
-13.7879375717066
 11
23.87981940563541
 21
7.123254082629059
 31
-6.7617950865993
  0
LINE
  5
10C
  8
DEFAULT
 10
23.2798194056354
 20
7.123254082629059
 30
-13.7879375717066
 11
23.87981940563541
 21
7.123254082629059
 31
-13.7879375717066
  0
LINE
  5
10D
  8
DEFAULT
 10
23.2798194056354
 20
7.123254082629059
 30
-6.7617950865993
 11
23.2798194056354
 21
-5.462140762291148
 31
-6.7617950865993
  0
LINE
  5
10E
  8
DEFAULT
 10
23.2798194056354
 20
-5.462140762291148
 30
-6.7617950865993
 11
23.87981940563541
 21
-5.462140762291148
 31
-6.7617950865993
  0
LINE
  5
10F
  8
DEFAULT
 10
23.87981940563541
 20
7.123254082629059
 30
-6.7617950865993
 11
23.87981940563541
 21
-5.462140762291148
 31
-6.7617950865993
  0
LINE
  5
110
  8
DEFAULT
 10
23.2798194056354
 20
-5.462140762291148
 30
-6.7617950865993
 11
23.2798194056354
 21
-5.462140762291148
 31
-13.7879375717066
  0
LINE
  5
111
  8
DEFAULT
 10
23.2798194056354
 20
-5.462140762291148
 30
-13.7879375717066
 11
23.87981940563541
 21
-5.462140762291148
 31
-13.7879375717066
  0
LINE
  5
112
  8
DEFAULT
 10
23.87981940563541
 20
-5.462140762291148
 30
-6.7617950865993
 11
23.87981940563541
 21
-5.462140762291148
 31
-13.7879375717066
  0
LINE
  5
113
  8
DEFAULT
 10
23.2798194056354
 20
-5.462140762291148
 30
-13.7879375717066
 11
23.2798194056354
 21
7.123254082629059
 31
-13.7879375717066
  0
LINE
  5
114
  8
DEFAULT
 10
23.87981940563541
 20
-5.462140762291148
 30
-13.7879375717066
 11
23.87981940563541
 21
7.123254082629059
 31
-13.7879375717066
  0
LINE
  5
115
  8
DEFAULT
 10
-5.712116271673445
 20
-5.462140762291148
 30
-13.7879375717066
 11
-5.712116271673445
 21
-5.462140762291148
 31
-6.7617950865993
  0
LINE
  5
116
  8
DEFAULT
 10
-5.712116271673445
 20
-5.462140762291148
 30
-6.7617950865993
 11
-5.712116271673445
 21
-4.862140762291147
 31
-6.7617950865993
  0
LINE
  5
117
  8
DEFAULT
 10
-5.712116271673445
 20
-4.862140762291147
 30
-13.7879375717066
 11
-5.712116271673445
 21
-4.862140762291147
 31
-6.7617950865993
  0
LINE
  5
118
  8
DEFAULT
 10
-5.712116271673445
 20
-5.462140762291148
 30
-13.7879375717066
 11
-5.712116271673445
 21
-4.862140762291147
 31
-13.7879375717066
  0
LINE
  5
119
  8
DEFAULT
 10
-5.712116271673445
 20
-5.462140762291148
 30
-6.7617950865993
 11
23.87981940563541
 21
-5.462140762291148
 31
-6.7617950865993
  0
LINE
  5
11A
  8
DEFAULT
 10
23.87981940563541
 20
-5.462140762291148
 30
-6.7617950865993
 11
23.87981940563541
 21
-4.862140762291147
 31
-6.7617950865993
  0
LINE
  5
11B
  8
DEFAULT
 10
-5.712116271673445
 20
-4.862140762291147
 30
-6.7617950865993
 11
23.87981940563541
 21
-4.862140762291147
 31
-6.7617950865993
  0
LINE
  5
11C
  8
DEFAULT
 10
23.87981940563541
 20
-5.462140762291148
 30
-6.7617950865993
 11
23.87981940563541
 21
-5.462140762291148
 31
-13.7879375717066
  0
LINE
  5
11D
  8
DEFAULT
 10
23.87981940563541
 20
-5.462140762291148
 30
-13.7879375717066
 11
23.87981940563541
 21
-4.862140762291147
 31
-13.7879375717066
  0
LINE
  5
11E
  8
DEFAULT
 10
23.87981940563541
 20
-4.862140762291147
 30
-6.7617950865993
 11
23.87981940563541
 21
-4.862140762291147
 31
-13.7879375717066
  0
LINE
  5
11F
  8
DEFAULT
 10
23.87981940563541
 20
-5.462140762291148
 30
-13.7879375717066
 11
-5.712116271673445
 21
-5.462140762291148
 31
-13.7879375717066
  0
LINE
  5
120
  8
DEFAULT
 10
23.87981940563541
 20
-4.862140762291147
 30
-13.7879375717066
 11
-5.712116271673445
 21
-4.862140762291147
 31
-13.7879375717066
  0
LINE
  5
121
  8
DEFAULT
 10
-5.712116271673445
 20
-5.462140762291148
 30
-6.7617950865993
 11
23.87981940563541
 21
-5.462140762291148
 31
-6.7617950865993
  0
LINE
  5
122
  8
DEFAULT
 10
23.87981940563541
 20
-5.462140762291148
 30
-6.7617950865993
 11
23.87981940563541
 21
-5.462140762291148
 31
-6.161795086599301
  0
LINE
  5
123
  8
DEFAULT
 10
-5.712116271673445
 20
-5.462140762291148
 30
-6.161795086599301
 11
23.87981940563541
 21
-5.462140762291148
 31
-6.161795086599301
  0
LINE
  5
124
  8
DEFAULT
 10
-5.712116271673445
 20
-5.462140762291148
 30
-6.7617950865993
 11
-5.712116271673445
 21
-5.462140762291148
 31
-6.161795086599301
  0
LINE
  5
125
  8
DEFAULT
 10
23.87981940563541
 20
-5.462140762291148
 30
-6.7617950865993
 11
23.87981940563541
 21
7.123254082629059
 31
-6.7617950865993
  0
LINE
  5
126
  8
DEFAULT
 10
23.87981940563541
 20
7.123254082629059
 30
-6.7617950865993
 11
23.87981940563541
 21
7.123254082629059
 31
-6.161795086599301
  0
LINE
  5
127
  8
DEFAULT
 10
23.87981940563541
 20
-5.462140762291148
 30
-6.161795086599301
 11
23.87981940563541
 21
7.123254082629059
 31
-6.161795086599301
  0
LINE
  5
128
  8
DEFAULT
 10
23.87981940563541
 20
7.123254082629059
 30
-6.7617950865993
 11
-5.712116271673445
 21
7.123254082629059
 31
-6.7617950865993
  0
LINE
  5
129
  8
DEFAULT
 10
-5.712116271673445
 20
7.123254082629059
 30
-6.7617950865993
 11
-5.712116271673445
 21
7.123254082629059
 31
-6.161795086599301
  0
LINE
  5
12A
  8
DEFAULT
 10
23.87981940563541
 20
7.123254082629059
 30
-6.161795086599301
 11
-5.712116271673445
 21
7.123254082629059
 31
-6.161795086599301
  0
LINE
  5
12B
  8
DEFAULT
 10
-5.712116271673445
 20
7.123254082629059
 30
-6.7617950865993
 11
-5.712116271673445
 21
-5.462140762291148
 31
-6.7617950865993
  0
LINE
  5
12C
  8
DEFAULT
 10
-5.712116271673445
 20
7.123254082629059
 30
-6.161795086599301
 11
-5.712116271673445
 21
-5.462140762291148
 31
-6.161795086599301
  0
LINE
  5
12D
  8
DEFAULT
 10
-19.41941884921334
 20
-19.16944333983104
 30
-14.3879375717066
 11
20.58058115078666
 21
-19.16944333983104
 31
-14.3879375717066
  0
LINE
  5
12E
  8
DEFAULT
 10
20.58058115078666
 20
-19.16944333983104
 30
-14.3879375717066
 11
20.58058115078666
 21
20.83055666016896
 31
-14.3879375717066
  0
LINE
  5
12F
  8
DEFAULT
 10
20.58058115078666
 20
20.83055666016896
 30
-14.3879375717066
 11
-19.41941884921334
 21
20.83055666016896
 31
-14.3879375717066
  0
LINE
  5
130
  8
DEFAULT
 10
-19.41941884921334
 20
20.83055666016896
 30
-14.3879375717066
 11
-19.41941884921334
 21
-19.16944333983104
 31
-14.3879375717066
  0
POINT
  5
131
  8
DEFAULT
 10
20.56927879039165
 20
0.8208091620370581
 30
-14.3879375717066
  0
POINT
  5
132
  8
DEFAULT
 10
-19.43072120960835
 20
0.8208091620370581
 30
-14.3879375717066
  0
POINT
  5
133
  8
DEFAULT
 10
0.5692787903916461
 20
-19.17919083796294
 30
-14.3879375717066
  0
POINT
  5
134
  8
DEFAULT
 10
0.5692787903916461
 20
20.82080916203706
 30
-14.3879375717066
  0
ENDSEC
  0
EOF
