999
dxfrw 0.6.3
  0
SECTION
  2
HEADER
  9
$ACADVER
  1
AC1021
  9
$DWGCODEPAGE
  3
ANSI_1252
  9
$INSBASE
 10
0
 20
0
 30
0
  9
$EXTMIN
 10
-60
 20
-240
 30
0
  9
$EXTMAX
 10
230
 20
50
 30
0
  9
$LIMMIN
 10
0
 20
0
  9
$LIMMAX
 10
420
 20
297
  9
$ORTHOMODE
 70
    0
  9
$REGENMODE
 70
    1
  9
$FILLMODE
 70
    1
  9
$QTEXTMODE
 70
    0
  9
$MIRRTEXT
 70
    0
  9
$LTSCALE
 40
1
  9
$ATTMODE
 70
    0
  9
$TEXTSIZE
 40
2.5
  9
$TRACEWID
 40
15.68
  9
$TEXTSTYLE
  7
STANDARD
  9
$CLAYER
  8
s90
  9
$CELTYPE
  6
BYLAYER
  9
$CECOLOR
 62
  256
  9
$CELTSCALE
 40
1
  9
$DISPSILH
 70
    0
  9
$DIMSCALE
 40
1
  9
$DIMASZ
 40
2.5
  9
$DIMEXO
 40
0.625
  9
$DIMDLI
 40
3.75
  9
$DIMRND
 40
0
  9
$DIMDLE
 40
0
  9
$DIMEXE
 40
1.25
  9
$DIMTP
 40
0
  9
$DIMTM
 40
0
  9
$DIMTXT
 40
2.5
  9
$DIMCEN
 40
2.5
  9
$DIMTSZ
 40
0
  9
$DIMTOL
 70
    0
  9
$DIMLIM
 70
    0
  9
$DIMTIH
 70
    0
  9
$DIMTOH
 70
    0
  9
$DIMSE1
 70
    0
  9
$DIMSE2
 70
    0
  9
$DIMTAD
 70
    1
  9
$DIMZIN
 70
    8
  9
$DIMBLK
  1

  9
$DIMASO
 70
    1
  9
$DIMSHO
 70
    1
  9
$DIMPOST
  1

  9
$DIMAPOST
  1

  9
$DIMALT
 70
    0
  9
$DIMALTD
 70
    3
  9
$DIMALTF
 40
0.03937
  9
$DIMLFAC
 40
1
  9
$DIMTOFL
 70
    1
  9
$DIMTVP
 40
0
  9
$DIMTIX
 70
    0
  9
$DIMSOXD
 70
    0
  9
$DIMSAH
 70
    0
  9
$DIMBLK1
  1

  9
$DIMBLK2
  1

  9
$DIMSTYLE
  2
STANDARD
  9
$DIMCLRD
 70
    0
  9
$DIMCLRE
 70
    0
  9
$DIMCLRT
 70
    0
  9
$DIMTFAC
 40
1
  9
$DIMGAP
 40
0.625
  9
$DIMJUST
 70
    0
  9
$DIMSD1
 70
    0
  9
$DIMSD2
 70
    0
  9
$DIMTOLJ
 70
    0
  9
$DIMTZIN
 70
    8
  9
$DIMALTZ
 70
    0
  9
$DIMALTTZ
 70
    0
  9
$DIMUPT
 70
    0
  9
$DIMDEC
 70
    2
  9
$DIMTDEC
 70
    2
  9
$DIMALTU
 70
    2
  9
$DIMALTTD
 70
    3
  9
$DIMTXSTY
  7
STANDARD
  9
$DIMAUNIT
 70
    0
  9
$DIMADEC
 70
    0
  9
$DIMALTRND
 40
0
  9
$DIMAZIN
 70
    0
  9
$DIMDSEP
 70
   44
  9
$DIMATFIT
 70
    3
  9
$DIMFRAC
 70
    0
  9
$DIMLDRBLK
  1
STANDARD
  9
$DIMLUNIT
 70
    2
  9
$DIMLWD
 70
   -2
  9
$DIMLWE
 70
   -2
  9
$DIMTMOVE
 70
    0
  9
$DIMFXL
 40
1
  9
$DIMFXLON
 70
    0
  9
$DIMJOGANG
 40
0.7854
  9
$DIMTFILL
 70
    0
  9
$DIMTFILLCLR
 70
    0
  9
$DIMARCSYM
 70
    0
  9
$DIMLTYPE
  6

  9
$DIMLTEX1
  6

  9
$DIMLTEX2
  6

  9
$LUNITS
 70
    2
  9
$LUPREC
 70
    4
  9
$SKETCHINC
 40
1
  9
$FILLETRAD
 40
0
  9
$AUNITS
 70
    0
  9
$AUPREC
 70
    2
  9
$MENU
  1
.
  9
$ELEVATION
 40
0
  9
$PELEVATION
 40
0
  9
$THICKNESS
 40
0
  9
$LIMCHECK
 70
    0
  9
$CHAMFERA
 40
0
  9
$CHAMFERB
 40
0
  9
$CHAMFERC
 40
0
  9
$CHAMFERD
 40
0
  9
$SKPOLY
 70
    0
  9
$USRTIMER
 70
    1
  9
$ANGBASE
 50
0
  9
$ANGDIR
 70
    0
  9
$PDMODE
 70
   34
  9
$PDSIZE
 40
0
  9
$PLINEWID
 40
0
  9
$SPLFRAME
 70
    0
  9
$SPLINETYPE
 70
    2
  9
$SPLINESEGS
 70
    8
  9
$HANDSEED
  5
20000
  9
$SURFTAB1
 70
    6
  9
$SURFTAB2
 70
    6
  9
$SURFTYPE
 70
    6
  9
$SURFU
 70
    6
  9
$SURFV
 70
    6
  9
$UCSBASE
  2

  9
$UCSNAME
  2

  9
$UCSORG
 10
0
 20
0
 30
0
  9
$UCSXDIR
 10
1
 20
0
 30
0
  9
$UCSYDIR
 10
0
 20
1
 30
0
  9
$UCSORTHOREF
  2

  9
$UCSORTHOVIEW
 70
    0
  9
$UCSORGTOP
 10
0
 20
0
 30
0
  9
$UCSORGBOTTOM
 10
0
 20
0
 30
0
  9
$UCSORGLEFT
 10
0
 20
0
 30
0
  9
$UCSORGRIGHT
 10
0
 20
0
 30
0
  9
$UCSORGFRONT
 10
0
 20
0
 30
0
  9
$UCSORGBACK
 10
0
 20
0
 30
0
  9
$PUCSBASE
  2

  9
$PUCSNAME
  2

  9
$PUCSORG
 10
0
 20
0
 30
0
  9
$PUCSXDIR
 10
1
 20
0
 30
0
  9
$PUCSYDIR
 10
0
 20
1
 30
0
  9
$PUCSORTHOREF
  2

  9
$PUCSORTHOVIEW
 70
    0
  9
$PUCSORGTOP
 10
0
 20
0
 30
0
  9
$PUCSORGBOTTOM
 10
0
 20
0
 30
0
  9
$PUCSORGLEFT
 10
0
 20
0
 30
0
  9
$PUCSORGRIGHT
 10
0
 20
0
 30
0
  9
$PUCSORGFRONT
 10
0
 20
0
 30
0
  9
$PUCSORGBACK
 10
0
 20
0
 30
0
  9
$USERI1
 70
    0
  9
$USERI2
 70
    0
  9
$USERI3
 70
    0
  9
$USERI4
 70
    0
  9
$USERI5
 70
    0
  9
$USERR1
 40
0
  9
$USERR2
 40
0
  9
$USERR3
 40
0
  9
$USERR4
 40
0
  9
$USERR5
 40
0
  9
$WORLDVIEW
 70
    1
  9
$SHADEDGE
 70
    3
  9
$SHADEDIF
 70
   70
  9
$TILEMODE
 70
    1
  9
$MAXACTVP
 70
   64
  9
$PINSBASE
 10
0
 20
0
 30
0
  9
$PLIMCHECK
 70
    0
  9
$PEXTMIN
 10
0
 20
0
 30
0
  9
$PEXTMAX
 10
0
 20
0
 30
0
  9
$GRIDMODE
 70
    1
  9
$SNAPSTYLE
 70
    0
  9
$PLIMMIN
 10
0
 20
0
  9
$PLIMMAX
 10
297
 20
210
  9
$UNITMODE
 70
    0
  9
$VISRETAIN
 70
    1
  9
$PLINEGEN
 70
    0
  9
$PSLTSCALE
 70
    1
  9
$TREEDEPTH
 70
 3020
  9
$CMLSTYLE
  2
Standard
  9
$CMLJUST
 70
    0
  9
$CMLSCALE
 40
20
  9
$PROXYGRAPHICS
 70
    1
  9
$MEASUREMENT
 70
    1
  9
$CELWEIGHT
370
   -1
  9
$ENDCAPS
280
    0
  9
$JOINSTYLE
280
    0
  9
$LWDISPLAY
290
    0
  9
$INSUNITS
 70
    4
  9
$HYPERLINKBASE
  1

  9
$STYLESHEET
  1

  9
$XEDIT
290
    1
  9
$CEPSNTYPE
380
    0
  9
$PSTYLEMODE
290
    1
  9
$EXTNAMES
290
    1
  9
$PSVPSCALE
 40
0
  9
$OLESTARTUP
290
    0
  9
$SORTENTS
280
  127
  9
$INDEXCTL
280
    0
  9
$HIDETEXT
280
    1
  9
$XCLIPFRAME
290
    0
  9
$HALOGAP
280
    0
  9
$OBSCOLOR
 70
  257
  9
$OBSLTYPE
280
    0
  9
$INTERSECTIONDISPLAY
280
    0
  9
$INTERSECTIONCOLOR
 70
  257
  9
$DIMASSOC
280
    1
  9
$PROJECTNAME
  1

  9
$CAMERADISPLAY
290
    0
  9
$LENSLENGTH
 40
50
  9
$CAMERAHEIGHT
 40
0
  9
$STEPSPERSEC
 40
2
  9
$STEPSIZE
 40
50
  9
$3DDWFPREC
 40
2
  9
$PSOLWIDTH
 40
5
  9
$PSOLHEIGHT
 40
80
  9
$LOFTANG1
 40
1.570796326794897
  9
$LOFTANG2
 40
1.570796326794897
  9
$LOFTMAG1
 40
0
  9
$LOFTMAG2
 40
0
  9
$LOFTPARAM
 70
    7
  9
$LOFTNORMALS
280
    1
  9
$LATITUDE
 40
1
  9
$LONGITUDE
 40
1
  9
$NORTHDIRECTION
 40
0
  9
$TIMEZONE
 70
-8000
  9
$LIGHTGLYPHDISPLAY
280
    1
  9
$TILEMODELIGHTSYNCH
280
    1
  9
$SOLIDHIST
280
    1
  9
$SHOWHIST
280
    1
  9
$DWFFRAME
280
    2
  9
$DGNFRAME
280
    0
  9
$REALWORLDSCALE
290
    1
  9
$INTERFERECOLOR
 62
    1
  9
$CSHADOW
280
    0
  9
$SHADOWPLANELOCATION
 40
0
  0
ENDSEC
  0
SECTION
  2
CLASSES
  0
ENDSEC
  0
SECTION
  2
TABLES
  0
TABLE
  2
VPORT
  5
8
330
0
100
AcDbSymbolTable
 70
    1
  0
VPORT
  5
31
330
2
100
AcDbSymbolTableRecord
100
AcDbViewportTableRecord
  2
*ACTIVE
 70
    0
 10
0
 20
0
 11
1
 21
1
 12
309.2696515910063
 22
93.09647675443557
 13
0
 23
0
 14
10
 24
10
 15
10
 25
10
 16
0
 26
0
 36
1
 17
0
 27
0
 37
0
 40
514.3974817278983
 41
1.935582822085889
 42
50
 43
0
 44
0
 50
0
 51
0
 71
    0
 72
  100
 73
    1
 74
    3
 75
    0
 76
    1
 77
    0
 78
    0
281
    0
 65
    1
110
0
120
0
130
0
111
1
121
0
131
0
112
0
122
1
132
0
 79
    0
146
0
348
10020
 60
    7
 61
    5
292
1
282
    1
141
0
142
0
 63
  250
421
3358443
  0
ENDTAB
  0
TABLE
  2
LTYPE
  5
5
330
0
100
AcDbSymbolTable
 70
    4
  0
LTYPE
  5
14
330
5
100
AcDbSymbolTableRecord
100
AcDbLinetypeTableRecord
  2
ByBlock
 70
    0
  3

 72
   65
 73
    0
 40
0
  0
LTYPE
  5
15
330
5
100
AcDbSymbolTableRecord
100
AcDbLinetypeTableRecord
  2
ByLayer
 70
    0
  3

 72
   65
 73
    0
 40
0
  0
LTYPE
  5
16
330
5
100
AcDbSymbolTableRecord
100
AcDbLinetypeTableRecord
  2
Continuous
 70
    0
  3
Solid line
 72
   65
 73
    0
 40
0
  0
LTYPE
  5
32
330
5
100
AcDbSymbolTableRecord
100
AcDbLinetypeTableRecord
  2
DOT
 70
    0
  3
Dot . . . . . . . . . . . . . . . . . . . . . .
 72
   65
 73
    2
 40
6.35
 49
0
 74
    0
 49
-6.35
 74
    0
  0
LTYPE
  5
33
330
5
100
AcDbSymbolTableRecord
100
AcDbLinetypeTableRecord
  2
DOTTINY
 70
    0
  3
Dot (.15x) .....................................
 72
   65
 73
    2
 40
0.9525
 49
0
 74
    0
 49
-0.9525
 74
    0
  0
LTYPE
  5
34
330
5
100
AcDbSymbolTableRecord
100
AcDbLinetypeTableRecord
  2
DOT2
 70
    0
  3
Dot (.5x) .....................................
 72
   65
 73
    2
 40
3.175
 49
0
 74
    0
 49
-3.175
 74
    0
  0
LTYPE
  5
35
330
5
100
AcDbSymbolTableRecord
100
AcDbLinetypeTableRecord
  2
DOTX2
 70
    0
  3
Dot (2x) .  .  .  .  .  .  .  .  .  .  .  .  .
 72
   65
 73
    2
 40
12.7
 49
0
 74
    0
 49
-12.7
 74
    0
  0
LTYPE
  5
36
330
5
100
AcDbSymbolTableRecord
100
AcDbLinetypeTableRecord
  2
DASHED
 70
    0
  3
Dashed _ _ _ _ _ _ _ _ _ _ _ _ _ _ _ _ _
 72
   65
 73
    2
 40
19.05
 49
12.7
 74
    0
 49
-6.35
 74
    0
  0
LTYPE
  5
37
330
5
100
AcDbSymbolTableRecord
100
AcDbLinetypeTableRecord
  2
DASHEDTINY
 70
    0
  3
Dashed (.15x) _ _ _ _ _ _ _ _ _ _ _ _ _ _ _ _ _
 72
   65
 73
    2
 40
2.8575
 49
1.905
 74
    0
 49
-0.9525
 74
    0
  0
LTYPE
  5
38
330
5
100
AcDbSymbolTableRecord
100
AcDbLinetypeTableRecord
  2
DASHED2
 70
    0
  3
Dashed (.5x) _ _ _ _ _ _ _ _ _ _ _ _ _ _ _ _ _
 72
   65
 73
    2
 40
9.524999999999999
 49
6.35
 74
    0
 49
-3.175
 74
    0
  0
LTYPE
  5
39
330
5
100
AcDbSymbolTableRecord
100
AcDbLinetypeTableRecord
  2
DASHEDX2
 70
    0
  3
Dashed (2x) ____  ____  ____  ____  ____  ___
 72
   65
 73
    2
 40
38.09999999999999
 49
25.4
 74
    0
 49
-12.7
 74
    0
  0
LTYPE
  5
3A
330
5
100
AcDbSymbolTableRecord
100
AcDbLinetypeTableRecord
  2
DASHDOT
 70
    0
  3
Dash dot __ . __ . __ . __ . __ . __ . __ . __
 72
   65
 73
    4
 40
25.4
 49
12.7
 74
    0
 49
-6.35
 74
    0
 49
0
 74
    0
 49
-6.35
 74
    0
  0
LTYPE
  5
3B
330
5
100
AcDbSymbolTableRecord
100
AcDbLinetypeTableRecord
  2
DASHDOTTINY
 70
    0
  3
Dash dot (.15x) _._._._._._._._._._._._._._._.
 72
   65
 73
    4
 40
3.81
 49
1.905
 74
    0
 49
-0.9525
 74
    0
 49
0
 74
    0
 49
-0.9525
 74
    0
  0
LTYPE
  5
3C
330
5
100
AcDbSymbolTableRecord
100
AcDbLinetypeTableRecord
  2
DASHDOT2
 70
    0
  3
Dash dot (.5x) _._._._._._._._._._._._._._._.
 72
   65
 73
    4
 40
12.7
 49
6.35
 74
    0
 49
-3.175
 74
    0
 49
0
 74
    0
 49
-3.175
 74
    0
  0
LTYPE
  5
3D
330
5
100
AcDbSymbolTableRecord
100
AcDbLinetypeTableRecord
  2
DASHDOTX2
 70
    0
  3
Dash dot (2x) ____  .  ____  .  ____  .  ___
 72
   65
 73
    4
 40
50.8
 49
25.4
 74
    0
 49
-12.7
 74
    0
 49
0
 74
    0
 49
-12.7
 74
    0
  0
LTYPE
  5
3E
330
5
100
AcDbSymbolTableRecord
100
AcDbLinetypeTableRecord
  2
DIVIDE
 70
    0
  3
Divide ____ . . ____ . . ____ . . ____ . . ____
 72
   65
 73
    6
 40
31.75
 49
12.7
 74
    0
 49
-6.35
 74
    0
 49
0
 74
    0
 49
-6.35
 74
    0
 49
0
 74
    0
 49
-6.35
 74
    0
  0
LTYPE
  5
3F
330
5
100
AcDbSymbolTableRecord
100
AcDbLinetypeTableRecord
  2
DIVIDETINY
 70
    0
  3
Divide (.15x) __..__..__..__..__..__..__..__.._
 72
   65
 73
    6
 40
4.7625
 49
1.905
 74
    0
 49
-0.9525
 74
    0
 49
0
 74
    0
 49
-0.9525
 74
    0
 49
0
 74
    0
 49
-0.9525
 74
    0
  0
LTYPE
  5
40
330
5
100
AcDbSymbolTableRecord
100
AcDbLinetypeTableRecord
  2
DIVIDE2
 70
    0
  3
Divide (.5x) __..__..__..__..__..__..__..__.._
 72
   65
 73
    6
 40
15.875
 49
6.35
 74
    0
 49
-3.175
 74
    0
 49
0
 74
    0
 49
-3.175
 74
    0
 49
0
 74
    0
 49
-3.175
 74
    0
  0
LTYPE
  5
41
330
5
100
AcDbSymbolTableRecord
100
AcDbLinetypeTableRecord
  2
DIVIDEX2
 70
    0
  3
Divide (2x) ________  .  .  ________  .  .  _
 72
   65
 73
    6
 40
63.5
 49
25.4
 74
    0
 49
-12.7
 74
    0
 49
0
 74
    0
 49
-12.7
 74
    0
 49
0
 74
    0
 49
-12.7
 74
    0
  0
LTYPE
  5
42
330
5
100
AcDbSymbolTableRecord
100
AcDbLinetypeTableRecord
  2
BORDER
 70
    0
  3
Border __ __ . __ __ . __ __ . __ __ . __ __ .
 72
   65
 73
    6
 40
44.45
 49
12.7
 74
    0
 49
-6.35
 74
    0
 49
12.7
 74
    0
 49
-6.35
 74
    0
 49
0
 74
    0
 49
-6.35
 74
    0
  0
LTYPE
  5
43
330
5
100
AcDbSymbolTableRecord
100
AcDbLinetypeTableRecord
  2
BORDERTINY
 70
    0
  3
Border (.15x) __.__.__.__.__.__.__.__.__.__.__.
 72
   65
 73
    6
 40
6.6675
 49
1.905
 74
    0
 49
-0.9525
 74
    0
 49
1.905
 74
    0
 49
-0.9525
 74
    0
 49
0
 74
    0
 49
-0.9525
 74
    0
  0
LTYPE
  5
44
330
5
100
AcDbSymbolTableRecord
100
AcDbLinetypeTableRecord
  2
BORDER2
 70
    0
  3
Border (.5x) __.__.__.__.__.__.__.__.__.__.__.
 72
   65
 73
    6
 40
22.225
 49
6.35
 74
    0
 49
-3.175
 74
    0
 49
6.35
 74
    0
 49
-3.175
 74
    0
 49
0
 74
    0
 49
-3.175
 74
    0
  0
LTYPE
  5
45
330
5
100
AcDbSymbolTableRecord
100
AcDbLinetypeTableRecord
  2
BORDERX2
 70
    0
  3
Border (2x) ____  ____  .  ____  ____  .  ___
 72
   65
 73
    6
 40
88.89999999999999
 49
25.4
 74
    0
 49
-12.7
 74
    0
 49
25.4
 74
    0
 49
-12.7
 74
    0
 49
0
 74
    0
 49
-12.7
 74
    0
  0
LTYPE
  5
46
330
5
100
AcDbSymbolTableRecord
100
AcDbLinetypeTableRecord
  2
CENTER
 70
    0
  3
Center ____ _ ____ _ ____ _ ____ _ ____ _ ____
 72
   65
 73
    4
 40
50.8
 49
31.75
 74
    0
 49
-6.35
 74
    0
 49
6.35
 74
    0
 49
-6.35
 74
    0
  0
LTYPE
  5
47
330
5
100
AcDbSymbolTableRecord
100
AcDbLinetypeTableRecord
  2
CENTERTINY
 70
    0
  3
Center (.15x) ___ _ ___ _ ___ _ ___ _ ___ _ ___
 72
   65
 73
    4
 40
7.619999999999999
 49
4.7625
 74
    0
 49
-0.9525
 74
    0
 49
0.9525
 74
    0
 49
-0.9525
 74
    0
  0
LTYPE
  5
48
330
5
100
AcDbSymbolTableRecord
100
AcDbLinetypeTableRecord
  2
CENTER2
 70
    0
  3
Center (.5x) ___ _ ___ _ ___ _ ___ _ ___ _ ___
 72
   65
 73
    4
 40
28.575
 49
19.05
 74
    0
 49
-3.175
 74
    0
 49
3.175
 74
    0
 49
-3.175
 74
    0
  0
LTYPE
  5
49
330
5
100
AcDbSymbolTableRecord
100
AcDbLinetypeTableRecord
  2
CENTERX2
 70
    0
  3
Center (2x) ________  __  ________  __  _____
 72
   65
 73
    4
 40
101.6
 49
63.5
 74
    0
 49
-12.7
 74
    0
 49
12.7
 74
    0
 49
-12.7
 74
    0
  0
ENDTAB
  0
TABLE
  2
LAYER
  5
2
330
0
100
AcDbSymbolTable
 70
    1
  0
LAYER
  5
10
330
2
100
AcDbSymbolTableRecord
100
AcDbLayerTableRecord
  2
0
 70
    0
 62
    7
  6
CONTINUOUS
370
    0
390
F
  0
LAYER
  5
4A
330
2
100
AcDbSymbolTableRecord
100
AcDbLayerTableRecord
  2
Construction
 70
    1
 62
    7
  6
DASHED2
370
    0
390
F
1001
LibreCad
1070
    1
  0
LAYER
  5
4B
330
2
100
AcDbSymbolTableRecord
100
AcDbLayerTableRecord
  2
Text
 70
    0
 62
    3
  6
CONTINUOUS
370
    0
390
F
  0
LAYER
  5
4C
330
2
100
AcDbSymbolTableRecord
100
AcDbLayerTableRecord
  2
s15
 70
    0
 62
    1
  6
CONTINUOUS
370
    0
390
F
  0
LAYER
  5
4D
330
2
100
AcDbSymbolTableRecord
100
AcDbLayerTableRecord
  2
s30
 70
    0
 62
   16
420
8388608
  6
CONTINUOUS
370
    0
390
F
  0
LAYER
  5
4E
330
2
100
AcDbSymbolTableRecord
100
AcDbLayerTableRecord
  2
s45
 70
    0
 62
    2
  6
CONTINUOUS
370
    0
390
F
  0
LAYER
  5
4F
330
2
100
AcDbSymbolTableRecord
100
AcDbLayerTableRecord
  2
s60
 70
    0
 62
   56
420
8421376
  6
CONTINUOUS
370
    0
390
F
  0
LAYER
  5
50
330
2
100
AcDbSymbolTableRecord
100
AcDbLayerTableRecord
  2
s75
 70
    0
 62
    3
  6
CONTINUOUS
370
    0
390
F
  0
LAYER
  5
51
330
2
100
AcDbSymbolTableRecord
100
AcDbLayerTableRecord
  2
s90
 70
    0
 62
    4
  6
CONTINUOUS
370
    0
390
F
  0
ENDTAB
  0
TABLE
  2
STYLE
  5
3
330
0
100
AcDbSymbolTable
 70
    3
  0
STYLE
  5
52
330
2
100
AcDbSymbolTableRecord
100
AcDbTextStyleTableRecord
  2
amiri-regular
 70
    0
 40
0
 41
1
 50
0
 71
    0
 42
1
  3
amiri-regular
  4

  0
STYLE
  5
53
330
2
100
AcDbSymbolTableRecord
100
AcDbTextStyleTableRecord
  2
azomix
 70
    0
 40
0
 41
1
 50
0
 71
    0
 42
1
  3
azomix
  4

  0
STYLE
  5
54
330
2
100
AcDbSymbolTableRecord
100
AcDbTextStyleTableRecord
  2
greekcs
 70
    0
 40
0
 41
1
 50
0
 71
    0
 42
1
  3
greekcs
  4

  0
STYLE
  5
55
330
2
100
AcDbSymbolTableRecord
100
AcDbTextStyleTableRecord
  2
Standard
 70
    0
 40
0
 41
1
 50
0
 71
    0
 42
1
  3
txt
  4

  0
ENDTAB
  0
TABLE
  2
VIEW
  5
6
330
0
100
AcDbSymbolTable
 70
    0
  0
ENDTAB
  0
TABLE
  2
UCS
  5
7
330
0
100
AcDbSymbolTable
 70
    0
  0
ENDTAB
  0
TABLE
  2
APPID
  5
9
330
0
100
AcDbSymbolTable
 70
    1
  0
APPID
  5
12
330
9
100
AcDbSymbolTableRecord
100
AcDbRegAppTableRecord
  2
ACAD
 70
    0
  0
APPID
  5
56
330
9
100
AcDbSymbolTableRecord
100
AcDbRegAppTableRecord
  2
LibreCad
 70
    0
  0
ENDTAB
  0
TABLE
  2
DIMSTYLE
  5
A
330
0
100
AcDbSymbolTable
 70
    1
100
AcDbDimStyleTable
 71
    1
  0
DIMSTYLE
105
57
330
A
100
AcDbSymbolTableRecord
100
AcDbDimStyleTableRecord
  2
Standard
 70
    0
 40
1
 41
2.5
 42
0.625
 43
0.38
 44
1.25
 45
0
 46
0
 47
0
 48
0
 49
1
140
2.5
141
0.09
142
0
143
25.4
144
1
145
0
146
1
147
0.625
148
0
 71
    0
 72
    0
 73
    0
 74
    1
 75
    0
 76
    0
 77
    0
 78
    8
 79
    0
170
    0
171
    2
172
    0
173
    0
174
    0
175
    0
176
    0
177
    0
178
    0
179
    0
271
    2
272
    4
273
    2
274
    2
275
    0
276
    0
277
    2
278
   44
279
    0
280
    0
281
    0
282
    0
283
    1
284
    0
285
    0
286
    0
288
    0
289
    3
340
STANDARD
341

371
   -2
372
   -2
  0
ENDTAB
  0
TABLE
  2
BLOCK_RECORD
  5
1
330
0
100
AcDbSymbolTable
 70
    2
  0
BLOCK_RECORD
  5
1F
330
1
100
AcDbSymbolTableRecord
100
AcDbBlockTableRecord
  2
*Model_Space
 70
    0
280
    1
281
    0
  0
BLOCK_RECORD
  5
1E
330
1
100
AcDbSymbolTableRecord
100
AcDbBlockTableRecord
  2
*Paper_Space
 70
    0
280
    1
281
    0
  0
ENDTAB
  0
ENDSEC
  0
SECTION
  2
BLOCKS
  0
BLOCK
  5
20
330
1F
100
AcDbEntity
  8
0
100
AcDbBlockBegin
  2
*Model_Space
 70
    0
 10
0
 20
0
 30
0
  3
*Model_Space
  1

  0
ENDBLK
  5
21
330
1F
100
AcDbEntity
  8
0
100
AcDbBlockEnd
  0
BLOCK
  5
1C
330
1B
100
AcDbEntity
  8
0
100
AcDbBlockBegin
  2
*Paper_Space
 70
    0
 10
0
 20
0
 30
0
  3
*Paper_Space
  1

  0
ENDBLK
  5
1D
330
1F
100
AcDbEntity
  8
0
100
AcDbBlockEnd
  0
ENDSEC
  0
SECTION
  2
ENTITIES
  0
LINE
  5
58
100
AcDbEntity
  8
Construction
  6
ByLayer
 62
  256
370
   -1
100
AcDbLine
 10
7.019767761230469
 20
-13.05600000000018
 11
7.019767761230469
 21
2.980232238769529
  0
LINE
  5
59
100
AcDbEntity
  8
Construction
  6
ByLayer
 62
  256
370
   -1
100
AcDbLine
 10
7.019767761230469
 20
2.980232238769529
 11
7.019767761230469
 21
-13.05600000000018
  0
LINE
  5
5A
100
AcDbEntity
  8
Construction
  6
ByLayer
 62
  256
370
   -1
100
AcDbLine
 10
-12.98023223876953
 20
2.980232238769533
 11
-12.98023223876953
 21
-19
  0
LINE
  5
5B
100
AcDbEntity
  8
s15
  6
ByLayer
 62
  256
370
    0
100
AcDbLine
 10
-18.41976776123047
 20
-22.98023223876953
 11
18.38023223876953
 21
-22.98023223876953
  0
LINE
  5
5C
100
AcDbEntity
  8
s15
  6
ByLayer
 62
  256
370
    0
100
AcDbLine
 10
-18.41976776123047
 20
-62.98023223876953
 11
18.38023223876953
 21
-62.98023223876953
  0
LINE
  5
5D
100
AcDbEntity
  8
s15
  6
ByLayer
 62
  256
370
    0
100
AcDbLine
 10
-18.41976776123047
 20
-102.9802322387695
 11
18.38023223876953
 21
-102.9802322387695
  0
LINE
  5
5E
100
AcDbEntity
  8
s15
  6
ByLayer
 62
  256
370
    0
100
AcDbLine
 10
-18.41976776123047
 20
-142.9802322387695
 11
18.38023223876953
 21
-142.9802322387695
  0
LINE
  5
5F
100
AcDbEntity
  8
s15
  6
ByLayer
 62
  256
370
    0
100
AcDbLine
 10
-18.41976776123047
 20
-182.9802322387695
 11
18.38023223876953
 21
-182.9802322387695
  0
LINE
  5
60
100
AcDbEntity
  8
s15
  6
ByLayer
 62
  256
370
    0
100
AcDbLine
 10
-18.41976776123047
 20
-222.9802322387695
 11
18.38023223876953
 21
-222.9802322387695
  0
LINE
  5
61
100
AcDbEntity
  8
0
  6
ByLayer
 62
  256
370
   -1
100
AcDbLine
 10
-30
 20
20
 11
-30
 21
-240
  0
LINE
  5
62
100
AcDbEntity
  8
0
  6
ByLayer
 62
  256
370
   -1
100
AcDbLine
 10
-30
 20
20
 11
230
 21
20
  0
LINE
  5
63
100
AcDbEntity
  8
0
  6
ByLayer
 62
  256
370
   -1
100
AcDbLine
 10
-30
 20
20
 11
-60
 21
50
  0
CIRCLE
  5
64
100
AcDbEntity
  8
s90
  6
ByLayer
 62
  256
370
    0
100
AcDbCircle
 10
200
 20
0
 40
10
  0
LINE
  5
65
100
AcDbEntity
  8
s90
  6
ByLayer
 62
  256
370
    0
100
AcDbLine
 10
189.9802322387695
 20
-10.98023223876953
 11
209.9802322387695
 21
-10.98023223876953
  0
LINE
  5
66
100
AcDbEntity
  8
s90
  6
ByLayer
 62
  256
370
    0
100
AcDbLine
 10
181.5802322387695
 20
-22.98023223876953
 11
218.3802322387695
 21
-22.98023223876953
  0
LINE
  5
67
100
AcDbEntity
  8
s90
  6
ByLayer
 62
  256
370
    0
100
AcDbLine
 10
185.0802322387695
 20
-17.98023223876953
 11
214.8802322387695
 21
-17.98023223876953
  0
LINE
  5
68
100
AcDbEntity
  8
s90
  6
ByLayer
 62
  256
370
    0
100
AcDbLine
 10
187.8802322387695
 20
-13.98023223876953
 11
212.0802322387695
 21
-13.98023223876953
  0
CIRCLE
  5
69
100
AcDbEntity
  8
s90
  6
ByLayer
 62
  256
370
    0
100
AcDbCircle
 10
200
 20
-40
 40
10
  0
LINE
  5
6A
100
AcDbEntity
  8
s90
  6
ByLayer
 62
  256
370
    0
100
AcDbLine
 10
189.9802322387695
 20
-50.98023223876953
 11
209.9802322387695
 21
-50.98023223876953
  0
LINE
  5
6B
100
AcDbEntity
  8
s90
  6
ByLayer
 62
  256
370
    0
100
AcDbLine
 10
181.5802322387695
 20
-62.98023223876953
 11
218.3802322387695
 21
-62.98023223876953
  0
LINE
  5
6C
100
AcDbEntity
  8
s90
  6
ByLayer
 62
  256
370
    0
100
AcDbLine
 10
185.0802322387695
 20
-57.98023223876953
 11
214.8802322387695
 21
-57.98023223876953
  0
LINE
  5
6D
100
AcDbEntity
  8
s90
  6
ByLayer
 62
  256
370
    0
100
AcDbLine
 10
187.8802322387695
 20
-53.98023223876953
 11
212.0802322387695
 21
-53.98023223876953
  0
CIRCLE
  5
6E
100
AcDbEntity
  8
s90
  6
ByLayer
 62
  256
370
    0
100
AcDbCircle
 10
200
 20
-80
 40
10
  0
LINE
  5
6F
100
AcDbEntity
  8
s90
  6
ByLayer
 62
  256
370
    0
100
AcDbLine
 10
189.9802322387695
 20
-90.98023223876953
 11
209.9802322387695
 21
-90.98023223876953
  0
LINE
  5
70
100
AcDbEntity
  8
s90
  6
ByLayer
 62
  256
370
    0
100
AcDbLine
 10
181.5802322387695
 20
-102.9802322387695
 11
218.3802322387695
 21
-102.9802322387695
  0
LINE
  5
71
100
AcDbEntity
  8
s90
  6
ByLayer
 62
  256
370
    0
100
AcDbLine
 10
185.0802322387695
 20
-97.98023223876953
 11
214.8802322387695
 21
-97.98023223876953
  0
LINE
  5
72
100
AcDbEntity
  8
s90
  6
ByLayer
 62
  256
370
    0
100
AcDbLine
 10
187.8802322387695
 20
-93.98023223876953
 11
212.0802322387695
 21
-93.98023223876953
  0
CIRCLE
  5
73
100
AcDbEntity
  8
s90
  6
ByLayer
 62
  256
370
    0
100
AcDbCircle
 10
200
 20
-120
 40
10
  0
LINE
  5
74
100
AcDbEntity
  8
s90
  6
ByLayer
 62
  256
370
    0
100
AcDbLine
 10
189.9802322387695
 20
-130.9802322387695
 11
209.9802322387695
 21
-130.9802322387695
  0
LINE
  5
75
100
AcDbEntity
  8
s90
  6
ByLayer
 62
  256
370
    0
100
AcDbLine
 10
181.5802322387695
 20
-142.9802322387695
 11
218.3802322387695
 21
-142.9802322387695
  0
LINE
  5
76
100
AcDbEntity
  8
s90
  6
ByLayer
 62
  256
370
    0
100
AcDbLine
 10
185.0802322387695
 20
-137.9802322387695
 11
214.8802322387695
 21
-137.9802322387695
  0
LINE
  5
77
100
AcDbEntity
  8
s90
  6
ByLayer
 62
  256
370
    0
100
AcDbLine
 10
187.8802322387695
 20
-133.9802322387695
 11
212.0802322387695
 21
-133.9802322387695
  0
CIRCLE
  5
78
100
AcDbEntity
  8
s90
  6
ByLayer
 62
  256
370
    0
100
AcDbCircle
 10
200
 20
-160
 40
10
  0
LINE
  5
79
100
AcDbEntity
  8
s90
  6
ByLayer
 62
  256
370
    0
100
AcDbLine
 10
189.9802322387695
 20
-170.9802322387695
 11
209.9802322387695
 21
-170.9802322387695
  0
LINE
  5
7A
100
AcDbEntity
  8
s90
  6
ByLayer
 62
  256
370
    0
100
AcDbLine
 10
181.5802322387695
 20
-182.9802322387695
 11
218.3802322387695
 21
-182.9802322387695
  0
LINE
  5
7B
100
AcDbEntity
  8
s90
  6
ByLayer
 62
  256
370
    0
100
AcDbLine
 10
185.0802322387695
 20
-177.9802322387695
 11
214.8802322387695
 21
-177.9802322387695
  0
LINE
  5
7C
100
AcDbEntity
  8
s90
  6
ByLayer
 62
  256
370
    0
100
AcDbLine
 10
187.8802322387695
 20
-173.9802322387695
 11
212.0802322387695
 21
-173.9802322387695
  0
CIRCLE
  5
7D
100
AcDbEntity
  8
s90
  6
ByLayer
 62
  256
370
    0
100
AcDbCircle
 10
200
 20
-200
 40
10
  0
LINE
  5
7E
100
AcDbEntity
  8
s90
  6
ByLayer
 62
  256
370
    0
100
AcDbLine
 10
189.9802322387695
 20
-210.9802322387695
 11
209.9802322387695
 21
-210.9802322387695
  0
LINE
  5
7F
100
AcDbEntity
  8
s90
  6
ByLayer
 62
  256
370
    0
100
AcDbLine
 10
181.5802322387695
 20
-222.9802322387695
 11
218.3802322387695
 21
-222.9802322387695
  0
LINE
  5
80
100
AcDbEntity
  8
s90
  6
ByLayer
 62
  256
370
    0
100
AcDbLine
 10
185.0802322387695
 20
-217.9802322387695
 11
214.8802322387695
 21
-217.9802322387695
  0
LINE
  5
81
100
AcDbEntity
  8
s90
  6
ByLayer
 62
  256
370
    0
100
AcDbLine
 10
187.8802322387695
 20
-213.9802322387695
 11
212.0802322387695
 21
-213.9802322387695
  0
LWPOLYLINE
  5
82
100
AcDbEntity
  8
s90
  6
ByLayer
 62
  256
370
   -1
100
AcDbPolyline
 90
    8
 70
    0
 43
0
 10
196.4958869049676
 20
9.365959182978674
 10
191.7086237786049
 20
-5.5904454523127
 10
196.2013091301052
 20
-9.250402568265756
 10
203.9969977885572
 20
-9.166461077115242
 10
209.155606437947
 20
-4.021799442217728
 10
203.7650925917523
 20
9.264128549169214
 10
200
 20
4
 10
196.4958869049678
 20
9.3659591829792
  0
LWPOLYLINE
  5
83
100
AcDbEntity
  8
s90
  6
ByLayer
 62
  256
370
   -1
100
AcDbPolyline
 90
    8
 70
    0
 43
0
 10
196.4958869049676
 20
-30.63404081702133
 10
191.7086237786049
 20
-45.5904454523127
 10
196.2013091301052
 20
-49.25040256826576
 10
203.9969977885572
 20
-49.16646107711524
 10
209.155606437947
 20
-44.02179944221773
 10
203.7650925917523
 20
-30.73587145083079
 10
200
 20
-36
 10
196.4958869049678
 20
-30.6340408170208
  0
LWPOLYLINE
  5
84
100
AcDbEntity
  8
s90
  6
ByLayer
 62
  256
370
   -1
100
AcDbPolyline
 90
    8
 70
    0
 43
0
 10
196.4958869049676
 20
-70.63404081702133
 10
191.7086237786049
 20
-85.59044545231271
 10
196.2013091301052
 20
-89.25040256826576
 10
203.9969977885572
 20
-89.16646107711524
 10
209.155606437947
 20
-84.02179944221773
 10
203.7650925917523
 20
-70.73587145083079
 10
200
 20
-76
 10
196.4958869049678
 20
-70.6340408170208
  0
LWPOLYLINE
  5
85
100
AcDbEntity
  8
s90
  6
ByLayer
 62
  256
370
   -1
100
AcDbPolyline
 90
    8
 70
    0
 43
0
 10
196.4958869049676
 20
-110.6340408170213
 10
191.7086237786049
 20
-125.5904454523127
 10
196.2013091301052
 20
-129.2504025682658
 10
203.9969977885572
 20
-129.1664610771152
 10
209.155606437947
 20
-124.0217994422177
 10
203.7650925917523
 20
-110.7358714508308
 10
200
 20
-116
 10
196.4958869049678
 20
-110.6340408170208
  0
LWPOLYLINE
  5
86
100
AcDbEntity
  8
s90
  6
ByLayer
 62
  256
370
   -1
100
AcDbPolyline
 90
    8
 70
    0
 43
0
 10
196.4958869049676
 20
-150.6340408170213
 10
191.7086237786049
 20
-165.5904454523127
 10
196.2013091301052
 20
-169.2504025682658
 10
203.9969977885572
 20
-169.1664610771152
 10
209.155606437947
 20
-164.0217994422177
 10
203.7650925917523
 20
-150.7358714508308
 10
200
 20
-156
 10
196.4958869049678
 20
-150.6340408170208
  0
LWPOLYLINE
  5
87
100
AcDbEntity
  8
s90
  6
ByLayer
 62
  256
370
   -1
100
AcDbPolyline
 90
    8
 70
    0
 43
0
 10
196.4958869049676
 20
-190.6340408170213
 10
191.7086237786049
 20
-205.5904454523127
 10
196.2013091301052
 20
-209.2504025682658
 10
203.9969977885572
 20
-209.1664610771152
 10
209.155606437947
 20
-204.0217994422177
 10
203.7650925917523
 20
-190.7358714508308
 10
200
 20
-196
 10
196.4958869049678
 20
-190.6340408170208
  0
CIRCLE
  5
88
100
AcDbEntity
  8
s75
  6
ByLayer
 62
  256
370
    0
100
AcDbCircle
 10
160
 20
0
 40
10
  0
LINE
  5
89
100
AcDbEntity
  8
s75
  6
ByLayer
 62
  256
370
    0
100
AcDbLine
 10
149.9802322387695
 20
-10.98023223876953
 11
169.9802322387695
 21
-10.98023223876953
  0
LINE
  5
8A
100
AcDbEntity
  8
s75
  6
ByLayer
 62
  256
370
    0
100
AcDbLine
 10
141.5802322387695
 20
-22.98023223876953
 11
178.3802322387695
 21
-22.98023223876953
  0
LINE
  5
8B
100
AcDbEntity
  8
s75
  6
ByLayer
 62
  256
370
    0
100
AcDbLine
 10
145.0802322387695
 20
-17.98023223876953
 11
174.8802322387695
 21
-17.98023223876953
  0
LINE
  5
8C
100
AcDbEntity
  8
s75
  6
ByLayer
 62
  256
370
    0
100
AcDbLine
 10
147.8802322387695
 20
-13.98023223876953
 11
172.0802322387695
 21
-13.98023223876953
  0
CIRCLE
  5
8D
100
AcDbEntity
  8
s75
  6
ByLayer
 62
  256
370
    0
100
AcDbCircle
 10
160
 20
-40
 40
10
  0
LINE
  5
8E
100
AcDbEntity
  8
s75
  6
ByLayer
 62
  256
370
    0
100
AcDbLine
 10
149.9802322387695
 20
-50.98023223876953
 11
169.9802322387695
 21
-50.98023223876953
  0
LINE
  5
8F
100
AcDbEntity
  8
s75
  6
ByLayer
 62
  256
370
    0
100
AcDbLine
 10
141.5802322387695
 20
-62.98023223876953
 11
178.3802322387695
 21
-62.98023223876953
  0
LINE
  5
90
100
AcDbEntity
  8
s75
  6
ByLayer
 62
  256
370
    0
100
AcDbLine
 10
145.0802322387695
 20
-57.98023223876953
 11
174.8802322387695
 21
-57.98023223876953
  0
LINE
  5
91
100
AcDbEntity
  8
s75
  6
ByLayer
 62
  256
370
    0
100
AcDbLine
 10
147.8802322387695
 20
-53.98023223876953
 11
172.0802322387695
 21
-53.98023223876953
  0
CIRCLE
  5
92
100
AcDbEntity
  8
s75
  6
ByLayer
 62
  256
370
    0
100
AcDbCircle
 10
160
 20
-80
 40
10
  0
LINE
  5
93
100
AcDbEntity
  8
s75
  6
ByLayer
 62
  256
370
    0
100
AcDbLine
 10
149.9802322387695
 20
-90.98023223876953
 11
169.9802322387695
 21
-90.98023223876953
  0
LINE
  5
94
100
AcDbEntity
  8
s75
  6
ByLayer
 62
  256
370
    0
100
AcDbLine
 10
141.5802322387695
 20
-102.9802322387695
 11
178.3802322387695
 21
-102.9802322387695
  0
LINE
  5
95
100
AcDbEntity
  8
s75
  6
ByLayer
 62
  256
370
    0
100
AcDbLine
 10
145.0802322387695
 20
-97.98023223876953
 11
174.8802322387695
 21
-97.98023223876953
  0
LINE
  5
96
100
AcDbEntity
  8
s75
  6
ByLayer
 62
  256
370
    0
100
AcDbLine
 10
147.8802322387695
 20
-93.98023223876953
 11
172.0802322387695
 21
-93.98023223876953
  0
CIRCLE
  5
97
100
AcDbEntity
  8
s75
  6
ByLayer
 62
  256
370
    0
100
AcDbCircle
 10
160
 20
-120
 40
10
  0
LINE
  5
98
100
AcDbEntity
  8
s75
  6
ByLayer
 62
  256
370
    0
100
AcDbLine
 10
149.9802322387695
 20
-130.9802322387695
 11
169.9802322387695
 21
-130.9802322387695
  0
LINE
  5
99
100
AcDbEntity
  8
s75
  6
ByLayer
 62
  256
370
    0
100
AcDbLine
 10
141.5802322387695
 20
-142.9802322387695
 11
178.3802322387695
 21
-142.9802322387695
  0
LINE
  5
9A
100
AcDbEntity
  8
s75
  6
ByLayer
 62
  256
370
    0
100
AcDbLine
 10
145.0802322387695
 20
-137.9802322387695
 11
174.8802322387695
 21
-137.9802322387695
  0
LINE
  5
9B
100
AcDbEntity
  8
s75
  6
ByLayer
 62
  256
370
    0
100
AcDbLine
 10
147.8802322387695
 20
-133.9802322387695
 11
172.0802322387695
 21
-133.9802322387695
  0
CIRCLE
  5
9C
100
AcDbEntity
  8
s75
  6
ByLayer
 62
  256
370
    0
100
AcDbCircle
 10
160
 20
-160
 40
10
  0
LINE
  5
9D
100
AcDbEntity
  8
s75
  6
ByLayer
 62
  256
370
    0
100
AcDbLine
 10
149.9802322387695
 20
-170.9802322387695
 11
169.9802322387695
 21
-170.9802322387695
  0
LINE
  5
9E
100
AcDbEntity
  8
s75
  6
ByLayer
 62
  256
370
    0
100
AcDbLine
 10
141.5802322387695
 20
-182.9802322387695
 11
178.3802322387695
 21
-182.9802322387695
  0
LINE
  5
9F
100
AcDbEntity
  8
s75
  6
ByLayer
 62
  256
370
    0
100
AcDbLine
 10
145.0802322387695
 20
-177.9802322387695
 11
174.8802322387695
 21
-177.9802322387695
  0
LINE
  5
A0
100
AcDbEntity
  8
s75
  6
ByLayer
 62
  256
370
    0
100
AcDbLine
 10
147.8802322387695
 20
-173.9802322387695
 11
172.0802322387695
 21
-173.9802322387695
  0
CIRCLE
  5
A1
100
AcDbEntity
  8
s75
  6
ByLayer
 62
  256
370
    0
100
AcDbCircle
 10
160
 20
-200
 40
10
  0
LINE
  5
A2
100
AcDbEntity
  8
s75
  6
ByLayer
 62
  256
370
    0
100
AcDbLine
 10
149.9802322387695
 20
-210.9802322387695
 11
169.9802322387695
 21
-210.9802322387695
  0
LINE
  5
A3
100
AcDbEntity
  8
s75
  6
ByLayer
 62
  256
370
    0
100
AcDbLine
 10
141.5802322387695
 20
-222.9802322387695
 11
178.3802322387695
 21
-222.9802322387695
  0
LINE
  5
A4
100
AcDbEntity
  8
s75
  6
ByLayer
 62
  256
370
    0
100
AcDbLine
 10
145.0802322387695
 20
-217.9802322387695
 11
174.8802322387695
 21
-217.9802322387695
  0
LINE
  5
A5
100
AcDbEntity
  8
s75
  6
ByLayer
 62
  256
370
    0
100
AcDbLine
 10
147.8802322387695
 20
-213.9802322387695
 11
172.0802322387695
 21
-213.9802322387695
  0
LWPOLYLINE
  5
A6
100
AcDbEntity
  8
s75
  6
ByLayer
 62
  256
370
   -1
100
AcDbPolyline
 90
    7
 70
    0
 43
0
 10
150.0002166706429
 20
-0.0658283063068468
 10
154.4107357629309
 20
8.292172531262251
 10
165.7127827125427
 20
8.207564418222539
 10
170
 20
0
 10
166.6994908069191
 20
-7.424070509363911
 10
153.355666330991
 20
-7.473475101642665
 10
150.0002166706427
 20
-0.06582830630719369
  0
LWPOLYLINE
  5
A7
100
AcDbEntity
  8
s75
  6
ByLayer
 62
  256
370
   -1
100
AcDbPolyline
 90
    7
 70
    0
 43
0
 10
150.0002166706429
 20
-40.06582830630685
 10
154.4107357629309
 20
-31.70782746873775
 10
165.7127827125427
 20
-31.79243558177746
 10
170
 20
-40
 10
166.6994908069191
 20
-47.42407050936391
 10
153.355666330991
 20
-47.47347510164266
 10
150.0002166706427
 20
-40.0658283063072
  0
LWPOLYLINE
  5
A8
100
AcDbEntity
  8
s75
  6
ByLayer
 62
  256
370
   -1
100
AcDbPolyline
 90
    7
 70
    0
 43
0
 10
150.0002166706429
 20
-80.06582830630684
 10
154.4107357629309
 20
-71.70782746873775
 10
165.7127827125427
 20
-71.79243558177745
 10
170
 20
-80
 10
166.6994908069191
 20
-87.42407050936391
 10
153.355666330991
 20
-87.47347510164266
 10
150.0002166706427
 20
-80.0658283063072
  0
LWPOLYLINE
  5
A9
100
AcDbEntity
  8
s75
  6
ByLayer
 62
  256
370
   -1
100
AcDbPolyline
 90
    7
 70
    0
 43
0
 10
150.0002166706429
 20
-120.0658283063068
 10
154.4107357629309
 20
-111.7078274687377
 10
165.7127827125427
 20
-111.7924355817775
 10
170
 20
-120
 10
166.6994908069191
 20
-127.4240705093639
 10
153.355666330991
 20
-127.4734751016427
 10
150.0002166706427
 20
-120.0658283063072
  0
LWPOLYLINE
  5
AA
100
AcDbEntity
  8
s75
  6
ByLayer
 62
  256
370
   -1
100
AcDbPolyline
 90
    7
 70
    0
 43
0
 10
150.0002166706429
 20
-160.0658283063069
 10
154.4107357629309
 20
-151.7078274687377
 10
165.7127827125427
 20
-151.7924355817775
 10
170
 20
-160
 10
166.6994908069191
 20
-167.4240705093639
 10
153.355666330991
 20
-167.4734751016427
 10
150.0002166706427
 20
-160.0658283063072
  0
LWPOLYLINE
  5
AB
100
AcDbEntity
  8
s75
  6
ByLayer
 62
  256
370
   -1
100
AcDbPolyline
 90
    7
 70
    0
 43
0
 10
150.0002166706429
 20
-200.0658283063069
 10
154.4107357629309
 20
-191.7078274687377
 10
165.7127827125427
 20
-191.7924355817775
 10
170
 20
-200
 10
166.6994908069191
 20
-207.4240705093639
 10
153.355666330991
 20
-207.4734751016427
 10
150.0002166706427
 20
-200.0658283063072
  0
CIRCLE
  5
AC
100
AcDbEntity
  8
s60
  6
ByLayer
 62
  256
370
    0
100
AcDbCircle
 10
120
 20
0
 40
10
  0
LINE
  5
AD
100
AcDbEntity
  8
s60
  6
ByLayer
 62
  256
370
    0
100
AcDbLine
 10
109.9802322387695
 20
-10.98023223876953
 11
129.9802322387695
 21
-10.98023223876953
  0
LINE
  5
AE
100
AcDbEntity
  8
s60
  6
ByLayer
 62
  256
370
    0
100
AcDbLine
 10
101.5802322387695
 20
-22.98023223876953
 11
138.3802322387695
 21
-22.98023223876953
  0
LINE
  5
AF
100
AcDbEntity
  8
s60
  6
ByLayer
 62
  256
370
    0
100
AcDbLine
 10
105.0802322387695
 20
-17.98023223876953
 11
134.8802322387695
 21
-17.98023223876953
  0
LINE
  5
B0
100
AcDbEntity
  8
s60
  6
ByLayer
 62
  256
370
    0
100
AcDbLine
 10
107.8802322387695
 20
-13.98023223876953
 11
132.0802322387695
 21
-13.98023223876953
  0
CIRCLE
  5
B1
100
AcDbEntity
  8
s60
  6
ByLayer
 62
  256
370
    0
100
AcDbCircle
 10
120
 20
-40
 40
10
  0
LINE
  5
B2
100
AcDbEntity
  8
s60
  6
ByLayer
 62
  256
370
    0
100
AcDbLine
 10
109.9802322387695
 20
-50.98023223876953
 11
129.9802322387695
 21
-50.98023223876953
  0
LINE
  5
B3
100
AcDbEntity
  8
s60
  6
ByLayer
 62
  256
370
    0
100
AcDbLine
 10
101.5802322387695
 20
-62.98023223876953
 11
138.3802322387695
 21
-62.98023223876953
  0
LINE
  5
B4
100
AcDbEntity
  8
s60
  6
ByLayer
 62
  256
370
    0
100
AcDbLine
 10
105.0802322387695
 20
-57.98023223876953
 11
134.8802322387695
 21
-57.98023223876953
  0
LINE
  5
B5
100
AcDbEntity
  8
s60
  6
ByLayer
 62
  256
370
    0
100
AcDbLine
 10
107.8802322387695
 20
-53.98023223876953
 11
132.0802322387695
 21
-53.98023223876953
  0
CIRCLE
  5
B6
100
AcDbEntity
  8
s60
  6
ByLayer
 62
  256
370
    0
100
AcDbCircle
 10
120
 20
-80
 40
10
  0
LINE
  5
B7
100
AcDbEntity
  8
s60
  6
ByLayer
 62
  256
370
    0
100
AcDbLine
 10
109.9802322387695
 20
-90.98023223876953
 11
129.9802322387695
 21
-90.98023223876953
  0
LINE
  5
B8
100
AcDbEntity
  8
s60
  6
ByLayer
 62
  256
370
    0
100
AcDbLine
 10
101.5802322387695
 20
-102.9802322387695
 11
138.3802322387695
 21
-102.9802322387695
  0
LINE
  5
B9
100
AcDbEntity
  8
s60
  6
ByLayer
 62
  256
370
    0
100
AcDbLine
 10
105.0802322387695
 20
-97.98023223876953
 11
134.8802322387695
 21
-97.98023223876953
  0
LINE
  5
BA
100
AcDbEntity
  8
s60
  6
ByLayer
 62
  256
370
    0
100
AcDbLine
 10
107.8802322387695
 20
-93.98023223876953
 11
132.0802322387695
 21
-93.98023223876953
  0
CIRCLE
  5
BB
100
AcDbEntity
  8
s60
  6
ByLayer
 62
  256
370
    0
100
AcDbCircle
 10
120
 20
-120
 40
10
  0
LINE
  5
BC
100
AcDbEntity
  8
s60
  6
ByLayer
 62
  256
370
    0
100
AcDbLine
 10
109.9802322387695
 20
-130.9802322387695
 11
129.9802322387695
 21
-130.9802322387695
  0
LINE
  5
BD
100
AcDbEntity
  8
s60
  6
ByLayer
 62
  256
370
    0
100
AcDbLine
 10
101.5802322387695
 20
-142.9802322387695
 11
138.3802322387695
 21
-142.9802322387695
  0
LINE
  5
BE
100
AcDbEntity
  8
s60
  6
ByLayer
 62
  256
370
    0
100
AcDbLine
 10
105.0802322387695
 20
-137.9802322387695
 11
134.8802322387695
 21
-137.9802322387695
  0
LINE
  5
BF
100
AcDbEntity
  8
s60
  6
ByLayer
 62
  256
370
    0
100
AcDbLine
 10
107.8802322387695
 20
-133.9802322387695
 11
132.0802322387695
 21
-133.9802322387695
  0
CIRCLE
  5
C0
100
AcDbEntity
  8
s60
  6
ByLayer
 62
  256
370
    0
100
AcDbCircle
 10
120
 20
-160
 40
10
  0
LINE
  5
C1
100
AcDbEntity
  8
s60
  6
ByLayer
 62
  256
370
    0
100
AcDbLine
 10
109.9802322387695
 20
-170.9802322387695
 11
129.9802322387695
 21
-170.9802322387695
  0
LINE
  5
C2
100
AcDbEntity
  8
s60
  6
ByLayer
 62
  256
370
    0
100
AcDbLine
 10
101.5802322387695
 20
-182.9802322387695
 11
138.3802322387695
 21
-182.9802322387695
  0
LINE
  5
C3
100
AcDbEntity
  8
s60
  6
ByLayer
 62
  256
370
    0
100
AcDbLine
 10
105.0802322387695
 20
-177.9802322387695
 11
134.8802322387695
 21
-177.9802322387695
  0
LINE
  5
C4
100
AcDbEntity
  8
s60
  6
ByLayer
 62
  256
370
    0
100
AcDbLine
 10
107.8802322387695
 20
-173.9802322387695
 11
132.0802322387695
 21
-173.9802322387695
  0
CIRCLE
  5
C5
100
AcDbEntity
  8
s60
  6
ByLayer
 62
  256
370
    0
100
AcDbCircle
 10
120
 20
-200
 40
10
  0
LINE
  5
C6
100
AcDbEntity
  8
s60
  6
ByLayer
 62
  256
370
    0
100
AcDbLine
 10
109.9802322387695
 20
-210.9802322387695
 11
129.9802322387695
 21
-210.9802322387695
  0
LINE
  5
C7
100
AcDbEntity
  8
s60
  6
ByLayer
 62
  256
370
    0
100
AcDbLine
 10
101.5802322387695
 20
-222.9802322387695
 11
138.3802322387695
 21
-222.9802322387695
  0
LINE
  5
C8
100
AcDbEntity
  8
s60
  6
ByLayer
 62
  256
370
    0
100
AcDbLine
 10
105.0802322387695
 20
-217.9802322387695
 11
134.8802322387695
 21
-217.9802322387695
  0
LINE
  5
C9
100
AcDbEntity
  8
s60
  6
ByLayer
 62
  256
370
    0
100
AcDbLine
 10
107.8802322387695
 20
-213.9802322387695
 11
132.0802322387695
 21
-213.9802322387695
  0
LWPOLYLINE
  5
CA
100
AcDbEntity
  8
s60
  6
ByLayer
 62
  256
370
   -1
100
AcDbPolyline
 90
    6
 70
    0
 43
0
 10
110.0012487168687
 20
0.1580277762918522
 10
114.49964017459
 20
-8.351409569109622
 10
125.3419868741328
 20
-8.453589547440385
 10
129.9967397467136
 20
-0.255332012245529
 10
120.119317280302
 20
9.999288143994116
 10
110.0012487168686
 20
0.1580277762919854
  0
LWPOLYLINE
  5
CB
100
AcDbEntity
  8
s60
  6
ByLayer
 62
  256
370
   -1
100
AcDbPolyline
 90
    6
 70
    0
 43
0
 10
110.0012487168687
 20
-39.84197222370815
 10
114.49964017459
 20
-48.35140956910962
 10
125.3419868741328
 20
-48.45358954744039
 10
129.9967397467136
 20
-40.25533201224553
 10
120.119317280302
 20
-30.00071185600589
 10
110.0012487168686
 20
-39.84197222370801
  0
LWPOLYLINE
  5
CC
100
AcDbEntity
  8
s60
  6
ByLayer
 62
  256
370
   -1
100
AcDbPolyline
 90
    6
 70
    0
 43
0
 10
110.0012487168687
 20
-79.84197222370815
 10
114.49964017459
 20
-88.35140956910962
 10
125.3419868741328
 20
-88.45358954744039
 10
129.9967397467136
 20
-80.25533201224553
 10
120.119317280302
 20
-70.00071185600588
 10
110.0012487168686
 20
-79.84197222370801
  0
LWPOLYLINE
  5
CD
100
AcDbEntity
  8
s60
  6
ByLayer
 62
  256
370
   -1
100
AcDbPolyline
 90
    6
 70
    0
 43
0
 10
110.0012487168687
 20
-119.8419722237082
 10
114.49964017459
 20
-128.3514095691096
 10
125.3419868741328
 20
-128.4535895474404
 10
129.9967397467136
 20
-120.2553320122455
 10
120.119317280302
 20
-110.0007118560059
 10
110.0012487168686
 20
-119.841972223708
  0
LWPOLYLINE
  5
CE
100
AcDbEntity
  8
s60
  6
ByLayer
 62
  256
370
   -1
100
AcDbPolyline
 90
    6
 70
    0
 43
0
 10
110.0012487168687
 20
-159.8419722237082
 10
114.49964017459
 20
-168.3514095691096
 10
125.3419868741328
 20
-168.4535895474404
 10
129.9967397467136
 20
-160.2553320122455
 10
120.119317280302
 20
-150.0007118560059
 10
110.0012487168686
 20
-159.841972223708
  0
LWPOLYLINE
  5
CF
100
AcDbEntity
  8
s60
  6
ByLayer
 62
  256
370
   -1
100
AcDbPolyline
 90
    6
 70
    0
 43
0
 10
110.0012487168687
 20
-199.8419722237082
 10
114.49964017459
 20
-208.3514095691096
 10
125.3419868741328
 20
-208.4535895474404
 10
129.9967397467136
 20
-200.2553320122455
 10
120.119317280302
 20
-190.0007118560059
 10
110.0012487168686
 20
-199.841972223708
  0
LINE
  5
D0
100
AcDbEntity
  8
s45
  6
ByLayer
 62
  256
370
    0
100
AcDbLine
 10
61.58023223876953
 20
-22.98023223876953
 11
98.38023223876954
 21
-22.98023223876953
  0
LINE
  5
D1
100
AcDbEntity
  8
s45
  6
ByLayer
 62
  256
370
    0
100
AcDbLine
 10
61.58023223876953
 20
-62.98023223876953
 11
98.38023223876954
 21
-62.98023223876953
  0
LINE
  5
D2
100
AcDbEntity
  8
s45
  6
ByLayer
 62
  256
370
    0
100
AcDbLine
 10
61.58023223876953
 20
-102.9802322387695
 11
98.38023223876954
 21
-102.9802322387695
  0
LINE
  5
D3
100
AcDbEntity
  8
s45
  6
ByLayer
 62
  256
370
    0
100
AcDbLine
 10
61.58023223876953
 20
-142.9802322387695
 11
98.38023223876954
 21
-142.9802322387695
  0
LINE
  5
D4
100
AcDbEntity
  8
s45
  6
ByLayer
 62
  256
370
    0
100
AcDbLine
 10
61.58023223876953
 20
-182.9802322387695
 11
98.38023223876954
 21
-182.9802322387695
  0
LINE
  5
D5
100
AcDbEntity
  8
s45
  6
ByLayer
 62
  256
370
    0
100
AcDbLine
 10
61.58023223876953
 20
-222.9802322387695
 11
98.38023223876954
 21
-222.9802322387695
  0
CIRCLE
  5
D6
100
AcDbEntity
  8
s45
  6
ByLayer
 62
  256
370
    0
100
AcDbCircle
 10
80
 20
0
 40
10
  0
LINE
  5
D7
100
AcDbEntity
  8
s45
  6
ByLayer
 62
  256
370
    0
100
AcDbLine
 10
69.98023223876953
 20
-10.98023223876953
 11
89.98023223876953
 21
-10.98023223876953
  0
LINE
  5
D8
100
AcDbEntity
  8
s45
  6
ByLayer
 62
  256
370
    0
100
AcDbLine
 10
65.08023223876953
 20
-17.98023223876953
 11
94.88023223876954
 21
-17.98023223876953
  0
LINE
  5
D9
100
AcDbEntity
  8
s45
  6
ByLayer
 62
  256
370
    0
100
AcDbLine
 10
67.88023223876954
 20
-13.98023223876953
 11
92.08023223876953
 21
-13.98023223876953
  0
CIRCLE
  5
DA
100
AcDbEntity
  8
s45
  6
ByLayer
 62
  256
370
    0
100
AcDbCircle
 10
80
 20
-40
 40
10
  0
LINE
  5
DB
100
AcDbEntity
  8
s45
  6
ByLayer
 62
  256
370
    0
100
AcDbLine
 10
69.98023223876953
 20
-50.98023223876953
 11
89.98023223876953
 21
-50.98023223876953
  0
LINE
  5
DC
100
AcDbEntity
  8
s45
  6
ByLayer
 62
  256
370
    0
100
AcDbLine
 10
65.08023223876953
 20
-57.98023223876953
 11
94.88023223876954
 21
-57.98023223876953
  0
LINE
  5
DD
100
AcDbEntity
  8
s45
  6
ByLayer
 62
  256
370
    0
100
AcDbLine
 10
67.88023223876954
 20
-53.98023223876953
 11
92.08023223876953
 21
-53.98023223876953
  0
CIRCLE
  5
DE
100
AcDbEntity
  8
s45
  6
ByLayer
 62
  256
370
    0
100
AcDbCircle
 10
80
 20
-80
 40
10
  0
LINE
  5
DF
100
AcDbEntity
  8
s45
  6
ByLayer
 62
  256
370
    0
100
AcDbLine
 10
69.98023223876953
 20
-90.98023223876953
 11
89.98023223876953
 21
-90.98023223876953
  0
LINE
  5
E0
100
AcDbEntity
  8
s45
  6
ByLayer
 62
  256
370
    0
100
AcDbLine
 10
65.08023223876953
 20
-97.98023223876953
 11
94.88023223876954
 21
-97.98023223876953
  0
LINE
  5
E1
100
AcDbEntity
  8
s45
  6
ByLayer
 62
  256
370
    0
100
AcDbLine
 10
67.88023223876954
 20
-93.98023223876953
 11
92.08023223876953
 21
-93.98023223876953
  0
CIRCLE
  5
E2
100
AcDbEntity
  8
s45
  6
ByLayer
 62
  256
370
    0
100
AcDbCircle
 10
80
 20
-120
 40
10
  0
LINE
  5
E3
100
AcDbEntity
  8
s45
  6
ByLayer
 62
  256
370
    0
100
AcDbLine
 10
69.98023223876953
 20
-130.9802322387695
 11
89.98023223876953
 21
-130.9802322387695
  0
LINE
  5
E4
100
AcDbEntity
  8
s45
  6
ByLayer
 62
  256
370
    0
100
AcDbLine
 10
65.08023223876953
 20
-137.9802322387695
 11
94.88023223876954
 21
-137.9802322387695
  0
LINE
  5
E5
100
AcDbEntity
  8
s45
  6
ByLayer
 62
  256
370
    0
100
AcDbLine
 10
67.88023223876954
 20
-133.9802322387695
 11
92.08023223876953
 21
-133.9802322387695
  0
CIRCLE
  5
E6
100
AcDbEntity
  8
s45
  6
ByLayer
 62
  256
370
    0
100
AcDbCircle
 10
80
 20
-160
 40
10
  0
LINE
  5
E7
100
AcDbEntity
  8
s45
  6
ByLayer
 62
  256
370
    0
100
AcDbLine
 10
69.98023223876953
 20
-170.9802322387695
 11
89.98023223876953
 21
-170.9802322387695
  0
LINE
  5
E8
100
AcDbEntity
  8
s45
  6
ByLayer
 62
  256
370
    0
100
AcDbLine
 10
65.08023223876953
 20
-177.9802322387695
 11
94.88023223876954
 21
-177.9802322387695
  0
LINE
  5
E9
100
AcDbEntity
  8
s45
  6
ByLayer
 62
  256
370
    0
100
AcDbLine
 10
67.88023223876954
 20
-173.9802322387695
 11
92.08023223876953
 21
-173.9802322387695
  0
CIRCLE
  5
EA
100
AcDbEntity
  8
s45
  6
ByLayer
 62
  256
370
    0
100
AcDbCircle
 10
80
 20
-200
 40
10
  0
LINE
  5
EB
100
AcDbEntity
  8
s45
  6
ByLayer
 62
  256
370
    0
100
AcDbLine
 10
69.98023223876953
 20
-210.9802322387695
 11
89.98023223876953
 21
-210.9802322387695
  0
LINE
  5
EC
100
AcDbEntity
  8
s45
  6
ByLayer
 62
  256
370
    0
100
AcDbLine
 10
65.08023223876953
 20
-217.9802322387695
 11
94.88023223876954
 21
-217.9802322387695
  0
LINE
  5
ED
100
AcDbEntity
  8
s45
  6
ByLayer
 62
  256
370
    0
100
AcDbLine
 10
67.88023223876954
 20
-213.9802322387695
 11
92.08023223876953
 21
-213.9802322387695
  0
LWPOLYLINE
  5
EE
100
AcDbEntity
  8
s45
  6
ByLayer
 62
  256
370
   -1
100
AcDbPolyline
 90
    7
 70
    0
 43
0
 10
70
 20
0
 10
80
 20
10
 10
90
 20
-2.449293598294707e-15
 10
87.07106781186548
 20
-7.071067811865477
 10
80
 20
-10
 10
72.92893218813452
 20
-7.071067811865475
 10
70
 20
1.224646799147353e-15
  0
LWPOLYLINE
  5
EF
100
AcDbEntity
  8
s45
  6
ByLayer
 62
  256
370
   -1
100
AcDbPolyline
 90
    7
 70
    0
 43
0
 10
70
 20
-40
 10
80
 20
-30
 10
90
 20
-40
 10
87.07106781186548
 20
-47.07106781186548
 10
80
 20
-50
 10
72.92893218813452
 20
-47.07106781186548
 10
70
 20
-40
  0
LWPOLYLINE
  5
F0
100
AcDbEntity
  8
s45
  6
ByLayer
 62
  256
370
   -1
100
AcDbPolyline
 90
    7
 70
    0
 43
0
 10
70
 20
-80
 10
80
 20
-70
 10
90
 20
-80
 10
87.07106781186548
 20
-87.07106781186548
 10
80
 20
-90
 10
72.92893218813452
 20
-87.07106781186548
 10
70
 20
-80
  0
LWPOLYLINE
  5
F1
100
AcDbEntity
  8
s45
  6
ByLayer
 62
  256
370
   -1
100
AcDbPolyline
 90
    7
 70
    0
 43
0
 10
70
 20
-120
 10
80
 20
-110
 10
90
 20
-120
 10
87.07106781186548
 20
-127.0710678118655
 10
80
 20
-130
 10
72.92893218813452
 20
-127.0710678118655
 10
70
 20
-120
  0
LWPOLYLINE
  5
F2
100
AcDbEntity
  8
s45
  6
ByLayer
 62
  256
370
   -1
100
AcDbPolyline
 90
    7
 70
    0
 43
0
 10
70
 20
-160
 10
80
 20
-150
 10
90
 20
-160
 10
87.07106781186548
 20
-167.0710678118655
 10
80
 20
-170
 10
72.92893218813452
 20
-167.0710678118655
 10
70
 20
-160
  0
LWPOLYLINE
  5
F3
100
AcDbEntity
  8
s45
  6
ByLayer
 62
  256
370
   -1
100
AcDbPolyline
 90
    7
 70
    0
 43
0
 10
70
 20
-200
 10
80
 20
-190
 10
90
 20
-200
 10
87.07106781186548
 20
-207.0710678118655
 10
80
 20
-210
 10
72.92893218813452
 20
-207.0710678118655
 10
70
 20
-200
  0
CIRCLE
  5
F4
100
AcDbEntity
  8
s30
  6
ByLayer
 62
  256
370
    0
100
AcDbCircle
 10
40
 20
0
 40
10
  0
LINE
  5
F5
100
AcDbEntity
  8
s30
  6
ByLayer
 62
  256
370
    0
100
AcDbLine
 10
29.98023223876953
 20
-10.98023223876953
 11
49.98023223876953
 21
-10.98023223876953
  0
LINE
  5
F6
100
AcDbEntity
  8
s30
  6
ByLayer
 62
  256
370
    0
100
AcDbLine
 10
21.58023223876953
 20
-22.98023223876953
 11
58.38023223876953
 21
-22.98023223876953
  0
LINE
  5
F7
100
AcDbEntity
  8
s30
  6
ByLayer
 62
  256
370
    0
100
AcDbLine
 10
25.08023223876953
 20
-17.98023223876953
 11
54.88023223876954
 21
-17.98023223876953
  0
LINE
  5
F8
100
AcDbEntity
  8
s30
  6
ByLayer
 62
  256
370
    0
100
AcDbLine
 10
27.88023223876953
 20
-13.98023223876953
 11
52.08023223876953
 21
-13.98023223876953
  0
CIRCLE
  5
F9
100
AcDbEntity
  8
s30
  6
ByLayer
 62
  256
370
    0
100
AcDbCircle
 10
40
 20
-40
 40
10
  0
LINE
  5
FA
100
AcDbEntity
  8
s30
  6
ByLayer
 62
  256
370
    0
100
AcDbLine
 10
29.98023223876953
 20
-50.98023223876953
 11
49.98023223876953
 21
-50.98023223876953
  0
LINE
  5
FB
100
AcDbEntity
  8
s30
  6
ByLayer
 62
  256
370
    0
100
AcDbLine
 10
21.58023223876953
 20
-62.98023223876953
 11
58.38023223876953
 21
-62.98023223876953
  0
LINE
  5
FC
100
AcDbEntity
  8
s30
  6
ByLayer
 62
  256
370
    0
100
AcDbLine
 10
25.08023223876953
 20
-57.98023223876953
 11
54.88023223876954
 21
-57.98023223876953
  0
LINE
  5
FD
100
AcDbEntity
  8
s30
  6
ByLayer
 62
  256
370
    0
100
AcDbLine
 10
27.88023223876953
 20
-53.98023223876953
 11
52.08023223876953
 21
-53.98023223876953
  0
CIRCLE
  5
FE
100
AcDbEntity
  8
s30
  6
ByLayer
 62
  256
370
    0
100
AcDbCircle
 10
40
 20
-80
 40
10
  0
LINE
  5
FF
100
AcDbEntity
  8
s30
  6
ByLayer
 62
  256
370
    0
100
AcDbLine
 10
29.98023223876953
 20
-90.98023223876953
 11
49.98023223876953
 21
-90.98023223876953
  0
LINE
  5
100
100
AcDbEntity
  8
s30
  6
ByLayer
 62
  256
370
    0
100
AcDbLine
 10
21.58023223876953
 20
-102.9802322387695
 11
58.38023223876953
 21
-102.9802322387695
  0
LINE
  5
101
100
AcDbEntity
  8
s30
  6
ByLayer
 62
  256
370
    0
100
AcDbLine
 10
25.08023223876953
 20
-97.98023223876953
 11
54.88023223876954
 21
-97.98023223876953
  0
LINE
  5
102
100
AcDbEntity
  8
s30
  6
ByLayer
 62
  256
370
    0
100
AcDbLine
 10
27.88023223876953
 20
-93.98023223876953
 11
52.08023223876953
 21
-93.98023223876953
  0
CIRCLE
  5
103
100
AcDbEntity
  8
s30
  6
ByLayer
 62
  256
370
    0
100
AcDbCircle
 10
40
 20
-120
 40
10
  0
LINE
  5
104
100
AcDbEntity
  8
s30
  6
ByLayer
 62
  256
370
    0
100
AcDbLine
 10
29.98023223876953
 20
-130.9802322387695
 11
49.98023223876953
 21
-130.9802322387695
  0
LINE
  5
105
100
AcDbEntity
  8
s30
  6
ByLayer
 62
  256
370
    0
100
AcDbLine
 10
21.58023223876953
 20
-142.9802322387695
 11
58.38023223876953
 21
-142.9802322387695
  0
LINE
  5
106
100
AcDbEntity
  8
s30
  6
ByLayer
 62
  256
370
    0
100
AcDbLine
 10
25.08023223876953
 20
-137.9802322387695
 11
54.88023223876954
 21
-137.9802322387695
  0
LINE
  5
107
100
AcDbEntity
  8
s30
  6
ByLayer
 62
  256
370
    0
100
AcDbLine
 10
27.88023223876953
 20
-133.9802322387695
 11
52.08023223876953
 21
-133.9802322387695
  0
CIRCLE
  5
108
100
AcDbEntity
  8
s30
  6
ByLayer
 62
  256
370
    0
100
AcDbCircle
 10
40
 20
-160
 40
10
  0
LINE
  5
109
100
AcDbEntity
  8
s30
  6
ByLayer
 62
  256
370
    0
100
AcDbLine
 10
29.98023223876953
 20
-170.9802322387695
 11
49.98023223876953
 21
-170.9802322387695
  0
LINE
  5
10A
100
AcDbEntity
  8
s30
  6
ByLayer
 62
  256
370
    0
100
AcDbLine
 10
21.58023223876953
 20
-182.9802322387695
 11
58.38023223876953
 21
-182.9802322387695
  0
LINE
  5
10B
100
AcDbEntity
  8
s30
  6
ByLayer
 62
  256
370
    0
100
AcDbLine
 10
25.08023223876953
 20
-177.9802322387695
 11
54.88023223876954
 21
-177.9802322387695
  0
LINE
  5
10C
100
AcDbEntity
  8
s30
  6
ByLayer
 62
  256
370
    0
100
AcDbLine
 10
27.88023223876953
 20
-173.9802322387695
 11
52.08023223876953
 21
-173.9802322387695
  0
CIRCLE
  5
10D
100
AcDbEntity
  8
s30
  6
ByLayer
 62
  256
370
    0
100
AcDbCircle
 10
40
 20
-200
 40
10
  0
LINE
  5
10E
100
AcDbEntity
  8
s30
  6
ByLayer
 62
  256
370
    0
100
AcDbLine
 10
29.98023223876953
 20
-210.9802322387695
 11
49.98023223876953
 21
-210.9802322387695
  0
LINE
  5
10F
100
AcDbEntity
  8
s30
  6
ByLayer
 62
  256
370
    0
100
AcDbLine
 10
21.58023223876953
 20
-222.9802322387695
 11
58.38023223876953
 21
-222.9802322387695
  0
LINE
  5
110
100
AcDbEntity
  8
s30
  6
ByLayer
 62
  256
370
    0
100
AcDbLine
 10
25.08023223876953
 20
-217.9802322387695
 11
54.88023223876954
 21
-217.9802322387695
  0
LINE
  5
111
100
AcDbEntity
  8
s30
  6
ByLayer
 62
  256
370
    0
100
AcDbLine
 10
27.88023223876953
 20
-213.9802322387695
 11
52.08023223876953
 21
-213.9802322387695
  0
LWPOLYLINE
  5
112
100
AcDbEntity
  8
s30
  6
ByLayer
 62
  256
370
   -1
100
AcDbPolyline
 90
    4
 70
    0
 43
0
 10
40
 20
10
 10
32.92893218813452
 20
-7.071067811865475
 10
47.07106781186548
 20
-7.071067811865477
 10
40
 20
10
  0
LWPOLYLINE
  5
113
100
AcDbEntity
  8
s30
  6
ByLayer
 62
  256
370
   -1
100
AcDbPolyline
 90
    4
 70
    0
 43
0
 10
40
 20
-30
 10
32.92893218813452
 20
-47.07106781186548
 10
47.07106781186548
 20
-47.07106781186548
 10
40
 20
-30
  0
LWPOLYLINE
  5
114
100
AcDbEntity
  8
s30
  6
ByLayer
 62
  256
370
   -1
100
AcDbPolyline
 90
    4
 70
    0
 43
0
 10
40
 20
-70
 10
32.92893218813452
 20
-87.07106781186548
 10
47.07106781186548
 20
-87.07106781186548
 10
40
 20
-70
  0
LWPOLYLINE
  5
115
100
AcDbEntity
  8
s30
  6
ByLayer
 62
  256
370
   -1
100
AcDbPolyline
 90
    4
 70
    0
 43
0
 10
40
 20
-110
 10
32.92893218813452
 20
-127.0710678118655
 10
47.07106781186548
 20
-127.0710678118655
 10
40
 20
-110
  0
LWPOLYLINE
  5
116
100
AcDbEntity
  8
s30
  6
ByLayer
 62
  256
370
   -1
100
AcDbPolyline
 90
    4
 70
    0
 43
0
 10
40
 20
-150
 10
32.92893218813452
 20
-167.0710678118655
 10
47.07106781186548
 20
-167.0710678118655
 10
40
 20
-150
  0
LWPOLYLINE
  5
117
100
AcDbEntity
  8
s30
  6
ByLayer
 62
  256
370
   -1
100
AcDbPolyline
 90
    4
 70
    0
 43
0
 10
40
 20
-190
 10
32.92893218813452
 20
-207.0710678118655
 10
47.07106781186548
 20
-207.0710678118655
 10
40
 20
-190
  0
CIRCLE
  5
118
100
AcDbEntity
  8
s15
  6
ByLayer
 62
  256
370
    0
100
AcDbCircle
 10
0
 20
0
 40
10
  0
LINE
  5
119
100
AcDbEntity
  8
s15
  6
ByLayer
 62
  256
370
    0
100
AcDbLine
 10
-14.91976776123047
 20
-17.98023223876953
 11
14.88023223876953
 21
-17.98023223876953
  0
LINE
  5
11A
100
AcDbEntity
  8
s15
  6
ByLayer
 62
  256
370
    0
100
AcDbLine
 10
-12.11976776123047
 20
-13.98023223876953
 11
12.08023223876953
 21
-13.98023223876953
  0
CIRCLE
  5
11B
100
AcDbEntity
  8
s15
  6
ByLayer
 62
  256
370
    0
100
AcDbCircle
 10
0
 20
-40
 40
10
  0
LINE
  5
11C
100
AcDbEntity
  8
s15
  6
ByLayer
 62
  256
370
    0
100
AcDbLine
 10
-10.01976776123047
 20
-50.98023223876953
 11
9.980232238769531
 21
-50.98023223876953
  0
LINE
  5
11D
100
AcDbEntity
  8
s15
  6
ByLayer
 62
  256
370
    0
100
AcDbLine
 10
-14.91976776123047
 20
-57.98023223876953
 11
14.88023223876953
 21
-57.98023223876953
  0
LINE
  5
11E
100
AcDbEntity
  8
s15
  6
ByLayer
 62
  256
370
    0
100
AcDbLine
 10
-12.11976776123047
 20
-53.98023223876953
 11
12.08023223876953
 21
-53.98023223876953
  0
CIRCLE
  5
11F
100
AcDbEntity
  8
s15
  6
ByLayer
 62
  256
370
    0
100
AcDbCircle
 10
0
 20
-80
 40
10
  0
LINE
  5
120
100
AcDbEntity
  8
s15
  6
ByLayer
 62
  256
370
    0
100
AcDbLine
 10
-10.01976776123047
 20
-90.98023223876953
 11
9.980232238769531
 21
-90.98023223876953
  0
LINE
  5
121
100
AcDbEntity
  8
s15
  6
ByLayer
 62
  256
370
    0
100
AcDbLine
 10
-14.91976776123047
 20
-97.98023223876953
 11
14.88023223876953
 21
-97.98023223876953
  0
LINE
  5
122
100
AcDbEntity
  8
s15
  6
ByLayer
 62
  256
370
    0
100
AcDbLine
 10
-12.11976776123047
 20
-93.98023223876953
 11
12.08023223876953
 21
-93.98023223876953
  0
CIRCLE
  5
123
100
AcDbEntity
  8
s15
  6
ByLayer
 62
  256
370
    0
100
AcDbCircle
 10
0
 20
-120
 40
10
  0
LINE
  5
124
100
AcDbEntity
  8
s15
  6
ByLayer
 62
  256
370
    0
100
AcDbLine
 10
-10.01976776123047
 20
-130.9802322387695
 11
9.980232238769531
 21
-130.9802322387695
  0
LINE
  5
125
100
AcDbEntity
  8
s15
  6
ByLayer
 62
  256
370
    0
100
AcDbLine
 10
-14.91976776123047
 20
-137.9802322387695
 11
14.88023223876953
 21
-137.9802322387695
  0
LINE
  5
126
100
AcDbEntity
  8
s15
  6
ByLayer
 62
  256
370
    0
100
AcDbLine
 10
-12.11976776123047
 20
-133.9802322387695
 11
12.08023223876953
 21
-133.9802322387695
  0
CIRCLE
  5
127
100
AcDbEntity
  8
s15
  6
ByLayer
 62
  256
370
    0
100
AcDbCircle
 10
0
 20
-160
 40
10
  0
LINE
  5
128
100
AcDbEntity
  8
s15
  6
ByLayer
 62
  256
370
    0
100
AcDbLine
 10
-10.01976776123047
 20
-170.9802322387695
 11
9.980232238769531
 21
-170.9802322387695
  0
LINE
  5
129
100
AcDbEntity
  8
s15
  6
ByLayer
 62
  256
370
    0
100
AcDbLine
 10
-14.91976776123047
 20
-177.9802322387695
 11
14.88023223876953
 21
-177.9802322387695
  0
LINE
  5
12A
100
AcDbEntity
  8
s15
  6
ByLayer
 62
  256
370
    0
100
AcDbLine
 10
-12.11976776123047
 20
-173.9802322387695
 11
12.08023223876953
 21
-173.9802322387695
  0
CIRCLE
  5
12B
100
AcDbEntity
  8
s15
  6
ByLayer
 62
  256
370
    0
100
AcDbCircle
 10
0
 20
-200
 40
10
  0
LINE
  5
12C
100
AcDbEntity
  8
s15
  6
ByLayer
 62
  256
370
    0
100
AcDbLine
 10
-10.01976776123047
 20
-210.9802322387695
 11
9.980232238769531
 21
-210.9802322387695
  0
LINE
  5
12D
100
AcDbEntity
  8
s15
  6
ByLayer
 62
  256
370
    0
100
AcDbLine
 10
-14.91976776123047
 20
-217.9802322387695
 11
14.88023223876953
 21
-217.9802322387695
  0
LINE
  5
12E
100
AcDbEntity
  8
s15
  6
ByLayer
 62
  256
370
    0
100
AcDbLine
 10
-12.11976776123047
 20
-213.9802322387695
 11
12.08023223876953
 21
-213.9802322387695
  0
MTEXT
  5
12F
100
AcDbEntity
  8
s15
  6
ByLayer
 62
  256
370
   -1
100
AcDbMText
 10
-30
 20
20
 30
0
 40
1
 41
0
 71
    1
 72
    1
  1

  7
greekcs
210
0
220
0
230
1
 50
0
 73
    2
 44
1
  0
LWPOLYLINE
  5
130
100
AcDbEntity
  8
s15
  6
ByLayer
 62
  256
370
   -1
100
AcDbPolyline
 90
    5
 70
    0
 43
0
 10
-7.071067811865477
 20
-7.071067811865475
 10
-7.071067811865475
 20
7.071067811865476
 10
7.071067811865476
 20
7.071067811865475
 10
7.071067811865474
 20
-7.071067811865477
 10
-7.071067811865476
 20
-7.071067811865472
  0
LWPOLYLINE
  5
131
100
AcDbEntity
  8
s15
  6
ByLayer
 62
  256
370
   -1
100
AcDbPolyline
 90
    5
 70
    0
 43
0
 10
-7.071067811865477
 20
-47.07106781186548
 10
-7.071067811865475
 20
-32.92893218813452
 10
7.071067811865476
 20
-32.92893218813452
 10
7.071067811865474
 20
-47.07106781186548
 10
-7.071067811865476
 20
-47.07106781186548
  0
LWPOLYLINE
  5
132
100
AcDbEntity
  8
s15
  6
ByLayer
 62
  256
370
   -1
100
AcDbPolyline
 90
    5
 70
    0
 43
0
 10
-7.071067811865477
 20
-87.07106781186548
 10
-7.071067811865475
 20
-72.92893218813452
 10
7.071067811865476
 20
-72.92893218813452
 10
7.071067811865474
 20
-87.07106781186548
 10
-7.071067811865476
 20
-87.07106781186548
  0
LWPOLYLINE
  5
133
100
AcDbEntity
  8
s15
  6
ByLayer
 62
  256
370
   -1
100
AcDbPolyline
 90
    5
 70
    0
 43
0
 10
-7.071067811865477
 20
-127.0710678118655
 10
-7.071067811865475
 20
-112.9289321881345
 10
7.071067811865476
 20
-112.9289321881345
 10
7.071067811865474
 20
-127.0710678118655
 10
-7.071067811865476
 20
-127.0710678118655
  0
LWPOLYLINE
  5
134
100
AcDbEntity
  8
s15
  6
ByLayer
 62
  256
370
   -1
100
AcDbPolyline
 90
    5
 70
    0
 43
0
 10
-7.071067811865477
 20
-167.0710678118655
 10
-7.071067811865475
 20
-152.9289321881345
 10
7.071067811865476
 20
-152.9289321881345
 10
7.071067811865474
 20
-167.0710678118655
 10
-7.071067811865476
 20
-167.0710678118655
  0
LWPOLYLINE
  5
135
100
AcDbEntity
  8
s15
  6
ByLayer
 62
  256
370
   -1
100
AcDbPolyline
 90
    5
 70
    0
 43
0
 10
-7.071067811865477
 20
-207.0710678118655
 10
-7.071067811865475
 20
-192.9289321881345
 10
7.071067811865476
 20
-192.9289321881345
 10
7.071067811865474
 20
-207.0710678118655
 10
-7.071067811865476
 20
-207.0710678118655
  0
LINE
  5
136
100
AcDbEntity
  8
s15
  6
ByLayer
 62
  256
370
    0
100
AcDbLine
 10
-10.0198
 20
-10.9802
 11
9.980230000000001
 21
-10.9802
  0
MTEXT
  5
137
100
AcDbEntity
  8
s90
  6
ByLayer
 62
  256
370
   -1
100
AcDbMText
 10
-10
 20
30
 30
0
 40
6
 41
13.62666666666667
 71
    1
 72
    1
  1
S15
  7
azomix
210
0
220
0
230
1
 50
0
 73
    2
 44
1
  0
MTEXT
  5
138
100
AcDbEntity
  8
s90
  6
ByLayer
 62
  256
370
   -1
100
AcDbMText
 10
30
 20
30
 30
0
 40
6
 41
14.25333333333333
 71
    1
 72
    1
  1
S30\P
  7
azomix
210
0
220
0
230
1
 50
0
 73
    2
 44
1
  0
MTEXT
  5
139
100
AcDbEntity
  8
s90
  6
ByLayer
 62
  256
370
   -1
100
AcDbMText
 10
70
 20
30
 30
0
 40
6
 41
14.66666666666667
 71
    1
 72
    1
  1
S45
  7
azomix
210
0
220
0
230
1
 50
0
 73
    2
 44
1
  0
MTEXT
  5
13A
100
AcDbEntity
  8
s90
  6
ByLayer
 62
  256
370
   -1
100
AcDbMText
 10
110
 20
30
 30
0
 40
6
 41
14.25333333333333
 71
    1
 72
    1
  1
S60
  7
azomix
210
0
220
0
230
1
 50
0
 73
    2
 44
1
  0
MTEXT
  5
13B
100
AcDbEntity
  8
s90
  6
ByLayer
 62
  256
370
   -1
100
AcDbMText
 10
150
 20
30
 30
0
 40
6
 41
14.25333333333333
 71
    1
 72
    1
  1
S75
  7
azomix
210
0
220
0
230
1
 50
0
 73
    2
 44
1
  0
MTEXT
  5
13C
100
AcDbEntity
  8
s90
  6
ByLayer
 62
  256
370
   -1
100
AcDbMText
 10
190
 20
30
 30
0
 40
6
 41
14.25333333333333
 71
    1
 72
    1
  1
S90
  7
azomix
210
0
220
0
230
1
 50
0
 73
    2
 44
1
  0
MTEXT
  5
13D
100
AcDbEntity
  8
Text
  6
ByLayer
 62
  256
370
   -1
100
AcDbMText
 10
-54.93121823978534
 20
32.09031739672514
 30
0
 40
8
 41
5.749623111111111
 71
    1
 72
    1
  1
P
  7
amiri-regular
210
0
220
0
230
1
 50
0
 73
    2
 44
1
  0
MTEXT
  5
13E
100
AcDbEntity
  8
Text
  6
ByLayer
 62
  256
370
   -1
100
AcDbMText
 10
-41.82714449101727
 20
45.72384867069596
 30
0
 40
8
 41
4.947209777777777
 71
    1
 72
    1
  1
S
  7
amiri-regular
210
0
220
0
230
1
 50
0
 73
    2
 44
1
  0
MTEXT
  5
13F
100
AcDbEntity
  8
s90
  6
ByLayer
 62
  256
370
   -1
100
AcDbMText
 10
-55.85135019209446
 20
-197.8411472030605
 30
0
 40
6
 41
14.04666666666667
 71
    1
 72
    1
  1
P90
  7
azomix
210
0
220
0
230
1
 50
0
 73
    2
 44
1
  0
MTEXT
  5
140
100
AcDbEntity
  8
s90
  6
ByLayer
 62
  256
370
   -1
100
AcDbMText
 10
-55.85135019209446
 20
-117.6812778873642
 30
0
 40
6
 41
14.04666666666667
 71
    1
 72
    1
  1
P60
  7
azomix
210
0
220
0
230
1
 50
0
 73
    2
 44
1
  0
MTEXT
  5
141
100
AcDbEntity
  8
s90
  6
ByLayer
 62
  256
370
   -1
100
AcDbMText
 10
-56.26468352542779
 20
-78.39552951731962
 30
0
 40
6
 41
14.46
 71
    1
 72
    1
  1
P45
  7
azomix
210
0
220
0
230
1
 50
0
 73
    2
 44
1
  0
MTEXT
  5
142
100
AcDbEntity
  8
s90
  6
ByLayer
 62
  256
370
   -1
100
AcDbMText
 10
-55.85135019209446
 20
-37.54788144792688
 30
0
 40
6
 41
14.04666666666667
 71
    1
 72
    1
  1
P30
  7
azomix
210
0
220
0
230
1
 50
0
 73
    2
 44
1
  0
MTEXT
  5
143
100
AcDbEntity
  8
s90
  6
ByLayer
 62
  256
370
   -1
100
AcDbMText
 10
-55.22468352542779
 20
2.293797323580689
 30
0
 40
6
 41
13.42
 71
    1
 72
    1
  1
P15
  7
azomix
210
0
220
0
230
1
 50
0
 73
    2
 44
1
  0
MTEXT
  5
144
100
AcDbEntity
  8
s90
  6
ByLayer
 62
  256
370
   -1
100
AcDbMText
 10
-55.85135019209446
 20
-158.2641971941563
 30
0
 40
6
 41
14.04666666666667
 71
    1
 72
    1
  1
P75
  7
azomix
210
0
220
0
230
1
 50
0
 73
    2
 44
1
  0
ENDSEC
  0
SECTION
  2
OBJECTS
  0
DICTIONARY
  5
C
330
0
100
AcDbDictionary
281
    1
  3
ACAD_GROUP
350
D
  0
DICTIONARY
  5
D
330
C
100
AcDbDictionary
281
    1
  0
ENDSEC
  0
EOF
