  0
SECTION
  2
HEADER
  9
$ACADVER
  1
AC1009
  9
$DWGCODEPAGE
  3
ansi_1252
  9
$INSBASE
 10
0.0
 20
0.0
 30
0.0
  9
$EXTMIN
 10
4798.895260803234
 20
-1197.961798958888
 30
-0.0000000000000042
  9
$EXTMAX
 10
5398.895260803234
 20
-897.9617989588876
 30
0.0000000000000001
  9
$LIMMIN
 10
0.0
 20
0.0
  9
$LIMMAX
 10
12.0
 20
9.0
  9
$ORTHOMODE
 70
     0
  9
$REGENMODE
 70
     1
  9
$FILLMODE
 70
     1
  9
$QTEXTMODE
 70
     0
  9
$MIRRTEXT
 70
     1
  9
$DRAGMODE
 70
     2
  9
$LTSCALE
 40
1.0
  9
$OSMODE
 70
    37
  9
$ATTMODE
 70
     1
  9
$TEXTSIZE
 40
0.2
  9
$TRACEWID
 40
0.05
  9
$TEXTSTYLE
  7
STANDARD
  9
$CLAYER
  8
LAYER_04
  9
$CELTYPE
  6
BYLAYER
  9
$CECOLOR
 62
   256
  9
$DIMSCALE
 40
1.0
  9
$DIMASZ
 40
0.18
  9
$DIMEXO
 40
0.0625
  9
$DIMDLI
 40
0.38
  9
$DIMRND
 40
0.0
  9
$DIMDLE
 40
0.0
  9
$DIMEXE
 40
0.18
  9
$DIMTP
 40
0.0
  9
$DIMTM
 40
0.0
  9
$DIMTXT
 40
0.18
  9
$DIMCEN
 40
0.09
  9
$DIMTSZ
 40
0.0
  9
$DIMTOL
 70
     0
  9
$DIMLIM
 70
     0
  9
$DIMTIH
 70
     1
  9
$DIMTOH
 70
     1
  9
$DIMSE1
 70
     0
  9
$DIMSE2
 70
     0
  9
$DIMTAD
 70
     0
  9
$DIMZIN
 70
     0
  9
$DIMBLK
  1

  9
$DIMASO
 70
     1
  9
$DIMSHO
 70
     1
  9
$DIMPOST
  1

  9
$DIMAPOST
  1

  9
$DIMALT
 70
     0
  9
$DIMALTD
 70
     2
  9
$DIMALTF
 40
25.4
  9
$DIMLFAC
 40
1.0
  9
$DIMTOFL
 70
     0
  9
$DIMTVP
 40
0.0
  9
$DIMTIX
 70
     0
  9
$DIMSOXD
 70
     0
  9
$DIMSAH
 70
     0
  9
$DIMBLK1
  1

  9
$DIMBLK2
  1

  9
$DIMSTYLE
  2
STANDARD
  9
$DIMCLRD
 70
     0
  9
$DIMCLRE
 70
     0
  9
$DIMCLRT
 70
     0
  9
$DIMTFAC
 40
1.0
  9
$DIMGAP
 40
0.09
  9
$LUNITS
 70
     2
  9
$LUPREC
 70
     2
  9
$SKETCHINC
 40
0.1
  9
$FILLETRAD
 40
0.5
  9
$AUNITS
 70
     0
  9
$AUPREC
 70
     0
  9
$MENU
  1
.
  9
$ELEVATION
 40
0.0
  9
$PELEVATION
 40
0.0
  9
$THICKNESS
 40
0.0
  9
$LIMCHECK
 70
     0
  9
$CHAMFERA
 40
0.0
  9
$CHAMFERB
 40
0.0
  9
$SKPOLY
 70
     0
  9
$TDCREATE
 40
2457943.968176458
  9
$TDUPDATE
 40
2457943.968228843
  9
$TDINDWG
 40
0.0000000116
  9
$TDUSRTIMER
 40
0.0000000116
  9
$USRTIMER
 70
     1
  9
$ANGBASE
 50
0.0
  9
$ANGDIR
 70
     0
  9
$PDMODE
 70
     0
  9
$PDSIZE
 40
0.0
  9
$PLINEWID
 40
0.0
  9
$COORDS
 70
     1
  9
$SPLFRAME
 70
     0
  9
$SPLINETYPE
 70
     6
  9
$SPLINESEGS
 70
     8
  9
$ATTDIA
 70
     0
  9
$ATTREQ
 70
     1
  9
$HANDLING
 70
     1
  9
$HANDSEED
  5
427
  9
$SURFTAB1
 70
     6
  9
$SURFTAB2
 70
     6
  9
$SURFTYPE
 70
     6
  9
$SURFU
 70
     6
  9
$SURFV
 70
     6
  9
$UCSNAME
  2

  9
$UCSORG
 10
0.0
 20
0.0
 30
0.0
  9
$UCSXDIR
 10
1.0
 20
0.0
 30
0.0
  9
$UCSYDIR
 10
0.0
 20
1.0
 30
0.0
  9
$PUCSNAME
  2

  9
$PUCSORG
 10
0.0
 20
0.0
 30
0.0
  9
$PUCSXDIR
 10
1.0
 20
0.0
 30
0.0
  9
$PUCSYDIR
 10
0.0
 20
1.0
 30
0.0
  9
$USERI1
 70
     0
  9
$USERI2
 70
     0
  9
$USERI3
 70
     0
  9
$USERI4
 70
     0
  9
$USERI5
 70
     0
  9
$USERR1
 40
0.0
  9
$USERR2
 40
0.0
  9
$USERR3
 40
0.0
  9
$USERR4
 40
0.0
  9
$USERR5
 40
0.0
  9
$WORLDVIEW
 70
     1
  9
$SHADEDGE
 70
     3
  9
$SHADEDIF
 70
    70
  9
$TILEMODE
 70
     1
  9
$MAXACTVP
 70
    64
  9
$PLIMCHECK
 70
     0
  9
$PEXTMIN
 10
1.000000000000000E+20
 20
1.000000000000000E+20
 30
1.000000000000000E+20
  9
$PEXTMAX
 10
-1.000000000000000E+20
 20
-1.000000000000000E+20
 30
-1.000000000000000E+20
  9
$PLIMMIN
 10
0.0
 20
0.0
  9
$PLIMMAX
 10
12.0
 20
9.0
  9
$UNITMODE
 70
     0
  9
$VISRETAIN
 70
     1
  9
$PLINEGEN
 70
     0
  9
$PSLTSCALE
 70
     1
  0
ENDSEC
  0
SECTION
  2
TABLES
  0
TABLE
  2
VPORT
 70
     1
  0
VPORT
  2
*ACTIVE
 70
     0
 10
0.0
 20
0.0
 11
1.0
 21
1.0
 12
5098.895260803234
 22
-1047.961798958888
 13
0.0
 23
0.0
 14
0.5
 24
0.5
 15
0.5
 25
0.5
 16
0.0
 26
0.0
 36
1.0
 17
0.0
 27
0.0
 37
0.0
 40
306.0
 41
2.0
 42
50.0
 43
0.0
 44
0.0
 50
0.0
 51
0.0
 71
     0
 72
   100
 73
     1
 74
     3
 75
     0
 76
     0
 77
     0
 78
     0
  0
ENDTAB
  0
TABLE
  2
LTYPE
 70
     1
  0
LTYPE
  2
CONTINUOUS
 70
     0
  3
Solid line
 72
    65
 73
     0
 40
0.0
  0
ENDTAB
  0
TABLE
  2
LAYER
 70
     3
  0
LAYER
  2
0
 70
     0
 62
     7
  6
CONTINUOUS
  0
LAYER
  2
LAYER_04
 70
     0
 62
    96
  6
CONTINUOUS
  0
LAYER
  2
LAYER_01
 70
     0
 62
    12
  6
CONTINUOUS
  0
ENDTAB
  0
TABLE
  2
STYLE
 70
     1
  0
STYLE
  2
STANDARD
 70
     0
 40
0.0
 41
1.0
 50
0.0
 71
     0
 42
0.2
  3
txt
  4

  0
ENDTAB
  0
TABLE
  2
VIEW
 70
     0
  0
ENDTAB
  0
TABLE
  2
UCS
 70
     0
  0
ENDTAB
  0
TABLE
  2
APPID
 70
     1
  0
APPID
  2
ACAD
 70
     0
  0
ENDTAB
  0
TABLE
  2
DIMSTYLE
 70
     1
  0
DIMSTYLE
  2
STANDARD
 70
     0
  3

  4

  5

  6

  7

 40
1.0
 41
0.18
 42
0.0625
 43
0.38
 44
0.18
 45
0.0
 46
0.0
 47
0.0
 48
0.0
140
0.18
141
0.09
142
0.0
143
25.4
144
1.0
145
0.0
146
1.0
147
0.09
 71
     0
 72
     0
 73
     1
 74
     1
 75
     0
 76
     0
 77
     0
 78
     0
170
     0
171
     2
172
     0
173
     0
174
     0
175
     0
176
     0
177
     0
178
     0
  0
ENDTAB
  0
ENDSEC
  0
SECTION
  2
BLOCKS
  0
BLOCK
  8
0
  2
$MODEL_SPACE
 70
     0
 10
0.0
 20
0.0
 30
0.0
  3
$MODEL_SPACE
  1

  0
ENDBLK
  5
21
  8
0
  0
BLOCK
 67
     1
  8
0
  2
$PAPER_SPACE
 70
     0
 10
0.0
 20
0.0
 30
0.0
  3
$PAPER_SPACE
  1

  0
ENDBLK
  5
1D
 67
     1
  8
0
  0
ENDSEC
  0
SECTION
  2
ENTITIES
  0
CIRCLE
  5
6B
  8
LAYER_04
 10
4888.895260803234
 20
-907.4617989588878
 30
0.0
 40
1.75
  0
CIRCLE
  5
6C
  8
LAYER_04
 10
4864.895260803234
 20
-907.4617989588878
 30
0.0
 40
1.750000000000227
  0
CIRCLE
  5
6D
  8
LAYER_04
 10
4839.206837279167
 20
-907.4617989588876
 30
0.0
 40
1.749999999999773
  0
CIRCLE
  5
6E
  8
LAYER_04
 10
4814.469836848582
 20
-907.4617989588878
 30
0.0
 40
1.750000000000227
  0
LINE
  5
70
  8
LAYER_01
 10
4804.469836848582
 20
-902.9617989588876
 30
0.0
 11
4804.469836848582
 21
-905.9617989588876
 31
0.0
  0
LINE
  5
71
  8
LAYER_01
 10
4804.469836848582
 20
-905.9617989588876
 30
0.0
 11
4810.227196161463
 21
-905.9617989588876
 31
0.0
  0
ARC
  5
72
  8
LAYER_01
 10
4814.469836848582
 20
-907.4617989588876
 30
0.0
 40
4.5
 50
160.5287793655071
 51
19.47122063449151
  0
LINE
  5
73
  8
LAYER_01
 10
4818.712477535702
 20
-905.9617989588876
 30
0.0
 11
4824.469836848582
 21
-905.9617989588876
 31
0.0
  0
LINE
  5
74
  8
LAYER_01
 10
4824.469836848582
 20
-905.9617989588876
 30
0.0
 11
4824.469836848582
 21
-902.9617989588876
 31
0.0
  0
LINE
  5
75
  8
LAYER_01
 10
4824.469836848582
 20
-902.9617989588876
 30
0.0
 11
4804.469836848582
 21
-902.9617989588876
 31
0.0
  0
LINE
  5
76
  8
LAYER_01
 10
4829.206837279166
 20
-902.9617989588876
 30
0.0
 11
4829.206837279166
 21
-905.9617989588876
 31
0.0
  0
LINE
  5
77
  8
LAYER_01
 10
4829.206837279166
 20
-905.9617989588876
 30
0.0
 11
4834.964196592047
 21
-905.9617989588876
 31
0.0
  0
ARC
  5
78
  8
LAYER_01
 10
4839.206837279166
 20
-907.4617989588876
 30
0.0
 40
4.5
 50
160.5287793655071
 51
19.47122063449151
  0
LINE
  5
79
  8
LAYER_01
 10
4843.449477966285
 20
-905.9617989588876
 30
0.0
 11
4849.206837279166
 21
-905.9617989588876
 31
0.0
  0
LINE
  5
7A
  8
LAYER_01
 10
4849.206837279166
 20
-905.9617989588876
 30
0.0
 11
4849.206837279166
 21
-902.9617989588876
 31
0.0
  0
LINE
  5
7B
  8
LAYER_01
 10
4849.206837279166
 20
-902.9617989588876
 30
0.0
 11
4829.206837279166
 21
-902.9617989588876
 31
0.0
  0
LINE
  5
7C
  8
LAYER_01
 10
4854.895260803234
 20
-902.9617989588876
 30
0.0
 11
4854.895260803234
 21
-905.9617989588876
 31
0.0
  0
LINE
  5
7D
  8
LAYER_01
 10
4854.895260803234
 20
-905.9617989588876
 30
0.0
 11
4860.652620116115
 21
-905.9617989588876
 31
0.0
  0
ARC
  5
7E
  8
LAYER_01
 10
4864.895260803234
 20
-907.4617989588876
 30
0.0
 40
4.5
 50
160.5287793655071
 51
19.47122063449151
  0
LINE
  5
7F
  8
LAYER_01
 10
4869.137901490354
 20
-905.9617989588876
 30
0.0
 11
4874.895260803234
 21
-905.9617989588876
 31
0.0
  0
LINE
  5
80
  8
LAYER_01
 10
4874.895260803234
 20
-905.9617989588876
 30
0.0
 11
4874.895260803234
 21
-902.9617989588876
 31
0.0
  0
LINE
  5
81
  8
LAYER_01
 10
4874.895260803234
 20
-902.9617989588876
 30
0.0
 11
4854.895260803234
 21
-902.9617989588876
 31
0.0
  0
LINE
  5
82
  8
LAYER_01
 10
4878.895260803234
 20
-902.9617989588876
 30
0.0
 11
4878.895260803234
 21
-905.9617989588876
 31
0.0
  0
LINE
  5
83
  8
LAYER_01
 10
4878.895260803234
 20
-905.9617989588876
 30
0.0
 11
4884.652620116115
 21
-905.9617989588876
 31
0.0
  0
ARC
  5
84
  8
LAYER_01
 10
4888.895260803234
 20
-907.4617989588876
 30
0.0
 40
4.5
 50
160.5287793655071
 51
19.47122063449151
  0
LINE
  5
85
  8
LAYER_01
 10
4893.137901490354
 20
-905.9617989588876
 30
0.0
 11
4898.895260803234
 21
-905.9617989588876
 31
0.0
  0
LINE
  5
86
  8
LAYER_01
 10
4898.895260803234
 20
-905.9617989588876
 30
0.0
 11
4898.895260803234
 21
-902.9617989588876
 31
0.0
  0
LINE
  5
87
  8
LAYER_01
 10
4898.895260803234
 20
-902.9617989588876
 30
0.0
 11
4878.895260803234
 21
-902.9617989588876
 31
0.0
  0
LINE
  5
88
  8
LAYER_04
 10
4798.895260803234
 20
-1197.961798958888
 30
0.0
 11
5398.895260803234
 21
-1197.961798958888
 31
0.0
  0
LINE
  5
89
  8
LAYER_04
 10
5398.895260803234
 20
-1197.961798958888
 30
0.0
 11
5398.895260803234
 21
-897.9617989588876
 31
0.0
  0
LINE
  5
8A
  8
LAYER_04
 10
5398.895260803234
 20
-897.9617989588876
 30
0.0
 11
4798.895260803234
 21
-897.9617989588876
 31
0.0
  0
LINE
  5
8B
  8
LAYER_04
 10
4798.895260803234
 20
-897.9617989588876
 30
0.0
 11
4798.895260803234
 21
-1197.961798958888
 31
0.0
  0
LINE
  5
8C
  8
LAYER_01
 10
5186.03428413722
 20
-1148.093483383054
 30
0.0
 11
5105.205223860147
 21
-1008.093483383054
 31
0.0
  0
LINE
  5
8D
  8
LAYER_01
 10
5105.205223860147
 20
-1008.093483383054
 30
0.0
 11
5266.863344414293
 21
-1008.093483383054
 31
0.0
  0
LINE
  5
8E
  8
LAYER_01
 10
5266.863344414293
 20
-1008.093483383054
 30
0.0
 11
5186.03428413722
 21
-1148.093483383054
 31
0.0
  0
LINE
  5
8F
  8
LAYER_01
 10
5186.034250251431
 20
-1148.093502947017
 30
0.0
 11
5105.205257745935
 21
-1008.09346381909
 31
0.0
  0
LINE
  5
90
  8
LAYER_01
 10
5105.205257745935
 20
-1008.09346381909
 30
0.0
 11
5024.37617487835
 21
-1054.760091357808
 31
0.0
  0
LINE
  5
91
  8
LAYER_01
 10
5024.37617487835
 20
-1054.760091357808
 30
0.0
 11
5186.034250251431
 21
-1148.093502947017
 31
0.0
  0
LINE
  5
92
  8
LAYER_01
 10
5105.205257745935
 20
-1008.09346381909
 30
0.0
 11
5266.863344414293
 21
-1008.093483383054
 31
0.0
  0
LINE
  5
93
  8
LAYER_01
 10
5266.863344414293
 20
-1008.093483383054
 30
0.0
 11
5266.863378300081
 21
-914.7601304857576
 31
0.0
  0
LINE
  5
94
  8
LAYER_01
 10
5266.863378300081
 20
-914.7601304857576
 30
0.0
 11
5105.205257745935
 21
-1008.09346381909
 31
0.0
  0
LINE
  5
95
  8
LAYER_01
 10
5266.863344414293
 20
-1008.093483383054
 30
0.0
 11
5186.034267194332
 21
-1148.093473601069
 31
0.0
  0
LINE
  5
96
  8
LAYER_01
 10
5186.034267194332
 20
-1148.093473601069
 30
0.0
 11
5266.863299233238
 21
-1194.760189177653
 31
0.0
  0
LINE
  5
97
  8
LAYER_01
 10
5266.863299233238
 20
-1194.760189177653
 30
0.0
 11
5266.863344414293
 21
-1008.093483383054
 31
0.0
  0
LINE
  5
98
  8
LAYER_04
 10
5049.182413182126
 20
-1044.760091357808
 30
0.0
 11
5046.682413182126
 21
-1044.760091357808
 31
0.0
  0
LINE
  5
99
  8
LAYER_04
 10
5046.682413182126
 20
-1044.760091357808
 30
0.0
 11
5046.682413182126
 21
-1047.260091357808
 31
0.0
  0
LINE
  5
9A
  8
LAYER_04
 10
5046.682413182126
 20
-1047.260091357808
 30
0.0
 11
5049.182413182126
 21
-1047.260091357808
 31
0.0
  0
LINE
  5
9B
  8
LAYER_04
 10
5049.182413182126
 20
-1047.260091357808
 30
0.0
 11
5049.182413182126
 21
-1044.760091357808
 31
0.0
  0
LINE
  5
9C
  8
LAYER_04
 10
5049.182413182126
 20
-1062.260091357808
 30
0.0
 11
5046.682413182126
 21
-1062.260091357808
 31
0.0
  0
LINE
  5
9D
  8
LAYER_04
 10
5046.682413182126
 20
-1062.260091357808
 30
0.0
 11
5046.682413182126
 21
-1064.760091357808
 31
0.0
  0
LINE
  5
9E
  8
LAYER_04
 10
5046.682413182126
 20
-1064.760091357808
 30
0.0
 11
5049.182413182126
 21
-1064.760091357808
 31
0.0
  0
LINE
  5
9F
  8
LAYER_04
 10
5049.182413182126
 20
-1064.760091357808
 30
0.0
 11
5049.182413182126
 21
-1062.260091357808
 31
0.0
  0
LINE
  5
A0
  8
LAYER_04
 10
5260.955373203668
 20
-1169.52736713122
 30
0.0
 11
5262.205373465686
 21
-1171.692430489405
 31
0.0
  0
LINE
  5
A1
  8
LAYER_04
 10
5262.205373465686
 20
-1171.692430489405
 30
0.0
 11
5264.370436823871
 21
-1170.442430227387
 31
0.0
  0
LINE
  5
A2
  8
LAYER_04
 10
5264.370436823871
 20
-1170.442430227387
 30
0.0
 11
5263.120436561853
 21
-1168.277366869203
 31
0.0
  0
LINE
  5
A3
  8
LAYER_04
 10
5263.120436561853
 20
-1168.277366869203
 30
0.0
 11
5260.955373203668
 21
-1169.52736713122
 31
0.0
  0
LINE
  5
A4
  8
LAYER_04
 10
5245.799929696372
 20
-1178.277368965341
 30
0.0
 11
5247.049929958389
 21
-1180.442432323526
 31
0.0
  0
LINE
  5
A5
  8
LAYER_04
 10
5247.049929958389
 20
-1180.442432323526
 30
0.0
 11
5249.214993316574
 21
-1179.192432061509
 31
0.0
  0
LINE
  5
A6
  8
LAYER_04
 10
5249.214993316574
 20
-1179.192432061509
 30
0.0
 11
5247.964993054557
 21
-1177.027368703324
 31
0.0
  0
LINE
  5
A7
  8
LAYER_04
 10
5247.964993054557
 20
-1177.027368703324
 30
0.0
 11
5245.799929696372
 21
-1178.277368965341
 31
0.0
  0
LINE
  5
A8
  8
LAYER_04
 10
5247.965065118215
 20
-932.4929750982301
 30
0.0
 11
5249.215064856197
 21
-930.3279114374927
 31
0.0
  0
LINE
  5
A9
  8
LAYER_04
 10
5249.215064856197
 20
-930.3279114374927
 30
0.0
 11
5247.05000119546
 21
-929.07791169951
 31
0.0
  0
LINE
  5
AA
  8
LAYER_04
 10
5247.05000119546
 20
-929.07791169951
 30
0.0
 11
5245.800001457478
 21
-931.2429753602473
 31
0.0
  0
LINE
  5
AB
  8
LAYER_04
 10
5245.800001457478
 20
-931.2429753602473
 30
0.0
 11
5247.965065118215
 21
-932.4929750982301
 31
0.0
  0
LINE
  5
AC
  8
LAYER_04
 10
5263.120510743373
 20
-941.2429732641076
 30
0.0
 11
5264.370510481355
 21
-939.0779096033702
 31
0.0
  0
LINE
  5
AD
  8
LAYER_04
 10
5264.370510481355
 20
-939.0779096033702
 30
0.0
 11
5262.205446820619
 21
-937.8279098653875
 31
0.0
  0
LINE
  5
AE
  8
LAYER_04
 10
5262.205446820619
 20
-937.8279098653875
 30
0.0
 11
5260.955447082636
 21
-939.9929735261248
 31
0.0
  0
LINE
  5
AF
  8
LAYER_04
 10
5260.955447082636
 20
-939.9929735261248
 30
0.0
 11
5263.120510743373
 21
-941.2429732641076
 31
0.0
  0
CIRCLE
  5
B0
  8
LAYER_04
 10
5149.63179418572
 20
-1073.437795426019
 30
0.0
 40
1.350000000000482
  0
CIRCLE
  5
B1
  8
LAYER_04
 10
5140.25420713449
 20
-1078.934293519437
 30
0.0
 40
1.350000000001033
  0
CIRCLE
  5
B2
  8
LAYER_04
 10
5187.988894018225
 20
-1003.026368406742
 30
0.0
 40
1.350000000001033
  0
CIRCLE
  5
B3
  8
LAYER_04
 10
5188.060208788796
 20
-1013.895846057386
 30
0.0
 40
1.350000000000482
  0
CIRCLE
  5
B4
  8
LAYER_04
 10
5229.85975166866
 20
-1082.319777378862
 30
0.0
 40
1.350000000001033
  0
CIRCLE
  5
B5
  8
LAYER_04
 10
5220.410849861808
 20
-1076.94680010003
 30
0.0
 40
1.350000000000482
  0
CIRCLE
  5
B6
  8
LAYER_04
 10
5186.03428413722
 20
-1054.760150049721
 30
0.0
 40
0.5
  0
CIRCLE
  5
B7
  8
LAYER_04
 10
5271.978600643011
 20
-1101.245113591037
 30
0.0
 40
1.350000000001033
  0
CIRCLE
  5
B8
  8
LAYER_04
 10
5261.108889046361
 20
-1101.245113591036
 30
0.0
 40
1.350000000000482
  0
CIRCLE
  5
B9
  8
LAYER_04
 10
5188.754151684584
 20
-966.5011535778272
 30
0.0
 40
1.350000000000482
  0
CIRCLE
  5
BA
  8
LAYER_04
 10
5183.319297025481
 20
-957.0877065455875
 30
0.0
 40
1.350000000001033
  0
CIRCLE
  5
BB
  8
LAYER_04
 10
5108.239819834117
 20
-1096.534178602091
 30
0.0
 40
1.350000000000482
  0
CIRCLE
  5
BC
  8
LAYER_04
 10
5102.80496346618
 20
-1105.947624647735
 30
0.0
 40
1.350000000001033
  0
LINE
  5
BD
  8
LAYER_04
 10
5173.206050810903
 20
-1046.513466945507
 30
0.0
 11
5178.206050810903
 21
-1046.513466945507
 31
0.0
  0
LINE
  5
BE
  8
LAYER_04
 10
5178.206050810903
 20
-1046.513466945507
 30
0.0
 11
5178.206050810903
 21
-1044.013466945507
 31
0.0
  0
LINE
  5
BF
  8
LAYER_04
 10
5178.206050810903
 20
-1044.013466945507
 30
0.0
 11
5173.206050810903
 21
-1044.013466945507
 31
0.0
  0
LINE
  5
C0
  8
LAYER_04
 10
5173.206050810903
 20
-1044.013466945507
 30
0.0
 11
5173.206050810903
 21
-1046.513466945507
 31
0.0
  0
LINE
  5
C1
  8
LAYER_04
 10
5204.335776239402
 20
-1046.513466945507
 30
0.0
 11
5209.335776239402
 21
-1046.513466945507
 31
0.0
  0
LINE
  5
C2
  8
LAYER_04
 10
5209.335776239402
 20
-1046.513466945507
 30
0.0
 11
5209.335776239402
 21
-1044.013466945507
 31
0.0
  0
LINE
  5
C3
  8
LAYER_04
 10
5209.335776239402
 20
-1044.013466945507
 30
0.0
 11
5204.335776239402
 21
-1044.013466945507
 31
0.0
  0
LINE
  5
C4
  8
LAYER_04
 10
5204.335776239402
 20
-1044.013466945507
 30
0.0
 11
5204.335776239402
 21
-1046.513466945507
 31
0.0
  0
CIRCLE
  5
C5
  8
LAYER_04
 10
5302.583811948145
 20
-975.1195931742205
 30
0.0
 40
2.575090758339845
  0
CIRCLE
  5
C6
  8
LAYER_04
 10
5359.759306399032
 20
-975.1195922229441
 30
0.0
 40
2.575090758339845
  0
CIRCLE
  5
C7
  8
LAYER_04
 10
5331.171564342148
 20
-925.6041585704701
 30
0.0
 40
2.575090758339845
  0
LINE
  5
C8
  8
LAYER_01
 10
5334.635665715245
 20
-919.6372424659046
 30
0.0
 11
5366.658853478245
 21
-975.1030461936115
 31
0.0
  0
ARC
  5
C9
  8
LAYER_01
 10
5363.194751621067
 20
-977.103045774384
 30
0.0
 40
4.0
 50
270.0000069339796
 51
29.99999306603981
  0
LINE
  5
CA
  8
LAYER_01
 10
5363.19475210515
 20
-981.103045774384
 30
0.0
 11
5299.148363154134
 21
-981.1030535253213
 31
0.0
  0
ARC
  5
CB
  8
LAYER_01
 10
5299.148362670051
 20
-977.1030535253213
 30
0.0
 40
4.0
 50
150.0000000000027
 51
270.0000069339796
  0
LINE
  5
CC
  8
LAYER_01
 10
5295.684261054913
 20
-975.1030535253213
 30
0.0
 11
5327.707462242927
 21
-919.637242046677
 31
0.0
  0
ARC
  5
CD
  8
LAYER_01
 10
5331.171563858065
 20
-921.6372420466769
 30
0.0
 40
4.0
 50
29.99999306602765
 51
150.0000000000041
  0
LINE
  5
CE
  8
LAYER_01
 10
4937.723135731077
 20
-965.19244594974
 30
0.0000000000000001
 11
4934.223135731075
 21
-965.1924459497401
 31
0.0
  0
ARC
  5
CF
  8
LAYER_01
 10
4934.223135731075
 20
-963.6924459497401
 30
0.0
 40
1.5
 50
180.0
 51
270.0
  0
ARC
  5
D0
  8
LAYER_01
 10
4934.223135731075
 20
-963.6924459497401
 30
0.0
 40
1.5
 50
90.0
 51
180.0
  0
LINE
  5
D1
  8
LAYER_01
 10
4934.223135731075
 20
-962.1924459497401
 30
0.0
 11
4937.223135731075
 21
-962.1924459497402
 31
0.0
  0
ARC
  5
D2
  8
LAYER_01
 10
4937.223135731074
 20
-960.6924459497402
 30
0.0
 40
1.5
 50
270.0000000000347
 51
0.0
  0
ARC
  5
D3
  8
LAYER_01
 10
4937.223135731074
 20
-960.692445949741
 30
0.0
 40
1.500000000000114
 50
0.0000000000303976
 51
89.99999999996527
  0
LINE
  5
D4
  8
LAYER_01
 10
4937.223135731075
 20
-959.1924459497409
 30
0.0
 11
4808.747939427188
 21
-959.1924459497401
 31
0.0
  0
ARC
  5
D5
  8
LAYER_01
 10
4808.747939427187
 20
-960.6924459497401
 30
0.0
 40
1.5
 50
89.99999999996527
 51
180.0
  0
ARC
  5
D6
  8
LAYER_01
 10
4808.747939427187
 20
-960.6924459497402
 30
0.0
 40
1.5
 50
179.9999999999957
 51
269.9999999999652
  0
LINE
  5
D7
  8
LAYER_01
 10
4808.747939427186
 20
-962.1924459497402
 30
0.0
 11
4811.747939427188
 21
-962.1924459497401
 31
0.0
  0
ARC
  5
D8
  8
LAYER_01
 10
4811.747939427188
 20
-963.69244594974
 30
0.0
 40
1.499999999999886
 50
359.9999999999392
 51
90.0
  0
ARC
  5
D9
  8
LAYER_01
 10
4811.747939427188
 20
-963.6924459497416
 30
0.0
 40
1.5
 50
270.0000000000347
 51
0.0
  0
LINE
  5
DA
  8
LAYER_01
 10
4811.747939427189
 20
-965.1924459497416
 30
0.0
 11
4808.24793942719
 21
-965.1924459497405
 31
0.0000000000000001
  0
ARC
  5
DB
  8
LAYER_01
 10
4808.247939427188
 20
-961.1924459497405
 30
-0.0000000000000001
 40
4.0
 50
179.9999999999756
 51
270.0000000000391
  0
LINE
  5
DC
  8
LAYER_01
 10
4804.247939427188
 20
-961.1924459497388
 30
0.0
 11
4804.247939427189
 21
-959.192445949741
 31
0.0
  0
ARC
  5
DD
  8
LAYER_01
 10
4808.247939427189
 20
-959.1924459497401
 30
-0.0000000000000042
 40
4.0
 50
90.0
 51
180.000000000013
  0
LINE
  5
DE
  8
LAYER_01
 10
4808.247939427189
 20
-955.1924459497401
 30
-0.0000000000000042
 11
4937.723135731074
 21
-955.1924459497432
 31
-0.0000000000000007
  0
ARC
  5
DF
  8
LAYER_01
 10
4937.723135731073
 20
-959.1924459497432
 30
-0.0000000000000007
 40
4.0
 50
0.0000000000048853
 51
89.99999999998697
  0
LINE
  5
E0
  8
LAYER_01
 10
4941.723135731073
 20
-959.1924459497428
 30
0.0
 11
4941.723135731075
 21
-961.1924459497397
 31
0.0
  0
ARC
  5
E1
  8
LAYER_01
 10
4937.723135731075
 20
-961.19244594974
 30
-0.0000000000000001
 40
4.0
 50
270.0000000000391
 51
0.0000000000032569
  0
LINE
  5
E2
  8
LAYER_01
 10
4937.723135731077
 20
-952.8481169467547
 30
0.0000000000000001
 11
4934.223135731075
 21
-952.8481169467548
 31
0.0
  0
ARC
  5
E3
  8
LAYER_01
 10
4934.223135731075
 20
-951.3481169467548
 30
0.0
 40
1.5
 50
180.0
 51
270.0
  0
ARC
  5
E4
  8
LAYER_01
 10
4934.223135731075
 20
-951.3481169467548
 30
0.0
 40
1.5
 50
90.0
 51
180.0
  0
LINE
  5
E5
  8
LAYER_01
 10
4934.223135731075
 20
-949.8481169467548
 30
0.0
 11
4937.223135731075
 21
-949.8481169467549
 31
0.0
  0
ARC
  5
E6
  8
LAYER_01
 10
4937.223135731074
 20
-948.3481169467549
 30
0.0
 40
1.5
 50
270.0000000000347
 51
0.0
  0
ARC
  5
E7
  8
LAYER_01
 10
4937.223135731074
 20
-948.3481169467557
 30
0.0
 40
1.500000000000114
 50
0.0000000000303976
 51
89.99999999996527
  0
LINE
  5
E8
  8
LAYER_01
 10
4937.223135731075
 20
-946.8481169467556
 30
0.0
 11
4808.747939427188
 21
-946.8481169467548
 31
0.0
  0
ARC
  5
E9
  8
LAYER_01
 10
4808.747939427187
 20
-948.3481169467548
 30
0.0
 40
1.5
 50
89.99999999996527
 51
180.0
  0
ARC
  5
EA
  8
LAYER_01
 10
4808.747939427187
 20
-948.3481169467549
 30
0.0
 40
1.5
 50
179.9999999999957
 51
269.9999999999652
  0
LINE
  5
EB
  8
LAYER_01
 10
4808.747939427186
 20
-949.8481169467549
 30
0.0
 11
4811.747939427188
 21
-949.8481169467548
 31
0.0
  0
ARC
  5
EC
  8
LAYER_01
 10
4811.747939427188
 20
-951.3481169467547
 30
0.0
 40
1.499999999999886
 50
359.9999999999392
 51
90.0
  0
ARC
  5
ED
  8
LAYER_01
 10
4811.747939427188
 20
-951.3481169467562
 30
0.0
 40
1.5
 50
270.0000000000347
 51
0.0
  0
LINE
  5
EE
  8
LAYER_01
 10
4811.747939427189
 20
-952.8481169467562
 30
0.0
 11
4808.24793942719
 21
-952.8481169467552
 31
0.0000000000000001
  0
ARC
  5
EF
  8
LAYER_01
 10
4808.247939427188
 20
-948.8481169467552
 30
-0.0000000000000001
 40
4.0
 50
179.9999999999756
 51
270.0000000000391
  0
LINE
  5
F0
  8
LAYER_01
 10
4804.247939427188
 20
-948.8481169467535
 30
0.0
 11
4804.247939427189
 21
-946.8481169467557
 31
0.0
  0
ARC
  5
F1
  8
LAYER_01
 10
4808.247939427189
 20
-946.8481169467548
 30
-0.0000000000000042
 40
4.0
 50
90.0
 51
180.000000000013
  0
LINE
  5
F2
  8
LAYER_01
 10
4808.247939427189
 20
-942.8481169467548
 30
-0.0000000000000042
 11
4937.723135731074
 21
-942.8481169467578
 31
-0.0000000000000007
  0
ARC
  5
F3
  8
LAYER_01
 10
4937.723135731073
 20
-946.8481169467578
 30
-0.0000000000000007
 40
4.0
 50
0.0000000000048853
 51
89.99999999998697
  0
LINE
  5
F4
  8
LAYER_01
 10
4941.723135731073
 20
-946.8481169467575
 30
0.0
 11
4941.723135731075
 21
-948.8481169467544
 31
0.0
  0
ARC
  5
F5
  8
LAYER_01
 10
4937.723135731075
 20
-948.8481169467547
 30
-0.0000000000000001
 40
4.0
 50
270.0000000000391
 51
0.0000000000032569
  0
LINE
  5
F6
  8
LAYER_01
 10
4937.723135731077
 20
-940.5037879437693
 30
0.0000000000000001
 11
4934.223135731075
 21
-940.5037879437695
 31
0.0
  0
ARC
  5
F7
  8
LAYER_01
 10
4934.223135731075
 20
-939.0037879437695
 30
0.0
 40
1.5
 50
180.0
 51
270.0
  0
ARC
  5
F8
  8
LAYER_01
 10
4934.223135731075
 20
-939.0037879437695
 30
0.0
 40
1.5
 50
90.0
 51
180.0
  0
LINE
  5
F9
  8
LAYER_01
 10
4934.223135731075
 20
-937.5037879437695
 30
0.0
 11
4937.223135731075
 21
-937.5037879437696
 31
0.0
  0
ARC
  5
FA
  8
LAYER_01
 10
4937.223135731074
 20
-936.0037879437696
 30
0.0
 40
1.5
 50
270.0000000000347
 51
0.0
  0
ARC
  5
FB
  8
LAYER_01
 10
4937.223135731074
 20
-936.0037879437704
 30
0.0
 40
1.500000000000114
 50
0.0000000000303976
 51
89.99999999996527
  0
LINE
  5
FC
  8
LAYER_01
 10
4937.223135731075
 20
-934.5037879437702
 30
0.0
 11
4808.747939427188
 21
-934.5037879437695
 31
0.0
  0
ARC
  5
FD
  8
LAYER_01
 10
4808.747939427187
 20
-936.0037879437695
 30
0.0
 40
1.5
 50
89.99999999996527
 51
180.0
  0
ARC
  5
FE
  8
LAYER_01
 10
4808.747939427187
 20
-936.0037879437696
 30
0.0
 40
1.5
 50
179.9999999999957
 51
269.9999999999652
  0
LINE
  5
FF
  8
LAYER_01
 10
4808.747939427186
 20
-937.5037879437696
 30
0.0
 11
4811.747939427188
 21
-937.5037879437695
 31
0.0
  0
ARC
  5
100
  8
LAYER_01
 10
4811.747939427188
 20
-939.0037879437693
 30
0.0
 40
1.499999999999886
 50
359.9999999999392
 51
90.0
  0
ARC
  5
101
  8
LAYER_01
 10
4811.747939427188
 20
-939.0037879437709
 30
0.0
 40
1.5
 50
270.0000000000347
 51
0.0
  0
LINE
  5
102
  8
LAYER_01
 10
4811.747939427189
 20
-940.5037879437709
 30
0.0
 11
4808.24793942719
 21
-940.5037879437699
 31
0.0000000000000001
  0
ARC
  5
103
  8
LAYER_01
 10
4808.247939427188
 20
-936.5037879437699
 30
-0.0000000000000001
 40
4.0
 50
179.9999999999756
 51
270.0000000000391
  0
LINE
  5
104
  8
LAYER_01
 10
4804.247939427188
 20
-936.5037879437682
 30
0.0
 11
4804.247939427189
 21
-934.5037879437704
 31
0.0
  0
ARC
  5
105
  8
LAYER_01
 10
4808.247939427189
 20
-934.5037879437695
 30
-0.0000000000000042
 40
4.0
 50
90.0
 51
180.000000000013
  0
LINE
  5
106
  8
LAYER_01
 10
4808.247939427189
 20
-930.5037879437695
 30
-0.0000000000000042
 11
4937.723135731074
 21
-930.5037879437725
 31
-0.0000000000000007
  0
ARC
  5
107
  8
LAYER_01
 10
4937.723135731073
 20
-934.5037879437725
 30
-0.0000000000000007
 40
4.0
 50
0.0000000000048853
 51
89.99999999998697
  0
LINE
  5
108
  8
LAYER_01
 10
4941.723135731073
 20
-934.5037879437722
 30
0.0
 11
4941.723135731075
 21
-936.5037879437691
 31
0.0
  0
ARC
  5
109
  8
LAYER_01
 10
4937.723135731075
 20
-936.5037879437693
 30
-0.0000000000000001
 40
4.0
 50
270.0000000000391
 51
0.0000000000032569
  0
LINE
  5
10A
  8
LAYER_01
 10
4937.723135731077
 20
-926.955134160005
 30
0.0000000000000001
 11
4934.223135731075
 21
-926.9551341600051
 31
0.0
  0
ARC
  5
10B
  8
LAYER_01
 10
4934.223135731075
 20
-925.4551341600051
 30
0.0
 40
1.5
 50
180.0
 51
270.0
  0
ARC
  5
10C
  8
LAYER_01
 10
4934.223135731075
 20
-925.4551341600051
 30
0.0
 40
1.5
 50
90.0
 51
180.0
  0
LINE
  5
10D
  8
LAYER_01
 10
4934.223135731075
 20
-923.9551341600051
 30
0.0
 11
4937.223135731075
 21
-923.9551341600052
 31
0.0
  0
ARC
  5
10E
  8
LAYER_01
 10
4937.223135731074
 20
-922.4551341600052
 30
0.0
 40
1.5
 50
270.0000000000347
 51
0.0
  0
ARC
  5
10F
  8
LAYER_01
 10
4937.223135731074
 20
-922.455134160006
 30
0.0
 40
1.500000000000114
 50
0.0000000000303976
 51
89.99999999996527
  0
LINE
  5
110
  8
LAYER_01
 10
4937.223135731075
 20
-920.9551341600059
 30
0.0
 11
4808.747939427188
 21
-920.9551341600051
 31
0.0
  0
ARC
  5
111
  8
LAYER_01
 10
4808.747939427187
 20
-922.4551341600051
 30
0.0
 40
1.5
 50
89.99999999996527
 51
180.0
  0
ARC
  5
112
  8
LAYER_01
 10
4808.747939427187
 20
-922.4551341600052
 30
0.0
 40
1.5
 50
179.9999999999957
 51
269.9999999999652
  0
LINE
  5
113
  8
LAYER_01
 10
4808.747939427186
 20
-923.9551341600052
 30
0.0
 11
4811.747939427188
 21
-923.9551341600051
 31
0.0
  0
ARC
  5
114
  8
LAYER_01
 10
4811.747939427188
 20
-925.455134160005
 30
0.0
 40
1.499999999999886
 50
359.9999999999392
 51
90.0
  0
ARC
  5
115
  8
LAYER_01
 10
4811.747939427188
 20
-925.4551341600065
 30
0.0
 40
1.5
 50
270.0000000000347
 51
0.0
  0
LINE
  5
116
  8
LAYER_01
 10
4811.747939427189
 20
-926.9551341600065
 30
0.0
 11
4808.24793942719
 21
-926.9551341600055
 31
0.0000000000000001
  0
ARC
  5
117
  8
LAYER_01
 10
4808.247939427188
 20
-922.9551341600055
 30
-0.0000000000000001
 40
4.0
 50
179.9999999999756
 51
270.0000000000391
  0
LINE
  5
118
  8
LAYER_01
 10
4804.247939427188
 20
-922.9551341600038
 30
0.0
 11
4804.247939427189
 21
-920.955134160006
 31
0.0
  0
ARC
  5
119
  8
LAYER_01
 10
4808.247939427189
 20
-920.9551341600051
 30
-0.0000000000000042
 40
4.0
 50
90.0
 51
180.000000000013
  0
LINE
  5
11A
  8
LAYER_01
 10
4808.247939427189
 20
-916.9551341600051
 30
-0.0000000000000042
 11
4937.723135731074
 21
-916.9551341600081
 31
-0.0000000000000007
  0
ARC
  5
11B
  8
LAYER_01
 10
4937.723135731073
 20
-920.9551341600081
 30
-0.0000000000000007
 40
4.0
 50
0.0000000000048853
 51
89.99999999998697
  0
LINE
  5
11C
  8
LAYER_01
 10
4941.723135731073
 20
-920.9551341600078
 30
0.0
 11
4941.723135731075
 21
-922.9551341600047
 31
0.0
  0
ARC
  5
11D
  8
LAYER_01
 10
4937.723135731075
 20
-922.955134160005
 30
-0.0000000000000001
 40
4.0
 50
270.0000000000391
 51
0.0000000000032569
  0
LINE
  5
11E
  8
LAYER_01
 10
5024.540108097509
 20
-1130.809915905643
 30
0.0
 11
5024.540108097509
 21
-1133.809915905643
 31
0.0
  0
LINE
  5
11F
  8
LAYER_01
 10
5024.540108097509
 20
-1133.809915905643
 30
0.0
 11
5030.29746741039
 21
-1133.809915905643
 31
0.0
  0
ARC
  5
120
  8
LAYER_01
 10
5034.540108097509
 20
-1135.309915905643
 30
0.0
 40
4.5
 50
160.5287793655085
 51
19.47122063449151
  0
LINE
  5
121
  8
LAYER_01
 10
5038.782748784629
 20
-1133.809915905643
 30
0.0
 11
5044.540108097509
 21
-1133.809915905643
 31
0.0
  0
LINE
  5
122
  8
LAYER_01
 10
5044.540108097509
 20
-1133.809915905643
 30
0.0
 11
5044.540108097509
 21
-1130.809915905643
 31
0.0
  0
LINE
  5
123
  8
LAYER_01
 10
5044.540108097509
 20
-1130.809915905643
 30
0.0
 11
5024.540108097509
 21
-1130.809915905643
 31
0.0
  0
LINE
  5
124
  8
LAYER_01
 10
5000.540108097509
 20
-1130.809915905643
 30
0.0
 11
5000.540108097509
 21
-1133.809915905643
 31
0.0
  0
LINE
  5
125
  8
LAYER_01
 10
5000.540108097509
 20
-1133.809915905643
 30
0.0
 11
5006.29746741039
 21
-1133.809915905643
 31
0.0
  0
ARC
  5
126
  8
LAYER_01
 10
5010.540108097509
 20
-1135.309915905643
 30
0.0
 40
4.5
 50
160.5287793655085
 51
19.47122063449151
  0
LINE
  5
127
  8
LAYER_01
 10
5014.782748784629
 20
-1133.809915905643
 30
0.0
 11
5020.540108097509
 21
-1133.809915905643
 31
0.0
  0
LINE
  5
128
  8
LAYER_01
 10
5020.540108097509
 20
-1133.809915905643
 30
0.0
 11
5020.540108097509
 21
-1130.809915905643
 31
0.0
  0
LINE
  5
129
  8
LAYER_01
 10
5020.540108097509
 20
-1130.809915905643
 30
0.0
 11
5000.540108097509
 21
-1130.809915905643
 31
0.0
  0
LINE
  5
12A
  8
LAYER_01
 10
4974.851684573441
 20
-1130.809915905643
 30
0.0
 11
4974.851684573441
 21
-1133.809915905643
 31
0.0
  0
LINE
  5
12B
  8
LAYER_01
 10
4974.851684573441
 20
-1133.809915905643
 30
0.0
 11
4980.609043886322
 21
-1133.809915905643
 31
0.0
  0
ARC
  5
12C
  8
LAYER_01
 10
4984.851684573441
 20
-1135.309915905643
 30
0.0
 40
4.5
 50
160.5287793655085
 51
19.47122063449151
  0
LINE
  5
12D
  8
LAYER_01
 10
4989.09432526056
 20
-1133.809915905643
 30
0.0
 11
4994.851684573441
 21
-1133.809915905643
 31
0.0
  0
LINE
  5
12E
  8
LAYER_01
 10
4994.851684573441
 20
-1133.809915905643
 30
0.0
 11
4994.851684573441
 21
-1130.809915905643
 31
0.0
  0
LINE
  5
12F
  8
LAYER_01
 10
4994.851684573441
 20
-1130.809915905643
 30
0.0
 11
4974.851684573441
 21
-1130.809915905643
 31
0.0
  0
LINE
  5
130
  8
LAYER_01
 10
4950.114684142857
 20
-1130.809915905643
 30
0.0
 11
4950.114684142857
 21
-1133.809915905643
 31
0.0
  0
LINE
  5
131
  8
LAYER_01
 10
4950.114684142857
 20
-1133.809915905643
 30
0.0
 11
4955.872043455738
 21
-1133.809915905643
 31
0.0
  0
ARC
  5
132
  8
LAYER_01
 10
4960.114684142857
 20
-1135.309915905643
 30
0.0
 40
4.5
 50
160.5287793655085
 51
19.47122063449151
  0
LINE
  5
133
  8
LAYER_01
 10
4964.357324829977
 20
-1133.809915905643
 30
0.0
 11
4970.114684142857
 21
-1133.809915905643
 31
0.0
  0
LINE
  5
134
  8
LAYER_01
 10
4970.114684142857
 20
-1133.809915905643
 30
0.0
 11
4970.114684142857
 21
-1130.809915905643
 31
0.0
  0
LINE
  5
135
  8
LAYER_01
 10
4970.114684142857
 20
-1130.809915905643
 30
0.0
 11
4950.114684142857
 21
-1130.809915905643
 31
0.0
  0
CIRCLE
  5
136
  8
LAYER_04
 10
4960.114684142857
 20
-1135.309915905643
 30
0.0
 40
1.750000000000227
  0
CIRCLE
  5
137
  8
LAYER_04
 10
4984.851684573442
 20
-1135.309915905643
 30
0.0
 40
1.749999999999773
  0
CIRCLE
  5
138
  8
LAYER_04
 10
5010.540108097509
 20
-1135.309915905643
 30
0.0
 40
1.750000000000227
  0
CIRCLE
  5
139
  8
LAYER_04
 10
5034.540108097509
 20
-1135.309915905643
 30
0.0
 40
1.75
  0
LINE
  5
13A
  8
LAYER_01
 10
4878.895260803234
 20
-1130.961798958888
 30
0.0
 11
4878.895260803234
 21
-1133.961798958888
 31
0.0
  0
LINE
  5
13B
  8
LAYER_01
 10
4878.895260803234
 20
-1133.961798958888
 30
0.0
 11
4884.652620116115
 21
-1133.961798958888
 31
0.0
  0
ARC
  5
13C
  8
LAYER_01
 10
4888.895260803234
 20
-1135.461798958888
 30
0.0
 40
4.5
 50
160.5287793655085
 51
19.47122063449151
  0
LINE
  5
13D
  8
LAYER_01
 10
4893.137901490354
 20
-1133.961798958888
 30
0.0
 11
4898.895260803234
 21
-1133.961798958888
 31
0.0
  0
LINE
  5
13E
  8
LAYER_01
 10
4898.895260803234
 20
-1133.961798958888
 30
0.0
 11
4898.895260803234
 21
-1130.961798958888
 31
0.0
  0
LINE
  5
13F
  8
LAYER_01
 10
4898.895260803234
 20
-1130.961798958888
 30
0.0
 11
4878.895260803234
 21
-1130.961798958888
 31
0.0
  0
LINE
  5
140
  8
LAYER_01
 10
4854.895260803234
 20
-1130.961798958888
 30
0.0
 11
4854.895260803234
 21
-1133.961798958888
 31
0.0
  0
LINE
  5
141
  8
LAYER_01
 10
4854.895260803234
 20
-1133.961798958888
 30
0.0
 11
4860.652620116115
 21
-1133.961798958888
 31
0.0
  0
ARC
  5
142
  8
LAYER_01
 10
4864.895260803234
 20
-1135.461798958888
 30
0.0
 40
4.5
 50
160.5287793655085
 51
19.47122063449151
  0
LINE
  5
143
  8
LAYER_01
 10
4869.137901490354
 20
-1133.961798958888
 30
0.0
 11
4874.895260803234
 21
-1133.961798958888
 31
0.0
  0
LINE
  5
144
  8
LAYER_01
 10
4874.895260803234
 20
-1133.961798958888
 30
0.0
 11
4874.895260803234
 21
-1130.961798958888
 31
0.0
  0
LINE
  5
145
  8
LAYER_01
 10
4874.895260803234
 20
-1130.961798958888
 30
0.0
 11
4854.895260803234
 21
-1130.961798958888
 31
0.0
  0
LINE
  5
146
  8
LAYER_01
 10
4829.206837279166
 20
-1130.961798958888
 30
0.0
 11
4829.206837279166
 21
-1133.961798958888
 31
0.0
  0
LINE
  5
147
  8
LAYER_01
 10
4829.206837279166
 20
-1133.961798958888
 30
0.0
 11
4834.964196592047
 21
-1133.961798958888
 31
0.0
  0
ARC
  5
148
  8
LAYER_01
 10
4839.206837279166
 20
-1135.461798958888
 30
0.0
 40
4.5
 50
160.5287793655085
 51
19.47122063449151
  0
LINE
  5
149
  8
LAYER_01
 10
4843.449477966285
 20
-1133.961798958888
 30
0.0
 11
4849.206837279166
 21
-1133.961798958888
 31
0.0
  0
LINE
  5
14A
  8
LAYER_01
 10
4849.206837279166
 20
-1133.961798958888
 30
0.0
 11
4849.206837279166
 21
-1130.961798958888
 31
0.0
  0
LINE
  5
14B
  8
LAYER_01
 10
4849.206837279166
 20
-1130.961798958888
 30
0.0
 11
4829.206837279166
 21
-1130.961798958888
 31
0.0
  0
LINE
  5
14C
  8
LAYER_01
 10
4804.469836848582
 20
-1130.961798958888
 30
0.0
 11
4804.469836848582
 21
-1133.961798958888
 31
0.0
  0
LINE
  5
14D
  8
LAYER_01
 10
4804.469836848582
 20
-1133.961798958888
 30
0.0
 11
4810.227196161463
 21
-1133.961798958888
 31
0.0
  0
ARC
  5
14E
  8
LAYER_01
 10
4814.469836848582
 20
-1135.461798958888
 30
0.0
 40
4.5
 50
160.5287793655085
 51
19.47122063449151
  0
LINE
  5
14F
  8
LAYER_01
 10
4818.712477535702
 20
-1133.961798958888
 30
0.0
 11
4824.469836848582
 21
-1133.961798958888
 31
0.0
  0
LINE
  5
150
  8
LAYER_01
 10
4824.469836848582
 20
-1133.961798958888
 30
0.0
 11
4824.469836848582
 21
-1130.961798958888
 31
0.0
  0
LINE
  5
151
  8
LAYER_01
 10
4824.469836848582
 20
-1130.961798958888
 30
0.0
 11
4804.469836848582
 21
-1130.961798958888
 31
0.0
  0
CIRCLE
  5
152
  8
LAYER_04
 10
4814.469836848582
 20
-1135.461798958888
 30
0.0
 40
1.750000000000227
  0
CIRCLE
  5
153
  8
LAYER_04
 10
4839.206837279167
 20
-1135.461798958888
 30
0.0
 40
1.749999999999773
  0
CIRCLE
  5
154
  8
LAYER_04
 10
4864.895260803234
 20
-1135.461798958888
 30
0.0
 40
1.750000000000227
  0
CIRCLE
  5
155
  8
LAYER_04
 10
4888.895260803234
 20
-1135.461798958888
 30
0.0
 40
1.75
  0
LINE
  5
156
  8
LAYER_01
 10
4878.895260803234
 20
-1062.961798958888
 30
0.0
 11
4878.895260803234
 21
-1065.961798958888
 31
0.0
  0
LINE
  5
157
  8
LAYER_01
 10
4878.895260803234
 20
-1065.961798958888
 30
0.0
 11
4884.652620116115
 21
-1065.961798958888
 31
0.0
  0
ARC
  5
158
  8
LAYER_01
 10
4888.895260803234
 20
-1067.461798958888
 30
0.0
 40
4.5
 50
160.5287793655085
 51
19.47122063449151
  0
LINE
  5
159
  8
LAYER_01
 10
4893.137901490354
 20
-1065.961798958888
 30
0.0
 11
4898.895260803234
 21
-1065.961798958888
 31
0.0
  0
LINE
  5
15A
  8
LAYER_01
 10
4898.895260803234
 20
-1065.961798958888
 30
0.0
 11
4898.895260803234
 21
-1062.961798958888
 31
0.0
  0
LINE
  5
15B
  8
LAYER_01
 10
4898.895260803234
 20
-1062.961798958888
 30
0.0
 11
4878.895260803234
 21
-1062.961798958888
 31
0.0
  0
LINE
  5
15C
  8
LAYER_01
 10
4854.895260803234
 20
-1062.961798958888
 30
0.0
 11
4854.895260803234
 21
-1065.961798958888
 31
0.0
  0
LINE
  5
15D
  8
LAYER_01
 10
4854.895260803234
 20
-1065.961798958888
 30
0.0
 11
4860.652620116115
 21
-1065.961798958888
 31
0.0
  0
ARC
  5
15E
  8
LAYER_01
 10
4864.895260803234
 20
-1067.461798958888
 30
0.0
 40
4.5
 50
160.5287793655085
 51
19.47122063449151
  0
LINE
  5
15F
  8
LAYER_01
 10
4869.137901490354
 20
-1065.961798958888
 30
0.0
 11
4874.895260803234
 21
-1065.961798958888
 31
0.0
  0
LINE
  5
160
  8
LAYER_01
 10
4874.895260803234
 20
-1065.961798958888
 30
0.0
 11
4874.895260803234
 21
-1062.961798958888
 31
0.0
  0
LINE
  5
161
  8
LAYER_01
 10
4874.895260803234
 20
-1062.961798958888
 30
0.0
 11
4854.895260803234
 21
-1062.961798958888
 31
0.0
  0
LINE
  5
162
  8
LAYER_01
 10
4829.206837279166
 20
-1062.961798958888
 30
0.0
 11
4829.206837279166
 21
-1065.961798958888
 31
0.0
  0
LINE
  5
163
  8
LAYER_01
 10
4829.206837279166
 20
-1065.961798958888
 30
0.0
 11
4834.964196592047
 21
-1065.961798958888
 31
0.0
  0
ARC
  5
164
  8
LAYER_01
 10
4839.206837279166
 20
-1067.461798958888
 30
0.0
 40
4.5
 50
160.5287793655085
 51
19.47122063449151
  0
LINE
  5
165
  8
LAYER_01
 10
4843.449477966285
 20
-1065.961798958888
 30
0.0
 11
4849.206837279166
 21
-1065.961798958888
 31
0.0
  0
LINE
  5
166
  8
LAYER_01
 10
4849.206837279166
 20
-1065.961798958888
 30
0.0
 11
4849.206837279166
 21
-1062.961798958888
 31
0.0
  0
LINE
  5
167
  8
LAYER_01
 10
4849.206837279166
 20
-1062.961798958888
 30
0.0
 11
4829.206837279166
 21
-1062.961798958888
 31
0.0
  0
LINE
  5
168
  8
LAYER_01
 10
4804.469836848582
 20
-1062.961798958888
 30
0.0
 11
4804.469836848582
 21
-1065.961798958888
 31
0.0
  0
LINE
  5
169
  8
LAYER_01
 10
4804.469836848582
 20
-1065.961798958888
 30
0.0
 11
4810.227196161463
 21
-1065.961798958888
 31
0.0
  0
ARC
  5
16A
  8
LAYER_01
 10
4814.469836848582
 20
-1067.461798958888
 30
0.0
 40
4.5
 50
160.5287793655085
 51
19.47122063449151
  0
LINE
  5
16B
  8
LAYER_01
 10
4818.712477535702
 20
-1065.961798958888
 30
0.0
 11
4824.469836848582
 21
-1065.961798958888
 31
0.0
  0
LINE
  5
16C
  8
LAYER_01
 10
4824.469836848582
 20
-1065.961798958888
 30
0.0
 11
4824.469836848582
 21
-1062.961798958888
 31
0.0
  0
LINE
  5
16D
  8
LAYER_01
 10
4824.469836848582
 20
-1062.961798958888
 30
0.0
 11
4804.469836848582
 21
-1062.961798958888
 31
0.0
  0
CIRCLE
  5
16E
  8
LAYER_04
 10
4814.469836848582
 20
-1067.461798958888
 30
0.0
 40
1.750000000000227
  0
CIRCLE
  5
16F
  8
LAYER_04
 10
4839.206837279167
 20
-1067.461798958888
 30
0.0
 40
1.749999999999773
  0
CIRCLE
  5
170
  8
LAYER_04
 10
4864.895260803234
 20
-1067.461798958888
 30
0.0
 40
1.750000000000227
  0
CIRCLE
  5
171
  8
LAYER_04
 10
4888.895260803234
 20
-1067.461798958888
 30
0.0
 40
1.75
  0
LINE
  5
172
  8
LAYER_01
 10
4937.723135731077
 20
-1085.955134160005
 30
0.0000000000000001
 11
4934.223135731075
 21
-1085.955134160005
 31
0.0
  0
ARC
  5
173
  8
LAYER_01
 10
4934.223135731075
 20
-1084.455134160005
 30
0.0
 40
1.5
 50
180.0
 51
270.0
  0
ARC
  5
174
  8
LAYER_01
 10
4934.223135731075
 20
-1084.455134160005
 30
0.0
 40
1.5
 50
90.0
 51
180.0
  0
LINE
  5
175
  8
LAYER_01
 10
4934.223135731075
 20
-1082.955134160005
 30
0.0
 11
4937.223135731075
 21
-1082.955134160005
 31
0.0
  0
ARC
  5
176
  8
LAYER_01
 10
4937.223135731074
 20
-1081.455134160005
 30
0.0
 40
1.5
 50
270.0000000000347
 51
0.0
  0
ARC
  5
177
  8
LAYER_01
 10
4937.223135731074
 20
-1081.455134160006
 30
0.0
 40
1.500000000000114
 50
0.0000000000347401
 51
89.99999999996527
  0
LINE
  5
178
  8
LAYER_01
 10
4937.223135731075
 20
-1079.955134160006
 30
0.0
 11
4808.747939427188
 21
-1079.955134160005
 31
0.0
  0
ARC
  5
179
  8
LAYER_01
 10
4808.747939427187
 20
-1081.455134160005
 30
0.0
 40
1.5
 50
89.99999999996527
 51
180.0
  0
ARC
  5
17A
  8
LAYER_01
 10
4808.747939427187
 20
-1081.455134160005
 30
0.0
 40
1.5
 50
179.9999999999913
 51
269.9999999999652
  0
LINE
  5
17B
  8
LAYER_01
 10
4808.747939427186
 20
-1082.955134160005
 30
0.0
 11
4811.747939427188
 21
-1082.955134160005
 31
0.0
  0
ARC
  5
17C
  8
LAYER_01
 10
4811.747939427188
 20
-1084.455134160005
 30
0.0
 40
1.499999999999886
 50
359.9999999999392
 51
90.0
  0
ARC
  5
17D
  8
LAYER_01
 10
4811.747939427188
 20
-1084.455134160007
 30
0.0
 40
1.5
 50
270.0000000000347
 51
0.0
  0
LINE
  5
17E
  8
LAYER_01
 10
4811.747939427189
 20
-1085.955134160007
 30
0.0
 11
4808.24793942719
 21
-1085.955134160005
 31
0.0000000000000001
  0
ARC
  5
17F
  8
LAYER_01
 10
4808.247939427188
 20
-1081.955134160005
 30
-0.0000000000000001
 40
4.0
 50
179.9999999999739
 51
270.0000000000391
  0
LINE
  5
180
  8
LAYER_01
 10
4804.247939427188
 20
-1081.955134160004
 30
0.0
 11
4804.247939427189
 21
-1079.955134160006
 31
0.0
  0
ARC
  5
181
  8
LAYER_01
 10
4808.247939427189
 20
-1079.955134160005
 30
-0.0000000000000042
 40
4.0
 50
90.0
 51
180.000000000013
  0
LINE
  5
182
  8
LAYER_01
 10
4808.247939427189
 20
-1075.955134160005
 30
-0.0000000000000042
 11
4937.723135731074
 21
-1075.955134160008
 31
-0.0000000000000007
  0
ARC
  5
183
  8
LAYER_01
 10
4937.723135731073
 20
-1079.955134160008
 30
-0.0000000000000007
 40
4.0
 50
0.0000000000065138
 51
89.99999999998697
  0
LINE
  5
184
  8
LAYER_01
 10
4941.723135731073
 20
-1079.955134160008
 30
0.0
 11
4941.723135731075
 21
-1081.955134160005
 31
0.0
  0
ARC
  5
185
  8
LAYER_01
 10
4937.723135731075
 20
-1081.955134160005
 30
-0.0000000000000001
 40
4.0
 50
270.0000000000391
 51
0.0000000000032569
  0
LINE
  5
186
  8
LAYER_01
 10
4937.723135731077
 20
-1099.503787943769
 30
0.0000000000000001
 11
4934.223135731075
 21
-1099.50378794377
 31
0.0
  0
ARC
  5
187
  8
LAYER_01
 10
4934.223135731075
 20
-1098.00378794377
 30
0.0
 40
1.5
 50
180.0
 51
270.0
  0
ARC
  5
188
  8
LAYER_01
 10
4934.223135731075
 20
-1098.00378794377
 30
0.0
 40
1.5
 50
90.0
 51
180.0
  0
LINE
  5
189
  8
LAYER_01
 10
4934.223135731075
 20
-1096.50378794377
 30
0.0
 11
4937.223135731075
 21
-1096.50378794377
 31
0.0
  0
ARC
  5
18A
  8
LAYER_01
 10
4937.223135731074
 20
-1095.00378794377
 30
0.0
 40
1.5
 50
270.0000000000347
 51
0.0
  0
ARC
  5
18B
  8
LAYER_01
 10
4937.223135731074
 20
-1095.00378794377
 30
0.0
 40
1.500000000000114
 50
0.0000000000347401
 51
89.99999999996527
  0
LINE
  5
18C
  8
LAYER_01
 10
4937.223135731075
 20
-1093.50378794377
 30
0.0
 11
4808.747939427188
 21
-1093.50378794377
 31
0.0
  0
ARC
  5
18D
  8
LAYER_01
 10
4808.747939427187
 20
-1095.00378794377
 30
0.0
 40
1.5
 50
89.99999999996527
 51
180.0
  0
ARC
  5
18E
  8
LAYER_01
 10
4808.747939427187
 20
-1095.00378794377
 30
0.0
 40
1.5
 50
179.9999999999913
 51
269.9999999999652
  0
LINE
  5
18F
  8
LAYER_01
 10
4808.747939427186
 20
-1096.50378794377
 30
0.0
 11
4811.747939427188
 21
-1096.50378794377
 31
0.0
  0
ARC
  5
190
  8
LAYER_01
 10
4811.747939427188
 20
-1098.003787943769
 30
0.0
 40
1.499999999999886
 50
359.9999999999392
 51
90.0
  0
ARC
  5
191
  8
LAYER_01
 10
4811.747939427188
 20
-1098.003787943771
 30
0.0
 40
1.5
 50
270.0000000000347
 51
0.0
  0
LINE
  5
192
  8
LAYER_01
 10
4811.747939427189
 20
-1099.503787943771
 30
0.0
 11
4808.24793942719
 21
-1099.50378794377
 31
0.0000000000000001
  0
ARC
  5
193
  8
LAYER_01
 10
4808.247939427188
 20
-1095.50378794377
 30
-0.0000000000000001
 40
4.0
 50
179.9999999999739
 51
270.0000000000391
  0
LINE
  5
194
  8
LAYER_01
 10
4804.247939427188
 20
-1095.503787943768
 30
0.0
 11
4804.247939427189
 21
-1093.50378794377
 31
0.0
  0
ARC
  5
195
  8
LAYER_01
 10
4808.247939427189
 20
-1093.50378794377
 30
-0.0000000000000042
 40
4.0
 50
90.0
 51
180.000000000013
  0
LINE
  5
196
  8
LAYER_01
 10
4808.247939427189
 20
-1089.50378794377
 30
-0.0000000000000042
 11
4937.723135731074
 21
-1089.503787943773
 31
-0.0000000000000007
  0
ARC
  5
197
  8
LAYER_01
 10
4937.723135731073
 20
-1093.503787943773
 30
-0.0000000000000007
 40
4.0
 50
0.0000000000065138
 51
89.99999999998697
  0
LINE
  5
198
  8
LAYER_01
 10
4941.723135731073
 20
-1093.503787943772
 30
0.0
 11
4941.723135731075
 21
-1095.503787943769
 31
0.0
  0
ARC
  5
199
  8
LAYER_01
 10
4937.723135731075
 20
-1095.503787943769
 30
-0.0000000000000001
 40
4.0
 50
270.0000000000391
 51
0.0000000000032569
  0
LINE
  5
19A
  8
LAYER_01
 10
4937.723135731077
 20
-1111.848116946755
 30
0.0000000000000001
 11
4934.223135731075
 21
-1111.848116946755
 31
0.0
  0
ARC
  5
19B
  8
LAYER_01
 10
4934.223135731075
 20
-1110.348116946755
 30
0.0
 40
1.5
 50
180.0
 51
270.0
  0
ARC
  5
19C
  8
LAYER_01
 10
4934.223135731075
 20
-1110.348116946755
 30
0.0
 40
1.5
 50
90.0
 51
180.0
  0
LINE
  5
19D
  8
LAYER_01
 10
4934.223135731075
 20
-1108.848116946755
 30
0.0
 11
4937.223135731075
 21
-1108.848116946755
 31
0.0
  0
ARC
  5
19E
  8
LAYER_01
 10
4937.223135731074
 20
-1107.348116946755
 30
0.0
 40
1.5
 50
270.0000000000347
 51
0.0
  0
ARC
  5
19F
  8
LAYER_01
 10
4937.223135731074
 20
-1107.348116946756
 30
0.0
 40
1.500000000000114
 50
0.0000000000347401
 51
89.99999999996527
  0
LINE
  5
1A0
  8
LAYER_01
 10
4937.223135731075
 20
-1105.848116946755
 30
0.0
 11
4808.747939427188
 21
-1105.848116946755
 31
0.0
  0
ARC
  5
1A1
  8
LAYER_01
 10
4808.747939427187
 20
-1107.348116946755
 30
0.0
 40
1.5
 50
89.99999999996527
 51
180.0
  0
ARC
  5
1A2
  8
LAYER_01
 10
4808.747939427187
 20
-1107.348116946755
 30
0.0
 40
1.5
 50
179.9999999999913
 51
269.9999999999652
  0
LINE
  5
1A3
  8
LAYER_01
 10
4808.747939427186
 20
-1108.848116946755
 30
0.0
 11
4811.747939427188
 21
-1108.848116946755
 31
0.0
  0
ARC
  5
1A4
  8
LAYER_01
 10
4811.747939427188
 20
-1110.348116946755
 30
0.0
 40
1.499999999999886
 50
359.9999999999392
 51
90.0
  0
ARC
  5
1A5
  8
LAYER_01
 10
4811.747939427188
 20
-1110.348116946756
 30
0.0
 40
1.5
 50
270.0000000000347
 51
0.0
  0
LINE
  5
1A6
  8
LAYER_01
 10
4811.747939427189
 20
-1111.848116946756
 30
0.0
 11
4808.24793942719
 21
-1111.848116946755
 31
0.0000000000000001
  0
ARC
  5
1A7
  8
LAYER_01
 10
4808.247939427188
 20
-1107.848116946755
 30
-0.0000000000000001
 40
4.0
 50
179.9999999999772
 51
270.0000000000391
  0
LINE
  5
1A8
  8
LAYER_01
 10
4804.247939427188
 20
-1107.848116946754
 30
0.0
 11
4804.247939427189
 21
-1105.848116946756
 31
0.0
  0
ARC
  5
1A9
  8
LAYER_01
 10
4808.247939427189
 20
-1105.848116946755
 30
-0.0000000000000042
 40
4.0
 50
90.0
 51
180.000000000013
  0
LINE
  5
1AA
  8
LAYER_01
 10
4808.247939427189
 20
-1101.848116946755
 30
-0.0000000000000042
 11
4937.723135731074
 21
-1101.848116946758
 31
-0.0000000000000007
  0
ARC
  5
1AB
  8
LAYER_01
 10
4937.723135731073
 20
-1105.848116946758
 30
-0.0000000000000007
 40
4.0
 50
0.0000000000065138
 51
89.99999999998697
  0
LINE
  5
1AC
  8
LAYER_01
 10
4941.723135731073
 20
-1105.848116946758
 30
0.0
 11
4941.723135731075
 21
-1107.848116946755
 31
0.0
  0
ARC
  5
1AD
  8
LAYER_01
 10
4937.723135731075
 20
-1107.848116946755
 30
-0.0000000000000001
 40
4.0
 50
270.0000000000391
 51
0.0000000000032569
  0
LINE
  5
1AE
  8
LAYER_01
 10
4937.723135731077
 20
-1124.19244594974
 30
0.0000000000000001
 11
4934.223135731075
 21
-1124.19244594974
 31
0.0
  0
ARC
  5
1AF
  8
LAYER_01
 10
4934.223135731075
 20
-1122.69244594974
 30
0.0
 40
1.5
 50
180.0
 51
270.0
  0
ARC
  5
1B0
  8
LAYER_01
 10
4934.223135731075
 20
-1122.69244594974
 30
0.0
 40
1.5
 50
90.0
 51
180.0
  0
LINE
  5
1B1
  8
LAYER_01
 10
4934.223135731075
 20
-1121.19244594974
 30
0.0
 11
4937.223135731075
 21
-1121.19244594974
 31
0.0
  0
ARC
  5
1B2
  8
LAYER_01
 10
4937.223135731074
 20
-1119.69244594974
 30
0.0
 40
1.5
 50
270.0000000000347
 51
0.0
  0
ARC
  5
1B3
  8
LAYER_01
 10
4937.223135731074
 20
-1119.692445949741
 30
0.0
 40
1.500000000000114
 50
0.0000000000347401
 51
89.99999999996527
  0
LINE
  5
1B4
  8
LAYER_01
 10
4937.223135731075
 20
-1118.192445949741
 30
0.0
 11
4808.747939427188
 21
-1118.19244594974
 31
0.0
  0
ARC
  5
1B5
  8
LAYER_01
 10
4808.747939427187
 20
-1119.69244594974
 30
0.0
 40
1.5
 50
89.99999999996527
 51
180.0
  0
ARC
  5
1B6
  8
LAYER_01
 10
4808.747939427187
 20
-1119.69244594974
 30
0.0
 40
1.5
 50
179.9999999999913
 51
269.9999999999652
  0
LINE
  5
1B7
  8
LAYER_01
 10
4808.747939427186
 20
-1121.19244594974
 30
0.0
 11
4811.747939427188
 21
-1121.19244594974
 31
0.0
  0
ARC
  5
1B8
  8
LAYER_01
 10
4811.747939427188
 20
-1122.69244594974
 30
0.0
 40
1.499999999999886
 50
359.9999999999392
 51
90.0
  0
ARC
  5
1B9
  8
LAYER_01
 10
4811.747939427188
 20
-1122.692445949742
 30
0.0
 40
1.5
 50
270.0000000000347
 51
0.0
  0
LINE
  5
1BA
  8
LAYER_01
 10
4811.747939427189
 20
-1124.192445949742
 30
0.0
 11
4808.24793942719
 21
-1124.19244594974
 31
0.0000000000000001
  0
ARC
  5
1BB
  8
LAYER_01
 10
4808.247939427188
 20
-1120.19244594974
 30
-0.0000000000000001
 40
4.0
 50
179.9999999999739
 51
270.0000000000391
  0
LINE
  5
1BC
  8
LAYER_01
 10
4804.247939427188
 20
-1120.192445949739
 30
0.0
 11
4804.247939427189
 21
-1118.192445949741
 31
0.0
  0
ARC
  5
1BD
  8
LAYER_01
 10
4808.247939427189
 20
-1118.19244594974
 30
-0.0000000000000042
 40
4.0
 50
90.0
 51
180.000000000013
  0
LINE
  5
1BE
  8
LAYER_01
 10
4808.247939427189
 20
-1114.19244594974
 30
-0.0000000000000042
 11
4937.723135731074
 21
-1114.192445949743
 31
-0.0000000000000007
  0
ARC
  5
1BF
  8
LAYER_01
 10
4937.723135731073
 20
-1118.192445949743
 30
-0.0000000000000007
 40
4.0
 50
0.0000000000065138
 51
89.99999999998697
  0
LINE
  5
1C0
  8
LAYER_01
 10
4941.723135731073
 20
-1118.192445949743
 30
0.0
 11
4941.723135731075
 21
-1120.19244594974
 31
0.0
  0
ARC
  5
1C1
  8
LAYER_01
 10
4937.723135731075
 20
-1120.19244594974
 30
-0.0000000000000001
 40
4.0
 50
270.0000000000391
 51
0.0000000000032569
  0
LINE
  5
1C2
  8
LAYER_01
 10
5083.367983025352
 20
-1152.80325110676
 30
0.0000000000000001
 11
5079.86798302535
 21
-1152.80325110676
 31
0.0
  0
ARC
  5
1C3
  8
LAYER_01
 10
5079.86798302535
 20
-1151.30325110676
 30
0.0
 40
1.5
 50
180.0
 51
270.0
  0
ARC
  5
1C4
  8
LAYER_01
 10
5079.86798302535
 20
-1151.30325110676
 30
0.0
 40
1.5
 50
90.0
 51
180.0
  0
LINE
  5
1C5
  8
LAYER_01
 10
5079.86798302535
 20
-1149.80325110676
 30
0.0
 11
5082.86798302535
 21
-1149.803251106761
 31
0.0
  0
ARC
  5
1C6
  8
LAYER_01
 10
5082.867983025349
 20
-1148.303251106761
 30
0.0
 40
1.5
 50
270.0000000000347
 51
0.0
  0
ARC
  5
1C7
  8
LAYER_01
 10
5082.867983025349
 20
-1148.303251106761
 30
0.0
 40
1.500000000000114
 50
0.0000000000347401
 51
89.99999999996527
  0
LINE
  5
1C8
  8
LAYER_01
 10
5082.86798302535
 20
-1146.803251106761
 30
0.0
 11
4954.392786721462
 21
-1146.80325110676
 31
0.0
  0
ARC
  5
1C9
  8
LAYER_01
 10
4954.392786721462
 20
-1148.30325110676
 30
0.0
 40
1.5
 50
89.99999999996527
 51
180.0
  0
ARC
  5
1CA
  8
LAYER_01
 10
4954.392786721462
 20
-1148.303251106761
 30
0.0
 40
1.5
 50
179.9999999999913
 51
269.9999999999652
  0
LINE
  5
1CB
  8
LAYER_01
 10
4954.392786721461
 20
-1149.803251106761
 30
0.0
 11
4957.392786721462
 21
-1149.80325110676
 31
0.0
  0
ARC
  5
1CC
  8
LAYER_01
 10
4957.392786721462
 20
-1151.30325110676
 30
0.0
 40
1.499999999999886
 50
359.9999999999392
 51
90.0
  0
ARC
  5
1CD
  8
LAYER_01
 10
4957.392786721462
 20
-1151.303251106762
 30
0.0
 40
1.5
 50
270.0000000000347
 51
0.0
  0
LINE
  5
1CE
  8
LAYER_01
 10
4957.392786721463
 20
-1152.803251106762
 30
0.0
 11
4953.892786721465
 21
-1152.803251106761
 31
0.0000000000000001
  0
ARC
  5
1CF
  8
LAYER_01
 10
4953.892786721462
 20
-1148.803251106761
 30
-0.0000000000000001
 40
4.0
 50
179.9999999999739
 51
270.0000000000391
  0
LINE
  5
1D0
  8
LAYER_01
 10
4949.892786721462
 20
-1148.803251106759
 30
0.0
 11
4949.892786721463
 21
-1146.803251106761
 31
0.0
  0
ARC
  5
1D1
  8
LAYER_01
 10
4953.892786721463
 20
-1146.80325110676
 30
-0.0000000000000042
 40
4.0
 50
90.0
 51
180.000000000013
  0
LINE
  5
1D2
  8
LAYER_01
 10
4953.892786721463
 20
-1142.80325110676
 30
-0.0000000000000042
 11
5083.367983025349
 21
-1142.803251106764
 31
-0.0000000000000007
  0
ARC
  5
1D3
  8
LAYER_01
 10
5083.367983025348
 20
-1146.803251106764
 30
-0.0000000000000007
 40
4.0
 50
0.0000000000065138
 51
89.99999999998697
  0
LINE
  5
1D4
  8
LAYER_01
 10
5087.367983025348
 20
-1146.803251106763
 30
0.0
 11
5087.36798302535
 21
-1148.80325110676
 31
0.0
  0
ARC
  5
1D5
  8
LAYER_01
 10
5083.36798302535
 20
-1148.80325110676
 30
-0.0000000000000001
 40
4.0
 50
270.0000000000391
 51
0.0000000000032569
  0
LINE
  5
1D6
  8
LAYER_01
 10
5083.367983025352
 20
-1166.351904890525
 30
0.0000000000000001
 11
5079.86798302535
 21
-1166.351904890525
 31
0.0
  0
ARC
  5
1D7
  8
LAYER_01
 10
5079.86798302535
 20
-1164.851904890525
 30
0.0
 40
1.5
 50
180.0
 51
270.0
  0
ARC
  5
1D8
  8
LAYER_01
 10
5079.86798302535
 20
-1164.851904890525
 30
0.0
 40
1.5
 50
90.0
 51
180.0
  0
LINE
  5
1D9
  8
LAYER_01
 10
5079.86798302535
 20
-1163.351904890525
 30
0.0
 11
5082.86798302535
 21
-1163.351904890525
 31
0.0
  0
ARC
  5
1DA
  8
LAYER_01
 10
5082.867983025349
 20
-1161.851904890525
 30
0.0
 40
1.5
 50
270.0000000000347
 51
0.0
  0
ARC
  5
1DB
  8
LAYER_01
 10
5082.867983025349
 20
-1161.851904890526
 30
0.0
 40
1.500000000000114
 50
0.0000000000347401
 51
89.99999999996527
  0
LINE
  5
1DC
  8
LAYER_01
 10
5082.86798302535
 20
-1160.351904890526
 30
0.0
 11
4954.392786721462
 21
-1160.351904890525
 31
0.0
  0
ARC
  5
1DD
  8
LAYER_01
 10
4954.392786721462
 20
-1161.851904890525
 30
0.0
 40
1.5
 50
89.99999999996527
 51
180.0
  0
ARC
  5
1DE
  8
LAYER_01
 10
4954.392786721462
 20
-1161.851904890525
 30
0.0
 40
1.5
 50
179.9999999999913
 51
269.9999999999652
  0
LINE
  5
1DF
  8
LAYER_01
 10
4954.392786721461
 20
-1163.351904890525
 30
0.0
 11
4957.392786721462
 21
-1163.351904890525
 31
0.0
  0
ARC
  5
1E0
  8
LAYER_01
 10
4957.392786721462
 20
-1164.851904890525
 30
0.0
 40
1.499999999999886
 50
359.9999999999392
 51
90.0
  0
ARC
  5
1E1
  8
LAYER_01
 10
4957.392786721462
 20
-1164.851904890526
 30
0.0
 40
1.5
 50
270.0000000000347
 51
0.0
  0
LINE
  5
1E2
  8
LAYER_01
 10
4957.392786721463
 20
-1166.351904890526
 30
0.0
 11
4953.892786721465
 21
-1166.351904890525
 31
0.0000000000000001
  0
ARC
  5
1E3
  8
LAYER_01
 10
4953.892786721462
 20
-1162.351904890525
 30
-0.0000000000000001
 40
4.0
 50
179.9999999999739
 51
270.0000000000391
  0
LINE
  5
1E4
  8
LAYER_01
 10
4949.892786721462
 20
-1162.351904890524
 30
0.0
 11
4949.892786721463
 21
-1160.351904890526
 31
0.0
  0
ARC
  5
1E5
  8
LAYER_01
 10
4953.892786721463
 20
-1160.351904890525
 30
-0.0000000000000042
 40
4.0
 50
90.0
 51
180.000000000013
  0
LINE
  5
1E6
  8
LAYER_01
 10
4953.892786721463
 20
-1156.351904890525
 30
-0.0000000000000042
 11
5083.367983025349
 21
-1156.351904890528
 31
-0.0000000000000007
  0
ARC
  5
1E7
  8
LAYER_01
 10
5083.367983025348
 20
-1160.351904890528
 30
-0.0000000000000007
 40
4.0
 50
0.0000000000065138
 51
89.99999999998697
  0
LINE
  5
1E8
  8
LAYER_01
 10
5087.367983025348
 20
-1160.351904890528
 30
0.0
 11
5087.36798302535
 21
-1162.351904890525
 31
0.0
  0
ARC
  5
1E9
  8
LAYER_01
 10
5083.36798302535
 20
-1162.351904890525
 30
-0.0000000000000001
 40
4.0
 50
270.0000000000391
 51
0.0000000000032569
  0
LINE
  5
1EA
  8
LAYER_01
 10
5083.367983025352
 20
-1178.69623389351
 30
0.0000000000000001
 11
5079.86798302535
 21
-1178.69623389351
 31
0.0
  0
ARC
  5
1EB
  8
LAYER_01
 10
5079.86798302535
 20
-1177.19623389351
 30
0.0
 40
1.5
 50
180.0
 51
270.0
  0
ARC
  5
1EC
  8
LAYER_01
 10
5079.86798302535
 20
-1177.19623389351
 30
0.0
 40
1.5
 50
90.0
 51
180.0
  0
LINE
  5
1ED
  8
LAYER_01
 10
5079.86798302535
 20
-1175.69623389351
 30
0.0
 11
5082.86798302535
 21
-1175.69623389351
 31
0.0
  0
ARC
  5
1EE
  8
LAYER_01
 10
5082.867983025349
 20
-1174.19623389351
 30
0.0
 40
1.5
 50
270.0000000000347
 51
0.0
  0
ARC
  5
1EF
  8
LAYER_01
 10
5082.867983025349
 20
-1174.196233893511
 30
0.0
 40
1.500000000000114
 50
0.0000000000347401
 51
89.99999999996527
  0
LINE
  5
1F0
  8
LAYER_01
 10
5082.86798302535
 20
-1172.696233893511
 30
0.0
 11
4954.392786721462
 21
-1172.69623389351
 31
0.0
  0
ARC
  5
1F1
  8
LAYER_01
 10
4954.392786721462
 20
-1174.19623389351
 30
0.0
 40
1.5
 50
89.99999999996527
 51
180.0
  0
ARC
  5
1F2
  8
LAYER_01
 10
4954.392786721462
 20
-1174.19623389351
 30
0.0
 40
1.5
 50
179.9999999999913
 51
269.9999999999652
  0
LINE
  5
1F3
  8
LAYER_01
 10
4954.392786721461
 20
-1175.69623389351
 30
0.0
 11
4957.392786721462
 21
-1175.69623389351
 31
0.0
  0
ARC
  5
1F4
  8
LAYER_01
 10
4957.392786721462
 20
-1177.19623389351
 30
0.0
 40
1.499999999999886
 50
359.9999999999392
 51
90.0
  0
ARC
  5
1F5
  8
LAYER_01
 10
4957.392786721462
 20
-1177.196233893512
 30
0.0
 40
1.5
 50
270.0000000000347
 51
0.0
  0
LINE
  5
1F6
  8
LAYER_01
 10
4957.392786721463
 20
-1178.696233893512
 30
0.0
 11
4953.892786721465
 21
-1178.696233893511
 31
0.0000000000000001
  0
ARC
  5
1F7
  8
LAYER_01
 10
4953.892786721462
 20
-1174.696233893511
 30
-0.0000000000000001
 40
4.0
 50
179.9999999999772
 51
270.0000000000391
  0
LINE
  5
1F8
  8
LAYER_01
 10
4949.892786721462
 20
-1174.696233893509
 30
0.0
 11
4949.892786721463
 21
-1172.696233893511
 31
0.0
  0
ARC
  5
1F9
  8
LAYER_01
 10
4953.892786721463
 20
-1172.69623389351
 30
-0.0000000000000042
 40
4.0
 50
90.0
 51
180.000000000013
  0
LINE
  5
1FA
  8
LAYER_01
 10
4953.892786721463
 20
-1168.69623389351
 30
-0.0000000000000042
 11
5083.367983025349
 21
-1168.696233893513
 31
-0.0000000000000007
  0
ARC
  5
1FB
  8
LAYER_01
 10
5083.367983025348
 20
-1172.696233893513
 30
-0.0000000000000007
 40
4.0
 50
0.0000000000065138
 51
89.99999999998697
  0
LINE
  5
1FC
  8
LAYER_01
 10
5087.367983025348
 20
-1172.696233893513
 30
0.0
 11
5087.36798302535
 21
-1174.69623389351
 31
0.0
  0
ARC
  5
1FD
  8
LAYER_01
 10
5083.36798302535
 20
-1174.69623389351
 30
-0.0000000000000001
 40
4.0
 50
270.0000000000391
 51
0.0000000000032569
  0
LINE
  5
1FE
  8
LAYER_01
 10
5083.367983025352
 20
-1191.040562896495
 30
0.0000000000000001
 11
5079.86798302535
 21
-1191.040562896495
 31
0.0
  0
ARC
  5
1FF
  8
LAYER_01
 10
5079.86798302535
 20
-1189.540562896495
 30
0.0
 40
1.5
 50
180.0
 51
270.0
  0
ARC
  5
200
  8
LAYER_01
 10
5079.86798302535
 20
-1189.540562896495
 30
0.0
 40
1.5
 50
90.0
 51
180.0
  0
LINE
  5
201
  8
LAYER_01
 10
5079.86798302535
 20
-1188.040562896495
 30
0.0
 11
5082.86798302535
 21
-1188.040562896496
 31
0.0
  0
ARC
  5
202
  8
LAYER_01
 10
5082.867983025349
 20
-1186.540562896496
 30
0.0
 40
1.5
 50
270.0000000000347
 51
0.0
  0
ARC
  5
203
  8
LAYER_01
 10
5082.867983025349
 20
-1186.540562896496
 30
0.0
 40
1.500000000000114
 50
0.0000000000347401
 51
89.99999999996527
  0
LINE
  5
204
  8
LAYER_01
 10
5082.86798302535
 20
-1185.040562896496
 30
0.0
 11
4954.392786721462
 21
-1185.040562896495
 31
0.0
  0
ARC
  5
205
  8
LAYER_01
 10
4954.392786721462
 20
-1186.540562896495
 30
0.0
 40
1.5
 50
89.99999999996527
 51
180.0
  0
ARC
  5
206
  8
LAYER_01
 10
4954.392786721462
 20
-1186.540562896496
 30
0.0
 40
1.5
 50
179.9999999999913
 51
269.9999999999652
  0
LINE
  5
207
  8
LAYER_01
 10
4954.392786721461
 20
-1188.040562896496
 30
0.0
 11
4957.392786721462
 21
-1188.040562896495
 31
0.0
  0
ARC
  5
208
  8
LAYER_01
 10
4957.392786721462
 20
-1189.540562896495
 30
0.0
 40
1.499999999999886
 50
359.9999999999392
 51
90.0
  0
ARC
  5
209
  8
LAYER_01
 10
4957.392786721462
 20
-1189.540562896497
 30
0.0
 40
1.5
 50
270.0000000000347
 51
0.0
  0
LINE
  5
20A
  8
LAYER_01
 10
4957.392786721463
 20
-1191.040562896497
 30
0.0
 11
4953.892786721465
 21
-1191.040562896496
 31
0.0000000000000001
  0
ARC
  5
20B
  8
LAYER_01
 10
4953.892786721462
 20
-1187.040562896496
 30
-0.0000000000000001
 40
4.0
 50
179.9999999999739
 51
270.0000000000391
  0
LINE
  5
20C
  8
LAYER_01
 10
4949.892786721462
 20
-1187.040562896494
 30
0.0
 11
4949.892786721463
 21
-1185.040562896496
 31
0.0
  0
ARC
  5
20D
  8
LAYER_01
 10
4953.892786721463
 20
-1185.040562896495
 30
-0.0000000000000042
 40
4.0
 50
90.0
 51
180.000000000013
  0
LINE
  5
20E
  8
LAYER_01
 10
4953.892786721463
 20
-1181.040562896495
 30
-0.0000000000000042
 11
5083.367983025349
 21
-1181.040562896499
 31
-0.0000000000000007
  0
ARC
  5
20F
  8
LAYER_01
 10
5083.367983025348
 20
-1185.040562896499
 30
-0.0000000000000007
 40
4.0
 50
0.0000000000065138
 51
89.99999999998697
  0
LINE
  5
210
  8
LAYER_01
 10
5087.367983025348
 20
-1185.040562896498
 30
0.0
 11
5087.36798302535
 21
-1187.040562896495
 31
0.0
  0
ARC
  5
211
  8
LAYER_01
 10
5083.36798302535
 20
-1187.040562896495
 30
-0.0000000000000001
 40
4.0
 50
270.0000000000391
 51
0.0000000000032569
  0
LINE
  5
212
  8
LAYER_01
 10
4937.723135731077
 20
-1152.955134160005
 30
0.0000000000000001
 11
4934.223135731075
 21
-1152.955134160005
 31
0.0
  0
ARC
  5
213
  8
LAYER_01
 10
4934.223135731075
 20
-1151.455134160005
 30
0.0
 40
1.5
 50
180.0
 51
270.0
  0
ARC
  5
214
  8
LAYER_01
 10
4934.223135731075
 20
-1151.455134160005
 30
0.0
 40
1.5
 50
90.0
 51
180.0
  0
LINE
  5
215
  8
LAYER_01
 10
4934.223135731075
 20
-1149.955134160005
 30
0.0
 11
4937.223135731075
 21
-1149.955134160005
 31
0.0
  0
ARC
  5
216
  8
LAYER_01
 10
4937.223135731074
 20
-1148.455134160005
 30
0.0
 40
1.5
 50
270.0000000000347
 51
0.0
  0
ARC
  5
217
  8
LAYER_01
 10
4937.223135731074
 20
-1148.455134160006
 30
0.0
 40
1.500000000000114
 50
0.0000000000347401
 51
89.99999999996527
  0
LINE
  5
218
  8
LAYER_01
 10
4937.223135731075
 20
-1146.955134160006
 30
0.0
 11
4808.747939427188
 21
-1146.955134160005
 31
0.0
  0
ARC
  5
219
  8
LAYER_01
 10
4808.747939427187
 20
-1148.455134160005
 30
0.0
 40
1.5
 50
89.99999999996527
 51
180.0
  0
ARC
  5
21A
  8
LAYER_01
 10
4808.747939427187
 20
-1148.455134160005
 30
0.0
 40
1.5
 50
179.9999999999913
 51
269.9999999999652
  0
LINE
  5
21B
  8
LAYER_01
 10
4808.747939427186
 20
-1149.955134160005
 30
0.0
 11
4811.747939427188
 21
-1149.955134160005
 31
0.0
  0
ARC
  5
21C
  8
LAYER_01
 10
4811.747939427188
 20
-1151.455134160005
 30
0.0
 40
1.499999999999886
 50
359.9999999999392
 51
90.0
  0
ARC
  5
21D
  8
LAYER_01
 10
4811.747939427188
 20
-1151.455134160007
 30
0.0
 40
1.5
 50
270.0000000000347
 51
0.0
  0
LINE
  5
21E
  8
LAYER_01
 10
4811.747939427189
 20
-1152.955134160007
 30
0.0
 11
4808.24793942719
 21
-1152.955134160005
 31
0.0000000000000001
  0
ARC
  5
21F
  8
LAYER_01
 10
4808.247939427188
 20
-1148.955134160005
 30
-0.0000000000000001
 40
4.0
 50
179.9999999999739
 51
270.0000000000391
  0
LINE
  5
220
  8
LAYER_01
 10
4804.247939427188
 20
-1148.955134160004
 30
0.0
 11
4804.247939427189
 21
-1146.955134160006
 31
0.0
  0
ARC
  5
221
  8
LAYER_01
 10
4808.247939427189
 20
-1146.955134160005
 30
-0.0000000000000042
 40
4.0
 50
90.0
 51
180.000000000013
  0
LINE
  5
222
  8
LAYER_01
 10
4808.247939427189
 20
-1142.955134160005
 30
-0.0000000000000042
 11
4937.723135731074
 21
-1142.955134160008
 31
-0.0000000000000007
  0
ARC
  5
223
  8
LAYER_01
 10
4937.723135731073
 20
-1146.955134160008
 30
-0.0000000000000007
 40
4.0
 50
0.0000000000065138
 51
89.99999999998697
  0
LINE
  5
224
  8
LAYER_01
 10
4941.723135731073
 20
-1146.955134160008
 30
0.0
 11
4941.723135731075
 21
-1148.955134160005
 31
0.0
  0
ARC
  5
225
  8
LAYER_01
 10
4937.723135731075
 20
-1148.955134160005
 30
-0.0000000000000001
 40
4.0
 50
270.0000000000391
 51
0.0000000000032569
  0
LINE
  5
226
  8
LAYER_01
 10
4937.723135731077
 20
-1166.503787943769
 30
0.0000000000000001
 11
4934.223135731075
 21
-1166.50378794377
 31
0.0
  0
ARC
  5
227
  8
LAYER_01
 10
4934.223135731075
 20
-1165.00378794377
 30
0.0
 40
1.5
 50
180.0
 51
270.0
  0
ARC
  5
228
  8
LAYER_01
 10
4934.223135731075
 20
-1165.00378794377
 30
0.0
 40
1.5
 50
90.0
 51
180.0
  0
LINE
  5
229
  8
LAYER_01
 10
4934.223135731075
 20
-1163.50378794377
 30
0.0
 11
4937.223135731075
 21
-1163.50378794377
 31
0.0
  0
ARC
  5
22A
  8
LAYER_01
 10
4937.223135731074
 20
-1162.00378794377
 30
0.0
 40
1.5
 50
270.0000000000347
 51
0.0
  0
ARC
  5
22B
  8
LAYER_01
 10
4937.223135731074
 20
-1162.00378794377
 30
0.0
 40
1.500000000000114
 50
0.0000000000347401
 51
89.99999999996527
  0
LINE
  5
22C
  8
LAYER_01
 10
4937.223135731075
 20
-1160.50378794377
 30
0.0
 11
4808.747939427188
 21
-1160.50378794377
 31
0.0
  0
ARC
  5
22D
  8
LAYER_01
 10
4808.747939427187
 20
-1162.00378794377
 30
0.0
 40
1.5
 50
89.99999999996527
 51
180.0
  0
ARC
  5
22E
  8
LAYER_01
 10
4808.747939427187
 20
-1162.00378794377
 30
0.0
 40
1.5
 50
179.9999999999913
 51
269.9999999999652
  0
LINE
  5
22F
  8
LAYER_01
 10
4808.747939427186
 20
-1163.50378794377
 30
0.0
 11
4811.747939427188
 21
-1163.50378794377
 31
0.0
  0
ARC
  5
230
  8
LAYER_01
 10
4811.747939427188
 20
-1165.003787943769
 30
0.0
 40
1.499999999999886
 50
359.9999999999392
 51
90.0
  0
ARC
  5
231
  8
LAYER_01
 10
4811.747939427188
 20
-1165.003787943771
 30
0.0
 40
1.5
 50
270.0000000000347
 51
0.0
  0
LINE
  5
232
  8
LAYER_01
 10
4811.747939427189
 20
-1166.503787943771
 30
0.0
 11
4808.24793942719
 21
-1166.50378794377
 31
0.0000000000000001
  0
ARC
  5
233
  8
LAYER_01
 10
4808.247939427188
 20
-1162.50378794377
 30
-0.0000000000000001
 40
4.0
 50
179.9999999999739
 51
270.0000000000391
  0
LINE
  5
234
  8
LAYER_01
 10
4804.247939427188
 20
-1162.503787943768
 30
0.0
 11
4804.247939427189
 21
-1160.50378794377
 31
0.0
  0
ARC
  5
235
  8
LAYER_01
 10
4808.247939427189
 20
-1160.50378794377
 30
-0.0000000000000042
 40
4.0
 50
90.0
 51
180.000000000013
  0
LINE
  5
236
  8
LAYER_01
 10
4808.247939427189
 20
-1156.50378794377
 30
-0.0000000000000042
 11
4937.723135731074
 21
-1156.503787943773
 31
-0.0000000000000007
  0
ARC
  5
237
  8
LAYER_01
 10
4937.723135731073
 20
-1160.503787943773
 30
-0.0000000000000007
 40
4.0
 50
0.0000000000065138
 51
89.99999999998697
  0
LINE
  5
238
  8
LAYER_01
 10
4941.723135731073
 20
-1160.503787943772
 30
0.0
 11
4941.723135731075
 21
-1162.503787943769
 31
0.0
  0
ARC
  5
239
  8
LAYER_01
 10
4937.723135731075
 20
-1162.503787943769
 30
-0.0000000000000001
 40
4.0
 50
270.0000000000391
 51
0.0000000000032569
  0
LINE
  5
23A
  8
LAYER_01
 10
4937.723135731077
 20
-1178.848116946755
 30
0.0000000000000001
 11
4934.223135731075
 21
-1178.848116946755
 31
0.0
  0
ARC
  5
23B
  8
LAYER_01
 10
4934.223135731075
 20
-1177.348116946755
 30
0.0
 40
1.5
 50
180.0
 51
270.0
  0
ARC
  5
23C
  8
LAYER_01
 10
4934.223135731075
 20
-1177.348116946755
 30
0.0
 40
1.5
 50
90.0
 51
180.0
  0
LINE
  5
23D
  8
LAYER_01
 10
4934.223135731075
 20
-1175.848116946755
 30
0.0
 11
4937.223135731075
 21
-1175.848116946755
 31
0.0
  0
ARC
  5
23E
  8
LAYER_01
 10
4937.223135731074
 20
-1174.348116946755
 30
0.0
 40
1.5
 50
270.0000000000347
 51
0.0
  0
ARC
  5
23F
  8
LAYER_01
 10
4937.223135731074
 20
-1174.348116946756
 30
0.0
 40
1.500000000000114
 50
0.0000000000347401
 51
89.99999999996527
  0
LINE
  5
240
  8
LAYER_01
 10
4937.223135731075
 20
-1172.848116946755
 30
0.0
 11
4808.747939427188
 21
-1172.848116946755
 31
0.0
  0
ARC
  5
241
  8
LAYER_01
 10
4808.747939427187
 20
-1174.348116946755
 30
0.0
 40
1.5
 50
89.99999999996527
 51
180.0
  0
ARC
  5
242
  8
LAYER_01
 10
4808.747939427187
 20
-1174.348116946755
 30
0.0
 40
1.5
 50
179.9999999999913
 51
269.9999999999652
  0
LINE
  5
243
  8
LAYER_01
 10
4808.747939427186
 20
-1175.848116946755
 30
0.0
 11
4811.747939427188
 21
-1175.848116946755
 31
0.0
  0
ARC
  5
244
  8
LAYER_01
 10
4811.747939427188
 20
-1177.348116946755
 30
0.0
 40
1.499999999999886
 50
359.9999999999392
 51
90.0
  0
ARC
  5
245
  8
LAYER_01
 10
4811.747939427188
 20
-1177.348116946756
 30
0.0
 40
1.5
 50
270.0000000000347
 51
0.0
  0
LINE
  5
246
  8
LAYER_01
 10
4811.747939427189
 20
-1178.848116946756
 30
0.0
 11
4808.24793942719
 21
-1178.848116946755
 31
0.0000000000000001
  0
ARC
  5
247
  8
LAYER_01
 10
4808.247939427188
 20
-1174.848116946755
 30
-0.0000000000000001
 40
4.0
 50
179.9999999999772
 51
270.0000000000391
  0
LINE
  5
248
  8
LAYER_01
 10
4804.247939427188
 20
-1174.848116946754
 30
0.0
 11
4804.247939427189
 21
-1172.848116946756
 31
0.0
  0
ARC
  5
249
  8
LAYER_01
 10
4808.247939427189
 20
-1172.848116946755
 30
-0.0000000000000042
 40
4.0
 50
90.0
 51
180.000000000013
  0
LINE
  5
24A
  8
LAYER_01
 10
4808.247939427189
 20
-1168.848116946755
 30
-0.0000000000000042
 11
4937.723135731074
 21
-1168.848116946758
 31
-0.0000000000000007
  0
ARC
  5
24B
  8
LAYER_01
 10
4937.723135731073
 20
-1172.848116946758
 30
-0.0000000000000007
 40
4.0
 50
0.0000000000065138
 51
89.99999999998697
  0
LINE
  5
24C
  8
LAYER_01
 10
4941.723135731073
 20
-1172.848116946758
 30
0.0
 11
4941.723135731075
 21
-1174.848116946755
 31
0.0
  0
ARC
  5
24D
  8
LAYER_01
 10
4937.723135731075
 20
-1174.848116946755
 30
-0.0000000000000001
 40
4.0
 50
270.0000000000391
 51
0.0000000000032569
  0
LINE
  5
24E
  8
LAYER_01
 10
4937.723135731077
 20
-1191.19244594974
 30
0.0000000000000001
 11
4934.223135731075
 21
-1191.19244594974
 31
0.0
  0
ARC
  5
24F
  8
LAYER_01
 10
4934.223135731075
 20
-1189.69244594974
 30
0.0
 40
1.5
 50
180.0
 51
270.0
  0
ARC
  5
250
  8
LAYER_01
 10
4934.223135731075
 20
-1189.69244594974
 30
0.0
 40
1.5
 50
90.0
 51
180.0
  0
LINE
  5
251
  8
LAYER_01
 10
4934.223135731075
 20
-1188.19244594974
 30
0.0
 11
4937.223135731075
 21
-1188.19244594974
 31
0.0
  0
ARC
  5
252
  8
LAYER_01
 10
4937.223135731074
 20
-1186.69244594974
 30
0.0
 40
1.5
 50
270.0000000000347
 51
0.0
  0
ARC
  5
253
  8
LAYER_01
 10
4937.223135731074
 20
-1186.692445949741
 30
0.0
 40
1.500000000000114
 50
0.0000000000347401
 51
89.99999999996527
  0
LINE
  5
254
  8
LAYER_01
 10
4937.223135731075
 20
-1185.192445949741
 30
0.0
 11
4808.747939427188
 21
-1185.19244594974
 31
0.0
  0
ARC
  5
255
  8
LAYER_01
 10
4808.747939427187
 20
-1186.69244594974
 30
0.0
 40
1.5
 50
89.99999999996527
 51
180.0
  0
ARC
  5
256
  8
LAYER_01
 10
4808.747939427187
 20
-1186.69244594974
 30
0.0
 40
1.5
 50
179.9999999999913
 51
269.9999999999652
  0
LINE
  5
257
  8
LAYER_01
 10
4808.747939427186
 20
-1188.19244594974
 30
0.0
 11
4811.747939427188
 21
-1188.19244594974
 31
0.0
  0
ARC
  5
258
  8
LAYER_01
 10
4811.747939427188
 20
-1189.69244594974
 30
0.0
 40
1.499999999999886
 50
359.9999999999392
 51
90.0
  0
ARC
  5
259
  8
LAYER_01
 10
4811.747939427188
 20
-1189.692445949742
 30
0.0
 40
1.5
 50
270.0000000000347
 51
0.0
  0
LINE
  5
25A
  8
LAYER_01
 10
4811.747939427189
 20
-1191.192445949742
 30
0.0
 11
4808.24793942719
 21
-1191.19244594974
 31
0.0000000000000001
  0
ARC
  5
25B
  8
LAYER_01
 10
4808.247939427188
 20
-1187.19244594974
 30
-0.0000000000000001
 40
4.0
 50
179.9999999999739
 51
270.0000000000391
  0
LINE
  5
25C
  8
LAYER_01
 10
4804.247939427188
 20
-1187.192445949739
 30
0.0
 11
4804.247939427189
 21
-1185.192445949741
 31
0.0
  0
ARC
  5
25D
  8
LAYER_01
 10
4808.247939427189
 20
-1185.19244594974
 30
-0.0000000000000042
 40
4.0
 50
90.0
 51
180.000000000013
  0
LINE
  5
25E
  8
LAYER_01
 10
4808.247939427189
 20
-1181.19244594974
 30
-0.0000000000000042
 11
4937.723135731074
 21
-1181.192445949743
 31
-0.0000000000000007
  0
ARC
  5
25F
  8
LAYER_01
 10
4937.723135731073
 20
-1185.192445949743
 30
-0.0000000000000007
 40
4.0
 50
0.0000000000065138
 51
89.99999999998697
  0
LINE
  5
260
  8
LAYER_01
 10
4941.723135731073
 20
-1185.192445949743
 30
0.0
 11
4941.723135731075
 21
-1187.19244594974
 31
0.0
  0
ARC
  5
261
  8
LAYER_01
 10
4937.723135731075
 20
-1187.19244594974
 30
-0.0000000000000001
 40
4.0
 50
270.0000000000391
 51
0.0000000000032569
  0
LINE
  5
262
  8
LAYER_01
 10
4937.723135731077
 20
-1008.955134160005
 30
0.0000000000000001
 11
4934.223135731075
 21
-1008.955134160005
 31
0.0
  0
ARC
  5
263
  8
LAYER_01
 10
4934.223135731075
 20
-1007.455134160005
 30
0.0
 40
1.5
 50
180.0
 51
270.0
  0
ARC
  5
264
  8
LAYER_01
 10
4934.223135731075
 20
-1007.455134160005
 30
0.0
 40
1.5
 50
90.0
 51
180.0
  0
LINE
  5
265
  8
LAYER_01
 10
4934.223135731075
 20
-1005.955134160005
 30
0.0
 11
4937.223135731075
 21
-1005.955134160005
 31
0.0
  0
ARC
  5
266
  8
LAYER_01
 10
4937.223135731074
 20
-1004.455134160005
 30
0.0
 40
1.5
 50
270.0000000000347
 51
0.0
  0
ARC
  5
267
  8
LAYER_01
 10
4937.223135731074
 20
-1004.455134160006
 30
0.0
 40
1.500000000000114
 50
0.0000000000303976
 51
89.99999999996527
  0
LINE
  5
268
  8
LAYER_01
 10
4937.223135731075
 20
-1002.955134160006
 30
0.0
 11
4808.747939427188
 21
-1002.955134160005
 31
0.0
  0
ARC
  5
269
  8
LAYER_01
 10
4808.747939427187
 20
-1004.455134160005
 30
0.0
 40
1.5
 50
89.99999999996527
 51
180.0
  0
ARC
  5
26A
  8
LAYER_01
 10
4808.747939427187
 20
-1004.455134160005
 30
0.0
 40
1.5
 50
179.9999999999957
 51
269.9999999999652
  0
LINE
  5
26B
  8
LAYER_01
 10
4808.747939427186
 20
-1005.955134160005
 30
0.0
 11
4811.747939427188
 21
-1005.955134160005
 31
0.0
  0
ARC
  5
26C
  8
LAYER_01
 10
4811.747939427188
 20
-1007.455134160005
 30
0.0
 40
1.499999999999886
 50
359.9999999999392
 51
90.0
  0
ARC
  5
26D
  8
LAYER_01
 10
4811.747939427188
 20
-1007.455134160007
 30
0.0
 40
1.5
 50
270.0000000000347
 51
0.0
  0
LINE
  5
26E
  8
LAYER_01
 10
4811.747939427189
 20
-1008.955134160007
 30
0.0
 11
4808.24793942719
 21
-1008.955134160006
 31
0.0000000000000001
  0
ARC
  5
26F
  8
LAYER_01
 10
4808.247939427188
 20
-1004.955134160006
 30
-0.0000000000000001
 40
4.0
 50
179.9999999999756
 51
270.0000000000391
  0
LINE
  5
270
  8
LAYER_01
 10
4804.247939427188
 20
-1004.955134160004
 30
0.0
 11
4804.247939427189
 21
-1002.955134160006
 31
0.0
  0
ARC
  5
271
  8
LAYER_01
 10
4808.247939427189
 20
-1002.955134160005
 30
-0.0000000000000042
 40
4.0
 50
90.0
 51
180.000000000013
  0
LINE
  5
272
  8
LAYER_01
 10
4808.247939427189
 20
-998.9551341600051
 30
-0.0000000000000042
 11
4937.723135731074
 21
-998.9551341600081
 31
-0.0000000000000007
  0
ARC
  5
273
  8
LAYER_01
 10
4937.723135731073
 20
-1002.955134160008
 30
-0.0000000000000007
 40
4.0
 50
0.0000000000048853
 51
89.99999999998697
  0
LINE
  5
274
  8
LAYER_01
 10
4941.723135731073
 20
-1002.955134160008
 30
0.0
 11
4941.723135731075
 21
-1004.955134160005
 31
0.0
  0
ARC
  5
275
  8
LAYER_01
 10
4937.723135731075
 20
-1004.955134160005
 30
-0.0000000000000001
 40
4.0
 50
270.0000000000391
 51
0.0000000000032569
  0
LINE
  5
276
  8
LAYER_01
 10
4937.723135731077
 20
-1022.503787943769
 30
0.0000000000000001
 11
4934.223135731075
 21
-1022.503787943769
 31
0.0
  0
ARC
  5
277
  8
LAYER_01
 10
4934.223135731075
 20
-1021.003787943769
 30
0.0
 40
1.5
 50
180.0
 51
270.0
  0
ARC
  5
278
  8
LAYER_01
 10
4934.223135731075
 20
-1021.003787943769
 30
0.0
 40
1.5
 50
90.0
 51
180.0
  0
LINE
  5
279
  8
LAYER_01
 10
4934.223135731075
 20
-1019.503787943769
 30
0.0
 11
4937.223135731075
 21
-1019.50378794377
 31
0.0
  0
ARC
  5
27A
  8
LAYER_01
 10
4937.223135731074
 20
-1018.00378794377
 30
0.0
 40
1.5
 50
270.0000000000347
 51
0.0
  0
ARC
  5
27B
  8
LAYER_01
 10
4937.223135731074
 20
-1018.00378794377
 30
0.0
 40
1.500000000000114
 50
0.0000000000303976
 51
89.99999999996527
  0
LINE
  5
27C
  8
LAYER_01
 10
4937.223135731075
 20
-1016.50378794377
 30
0.0
 11
4808.747939427188
 21
-1016.503787943769
 31
0.0
  0
ARC
  5
27D
  8
LAYER_01
 10
4808.747939427187
 20
-1018.003787943769
 30
0.0
 40
1.5
 50
89.99999999996527
 51
180.0
  0
ARC
  5
27E
  8
LAYER_01
 10
4808.747939427187
 20
-1018.00378794377
 30
0.0
 40
1.5
 50
179.9999999999957
 51
269.9999999999652
  0
LINE
  5
27F
  8
LAYER_01
 10
4808.747939427186
 20
-1019.50378794377
 30
0.0
 11
4811.747939427188
 21
-1019.503787943769
 31
0.0
  0
ARC
  5
280
  8
LAYER_01
 10
4811.747939427188
 20
-1021.003787943769
 30
0.0
 40
1.499999999999886
 50
359.9999999999392
 51
90.0
  0
ARC
  5
281
  8
LAYER_01
 10
4811.747939427188
 20
-1021.003787943771
 30
0.0
 40
1.5
 50
270.0000000000347
 51
0.0
  0
LINE
  5
282
  8
LAYER_01
 10
4811.747939427189
 20
-1022.503787943771
 30
0.0
 11
4808.24793942719
 21
-1022.50378794377
 31
0.0000000000000001
  0
ARC
  5
283
  8
LAYER_01
 10
4808.247939427188
 20
-1018.50378794377
 30
-0.0000000000000001
 40
4.0
 50
179.9999999999756
 51
270.0000000000391
  0
LINE
  5
284
  8
LAYER_01
 10
4804.247939427188
 20
-1018.503787943768
 30
0.0
 11
4804.247939427189
 21
-1016.50378794377
 31
0.0
  0
ARC
  5
285
  8
LAYER_01
 10
4808.247939427189
 20
-1016.503787943769
 30
-0.0000000000000042
 40
4.0
 50
90.0
 51
180.000000000013
  0
LINE
  5
286
  8
LAYER_01
 10
4808.247939427189
 20
-1012.503787943769
 30
-0.0000000000000042
 11
4937.723135731074
 21
-1012.503787943773
 31
-0.0000000000000007
  0
ARC
  5
287
  8
LAYER_01
 10
4937.723135731073
 20
-1016.503787943773
 30
-0.0000000000000007
 40
4.0
 50
0.0000000000048853
 51
89.99999999998697
  0
LINE
  5
288
  8
LAYER_01
 10
4941.723135731073
 20
-1016.503787943772
 30
0.0
 11
4941.723135731075
 21
-1018.503787943769
 31
0.0
  0
ARC
  5
289
  8
LAYER_01
 10
4937.723135731075
 20
-1018.503787943769
 30
-0.0000000000000001
 40
4.0
 50
270.0000000000391
 51
0.0000000000032569
  0
LINE
  5
28A
  8
LAYER_01
 10
4937.723135731077
 20
-1034.848116946755
 30
0.0000000000000001
 11
4934.223135731075
 21
-1034.848116946755
 31
0.0
  0
ARC
  5
28B
  8
LAYER_01
 10
4934.223135731075
 20
-1033.348116946755
 30
0.0
 40
1.5
 50
180.0
 51
270.0
  0
ARC
  5
28C
  8
LAYER_01
 10
4934.223135731075
 20
-1033.348116946755
 30
0.0
 40
1.5
 50
90.0
 51
180.0
  0
LINE
  5
28D
  8
LAYER_01
 10
4934.223135731075
 20
-1031.848116946755
 30
0.0
 11
4937.223135731075
 21
-1031.848116946755
 31
0.0
  0
ARC
  5
28E
  8
LAYER_01
 10
4937.223135731074
 20
-1030.348116946755
 30
0.0
 40
1.5
 50
270.0000000000347
 51
0.0
  0
ARC
  5
28F
  8
LAYER_01
 10
4937.223135731074
 20
-1030.348116946756
 30
0.0
 40
1.500000000000114
 50
0.0000000000347401
 51
89.99999999996527
  0
LINE
  5
290
  8
LAYER_01
 10
4937.223135731075
 20
-1028.848116946755
 30
0.0
 11
4808.747939427188
 21
-1028.848116946755
 31
0.0
  0
ARC
  5
291
  8
LAYER_01
 10
4808.747939427187
 20
-1030.348116946755
 30
0.0
 40
1.5
 50
89.99999999996527
 51
180.0
  0
ARC
  5
292
  8
LAYER_01
 10
4808.747939427187
 20
-1030.348116946755
 30
0.0
 40
1.5
 50
179.9999999999913
 51
269.9999999999652
  0
LINE
  5
293
  8
LAYER_01
 10
4808.747939427186
 20
-1031.848116946755
 30
0.0
 11
4811.747939427188
 21
-1031.848116946755
 31
0.0
  0
ARC
  5
294
  8
LAYER_01
 10
4811.747939427188
 20
-1033.348116946755
 30
0.0
 40
1.499999999999886
 50
359.9999999999392
 51
90.0
  0
ARC
  5
295
  8
LAYER_01
 10
4811.747939427188
 20
-1033.348116946756
 30
0.0
 40
1.5
 50
270.0000000000347
 51
0.0
  0
LINE
  5
296
  8
LAYER_01
 10
4811.747939427189
 20
-1034.848116946756
 30
0.0
 11
4808.24793942719
 21
-1034.848116946755
 31
0.0000000000000001
  0
ARC
  5
297
  8
LAYER_01
 10
4808.247939427188
 20
-1030.848116946755
 30
-0.0000000000000001
 40
4.0
 50
179.9999999999772
 51
270.0000000000391
  0
LINE
  5
298
  8
LAYER_01
 10
4804.247939427188
 20
-1030.848116946754
 30
0.0
 11
4804.247939427189
 21
-1028.848116946756
 31
0.0
  0
ARC
  5
299
  8
LAYER_01
 10
4808.247939427189
 20
-1028.848116946755
 30
-0.0000000000000042
 40
4.0
 50
90.0
 51
180.000000000013
  0
LINE
  5
29A
  8
LAYER_01
 10
4808.247939427189
 20
-1024.848116946755
 30
-0.0000000000000042
 11
4937.723135731074
 21
-1024.848116946758
 31
-0.0000000000000007
  0
ARC
  5
29B
  8
LAYER_01
 10
4937.723135731073
 20
-1028.848116946758
 30
-0.0000000000000007
 40
4.0
 50
0.0000000000065138
 51
89.99999999998697
  0
LINE
  5
29C
  8
LAYER_01
 10
4941.723135731073
 20
-1028.848116946758
 30
0.0
 11
4941.723135731075
 21
-1030.848116946755
 31
0.0
  0
ARC
  5
29D
  8
LAYER_01
 10
4937.723135731075
 20
-1030.848116946755
 30
-0.0000000000000001
 40
4.0
 50
270.0000000000391
 51
0.0000000000032569
  0
LINE
  5
29E
  8
LAYER_01
 10
4937.723135731077
 20
-1047.19244594974
 30
0.0000000000000001
 11
4934.223135731075
 21
-1047.19244594974
 31
0.0
  0
ARC
  5
29F
  8
LAYER_01
 10
4934.223135731075
 20
-1045.69244594974
 30
0.0
 40
1.5
 50
180.0
 51
270.0
  0
ARC
  5
2A0
  8
LAYER_01
 10
4934.223135731075
 20
-1045.69244594974
 30
0.0
 40
1.5
 50
90.0
 51
180.0
  0
LINE
  5
2A1
  8
LAYER_01
 10
4934.223135731075
 20
-1044.19244594974
 30
0.0
 11
4937.223135731075
 21
-1044.19244594974
 31
0.0
  0
ARC
  5
2A2
  8
LAYER_01
 10
4937.223135731074
 20
-1042.69244594974
 30
0.0
 40
1.5
 50
270.0000000000347
 51
0.0
  0
ARC
  5
2A3
  8
LAYER_01
 10
4937.223135731074
 20
-1042.692445949741
 30
0.0
 40
1.500000000000114
 50
0.0000000000347401
 51
89.99999999996527
  0
LINE
  5
2A4
  8
LAYER_01
 10
4937.223135731075
 20
-1041.192445949741
 30
0.0
 11
4808.747939427188
 21
-1041.19244594974
 31
0.0
  0
ARC
  5
2A5
  8
LAYER_01
 10
4808.747939427187
 20
-1042.69244594974
 30
0.0
 40
1.5
 50
89.99999999996527
 51
180.0
  0
ARC
  5
2A6
  8
LAYER_01
 10
4808.747939427187
 20
-1042.69244594974
 30
0.0
 40
1.5
 50
179.9999999999913
 51
269.9999999999652
  0
LINE
  5
2A7
  8
LAYER_01
 10
4808.747939427186
 20
-1044.19244594974
 30
0.0
 11
4811.747939427188
 21
-1044.19244594974
 31
0.0
  0
ARC
  5
2A8
  8
LAYER_01
 10
4811.747939427188
 20
-1045.69244594974
 30
0.0
 40
1.499999999999886
 50
359.9999999999392
 51
90.0
  0
ARC
  5
2A9
  8
LAYER_01
 10
4811.747939427188
 20
-1045.692445949742
 30
0.0
 40
1.5
 50
270.0000000000347
 51
0.0
  0
LINE
  5
2AA
  8
LAYER_01
 10
4811.747939427189
 20
-1047.192445949742
 30
0.0
 11
4808.24793942719
 21
-1047.19244594974
 31
0.0000000000000001
  0
ARC
  5
2AB
  8
LAYER_01
 10
4808.247939427188
 20
-1043.19244594974
 30
-0.0000000000000001
 40
4.0
 50
179.9999999999739
 51
270.0000000000391
  0
LINE
  5
2AC
  8
LAYER_01
 10
4804.247939427188
 20
-1043.192445949739
 30
0.0
 11
4804.247939427189
 21
-1041.192445949741
 31
0.0
  0
ARC
  5
2AD
  8
LAYER_01
 10
4808.247939427189
 20
-1041.19244594974
 30
-0.0000000000000042
 40
4.0
 50
90.0
 51
180.000000000013
  0
LINE
  5
2AE
  8
LAYER_01
 10
4808.247939427189
 20
-1037.19244594974
 30
-0.0000000000000042
 11
4937.723135731074
 21
-1037.192445949743
 31
-0.0000000000000007
  0
ARC
  5
2AF
  8
LAYER_01
 10
4937.723135731073
 20
-1041.192445949743
 30
-0.0000000000000007
 40
4.0
 50
0.0000000000065138
 51
89.99999999998697
  0
LINE
  5
2B0
  8
LAYER_01
 10
4941.723135731073
 20
-1041.192445949743
 30
0.0
 11
4941.723135731075
 21
-1043.19244594974
 31
0.0
  0
ARC
  5
2B1
  8
LAYER_01
 10
4937.723135731075
 20
-1043.19244594974
 30
-0.0000000000000001
 40
4.0
 50
270.0000000000391
 51
0.0000000000032569
  0
LINE
  5
2B2
  8
LAYER_01
 10
4878.895260803234
 20
-984.9617989588876
 30
0.0
 11
4878.895260803234
 21
-987.9617989588876
 31
0.0
  0
LINE
  5
2B3
  8
LAYER_01
 10
4878.895260803234
 20
-987.9617989588876
 30
0.0
 11
4884.652620116115
 21
-987.9617989588876
 31
0.0
  0
ARC
  5
2B4
  8
LAYER_01
 10
4888.895260803234
 20
-989.4617989588876
 30
0.0
 40
4.5
 50
160.5287793655071
 51
19.47122063449151
  0
LINE
  5
2B5
  8
LAYER_01
 10
4893.137901490354
 20
-987.9617989588876
 30
0.0
 11
4898.895260803234
 21
-987.9617989588876
 31
0.0
  0
LINE
  5
2B6
  8
LAYER_01
 10
4898.895260803234
 20
-987.9617989588876
 30
0.0
 11
4898.895260803234
 21
-984.9617989588876
 31
0.0
  0
LINE
  5
2B7
  8
LAYER_01
 10
4898.895260803234
 20
-984.9617989588876
 30
0.0
 11
4878.895260803234
 21
-984.9617989588876
 31
0.0
  0
LINE
  5
2B8
  8
LAYER_01
 10
4854.895260803234
 20
-984.9617989588876
 30
0.0
 11
4854.895260803234
 21
-987.9617989588876
 31
0.0
  0
LINE
  5
2B9
  8
LAYER_01
 10
4854.895260803234
 20
-987.9617989588876
 30
0.0
 11
4860.652620116115
 21
-987.9617989588876
 31
0.0
  0
ARC
  5
2BA
  8
LAYER_01
 10
4864.895260803234
 20
-989.4617989588876
 30
0.0
 40
4.5
 50
160.5287793655071
 51
19.47122063449151
  0
LINE
  5
2BB
  8
LAYER_01
 10
4869.137901490354
 20
-987.9617989588876
 30
0.0
 11
4874.895260803234
 21
-987.9617989588876
 31
0.0
  0
LINE
  5
2BC
  8
LAYER_01
 10
4874.895260803234
 20
-987.9617989588876
 30
0.0
 11
4874.895260803234
 21
-984.9617989588876
 31
0.0
  0
LINE
  5
2BD
  8
LAYER_01
 10
4874.895260803234
 20
-984.9617989588876
 30
0.0
 11
4854.895260803234
 21
-984.9617989588876
 31
0.0
  0
LINE
  5
2BE
  8
LAYER_01
 10
4829.206837279166
 20
-984.9617989588876
 30
0.0
 11
4829.206837279166
 21
-987.9617989588876
 31
0.0
  0
LINE
  5
2BF
  8
LAYER_01
 10
4829.206837279166
 20
-987.9617989588876
 30
0.0
 11
4834.964196592047
 21
-987.9617989588876
 31
0.0
  0
ARC
  5
2C0
  8
LAYER_01
 10
4839.206837279166
 20
-989.4617989588876
 30
0.0
 40
4.5
 50
160.5287793655071
 51
19.47122063449151
  0
LINE
  5
2C1
  8
LAYER_01
 10
4843.449477966285
 20
-987.9617989588876
 30
0.0
 11
4849.206837279166
 21
-987.9617989588876
 31
0.0
  0
LINE
  5
2C2
  8
LAYER_01
 10
4849.206837279166
 20
-987.9617989588876
 30
0.0
 11
4849.206837279166
 21
-984.9617989588876
 31
0.0
  0
LINE
  5
2C3
  8
LAYER_01
 10
4849.206837279166
 20
-984.9617989588876
 30
0.0
 11
4829.206837279166
 21
-984.9617989588876
 31
0.0
  0
LINE
  5
2C4
  8
LAYER_01
 10
4804.469836848582
 20
-984.9617989588876
 30
0.0
 11
4804.469836848582
 21
-987.9617989588876
 31
0.0
  0
LINE
  5
2C5
  8
LAYER_01
 10
4804.469836848582
 20
-987.9617989588876
 30
0.0
 11
4810.227196161463
 21
-987.9617989588876
 31
0.0
  0
ARC
  5
2C6
  8
LAYER_01
 10
4814.469836848582
 20
-989.4617989588876
 30
0.0
 40
4.5
 50
160.5287793655071
 51
19.47122063449151
  0
LINE
  5
2C7
  8
LAYER_01
 10
4818.712477535702
 20
-987.9617989588876
 30
0.0
 11
4824.469836848582
 21
-987.9617989588876
 31
0.0
  0
LINE
  5
2C8
  8
LAYER_01
 10
4824.469836848582
 20
-987.9617989588876
 30
0.0
 11
4824.469836848582
 21
-984.9617989588876
 31
0.0
  0
LINE
  5
2C9
  8
LAYER_01
 10
4824.469836848582
 20
-984.9617989588876
 30
0.0
 11
4804.469836848582
 21
-984.9617989588876
 31
0.0
  0
CIRCLE
  5
2CA
  8
LAYER_04
 10
4814.469836848582
 20
-989.4617989588878
 30
0.0
 40
1.750000000000227
  0
CIRCLE
  5
2CB
  8
LAYER_04
 10
4839.206837279167
 20
-989.4617989588876
 30
0.0
 40
1.749999999999773
  0
CIRCLE
  5
2CC
  8
LAYER_04
 10
4864.895260803234
 20
-989.4617989588878
 30
0.0
 40
1.750000000000227
  0
CIRCLE
  5
2CD
  8
LAYER_04
 10
4888.895260803234
 20
-989.4617989588878
 30
0.0
 40
1.75
  0
LINE
  5
2CE
  8
LAYER_01
 10
5081.723135731077
 20
-926.955134160005
 30
0.0000000000000001
 11
5078.223135731075
 21
-926.9551341600051
 31
0.0
  0
ARC
  5
2CF
  8
LAYER_01
 10
5078.223135731075
 20
-925.4551341600051
 30
0.0
 40
1.5
 50
180.0
 51
270.0
  0
ARC
  5
2D0
  8
LAYER_01
 10
5078.223135731075
 20
-925.4551341600051
 30
0.0
 40
1.5
 50
90.0
 51
180.0
  0
LINE
  5
2D1
  8
LAYER_01
 10
5078.223135731075
 20
-923.9551341600051
 30
0.0
 11
5081.223135731075
 21
-923.9551341600052
 31
0.0
  0
ARC
  5
2D2
  8
LAYER_01
 10
5081.223135731074
 20
-922.4551341600052
 30
0.0
 40
1.5
 50
270.0000000000347
 51
0.0
  0
ARC
  5
2D3
  8
LAYER_01
 10
5081.223135731074
 20
-922.455134160006
 30
0.0
 40
1.500000000000114
 50
0.0000000000303976
 51
89.99999999996527
  0
LINE
  5
2D4
  8
LAYER_01
 10
5081.223135731075
 20
-920.9551341600059
 30
0.0
 11
4952.747939427188
 21
-920.9551341600051
 31
0.0
  0
ARC
  5
2D5
  8
LAYER_01
 10
4952.747939427187
 20
-922.4551341600051
 30
0.0
 40
1.5
 50
89.99999999996527
 51
180.0
  0
ARC
  5
2D6
  8
LAYER_01
 10
4952.747939427187
 20
-922.4551341600052
 30
0.0
 40
1.5
 50
179.9999999999957
 51
269.9999999999652
  0
LINE
  5
2D7
  8
LAYER_01
 10
4952.747939427186
 20
-923.9551341600052
 30
0.0
 11
4955.747939427188
 21
-923.9551341600051
 31
0.0
  0
ARC
  5
2D8
  8
LAYER_01
 10
4955.747939427188
 20
-925.455134160005
 30
0.0
 40
1.499999999999886
 50
359.9999999999392
 51
90.0
  0
ARC
  5
2D9
  8
LAYER_01
 10
4955.747939427188
 20
-925.4551341600065
 30
0.0
 40
1.5
 50
270.0000000000347
 51
0.0
  0
LINE
  5
2DA
  8
LAYER_01
 10
4955.747939427189
 20
-926.9551341600065
 30
0.0
 11
4952.24793942719
 21
-926.9551341600055
 31
0.0000000000000001
  0
ARC
  5
2DB
  8
LAYER_01
 10
4952.247939427188
 20
-922.9551341600055
 30
-0.0000000000000001
 40
4.0
 50
179.9999999999756
 51
270.0000000000391
  0
LINE
  5
2DC
  8
LAYER_01
 10
4948.247939427188
 20
-922.9551341600038
 30
0.0
 11
4948.247939427189
 21
-920.955134160006
 31
0.0
  0
ARC
  5
2DD
  8
LAYER_01
 10
4952.247939427189
 20
-920.9551341600051
 30
-0.0000000000000042
 40
4.0
 50
90.0
 51
180.000000000013
  0
LINE
  5
2DE
  8
LAYER_01
 10
4952.247939427189
 20
-916.9551341600051
 30
-0.0000000000000042
 11
5081.723135731074
 21
-916.9551341600081
 31
-0.0000000000000007
  0
ARC
  5
2DF
  8
LAYER_01
 10
5081.723135731073
 20
-920.9551341600081
 30
-0.0000000000000007
 40
4.0
 50
0.0000000000048853
 51
89.99999999998697
  0
LINE
  5
2E0
  8
LAYER_01
 10
5085.723135731073
 20
-920.9551341600078
 30
0.0
 11
5085.723135731075
 21
-922.9551341600047
 31
0.0
  0
ARC
  5
2E1
  8
LAYER_01
 10
5081.723135731075
 20
-922.955134160005
 30
-0.0000000000000001
 40
4.0
 50
270.0000000000391
 51
0.0000000000032569
  0
LINE
  5
2E2
  8
LAYER_01
 10
5081.723135731077
 20
-940.5037879437693
 30
0.0000000000000001
 11
5078.223135731075
 21
-940.5037879437695
 31
0.0
  0
ARC
  5
2E3
  8
LAYER_01
 10
5078.223135731075
 20
-939.0037879437695
 30
0.0
 40
1.5
 50
180.0
 51
270.0
  0
ARC
  5
2E4
  8
LAYER_01
 10
5078.223135731075
 20
-939.0037879437695
 30
0.0
 40
1.5
 50
90.0
 51
180.0
  0
LINE
  5
2E5
  8
LAYER_01
 10
5078.223135731075
 20
-937.5037879437695
 30
0.0
 11
5081.223135731075
 21
-937.5037879437696
 31
0.0
  0
ARC
  5
2E6
  8
LAYER_01
 10
5081.223135731074
 20
-936.0037879437696
 30
0.0
 40
1.5
 50
270.0000000000347
 51
0.0
  0
ARC
  5
2E7
  8
LAYER_01
 10
5081.223135731074
 20
-936.0037879437704
 30
0.0
 40
1.500000000000114
 50
0.0000000000303976
 51
89.99999999996527
  0
LINE
  5
2E8
  8
LAYER_01
 10
5081.223135731075
 20
-934.5037879437702
 30
0.0
 11
4952.747939427188
 21
-934.5037879437695
 31
0.0
  0
ARC
  5
2E9
  8
LAYER_01
 10
4952.747939427187
 20
-936.0037879437695
 30
0.0
 40
1.5
 50
89.99999999996527
 51
180.0
  0
ARC
  5
2EA
  8
LAYER_01
 10
4952.747939427187
 20
-936.0037879437696
 30
0.0
 40
1.5
 50
179.9999999999957
 51
269.9999999999652
  0
LINE
  5
2EB
  8
LAYER_01
 10
4952.747939427186
 20
-937.5037879437696
 30
0.0
 11
4955.747939427188
 21
-937.5037879437695
 31
0.0
  0
ARC
  5
2EC
  8
LAYER_01
 10
4955.747939427188
 20
-939.0037879437693
 30
0.0
 40
1.499999999999886
 50
359.9999999999392
 51
90.0
  0
ARC
  5
2ED
  8
LAYER_01
 10
4955.747939427188
 20
-939.0037879437709
 30
0.0
 40
1.5
 50
270.0000000000347
 51
0.0
  0
LINE
  5
2EE
  8
LAYER_01
 10
4955.747939427189
 20
-940.5037879437709
 30
0.0
 11
4952.24793942719
 21
-940.5037879437699
 31
0.0000000000000001
  0
ARC
  5
2EF
  8
LAYER_01
 10
4952.247939427188
 20
-936.5037879437699
 30
-0.0000000000000001
 40
4.0
 50
179.9999999999756
 51
270.0000000000391
  0
LINE
  5
2F0
  8
LAYER_01
 10
4948.247939427188
 20
-936.5037879437682
 30
0.0
 11
4948.247939427189
 21
-934.5037879437704
 31
0.0
  0
ARC
  5
2F1
  8
LAYER_01
 10
4952.247939427189
 20
-934.5037879437695
 30
-0.0000000000000042
 40
4.0
 50
90.0
 51
180.000000000013
  0
LINE
  5
2F2
  8
LAYER_01
 10
4952.247939427189
 20
-930.5037879437695
 30
-0.0000000000000042
 11
5081.723135731074
 21
-930.5037879437725
 31
-0.0000000000000007
  0
ARC
  5
2F3
  8
LAYER_01
 10
5081.723135731073
 20
-934.5037879437725
 30
-0.0000000000000007
 40
4.0
 50
0.0000000000048853
 51
89.99999999998697
  0
LINE
  5
2F4
  8
LAYER_01
 10
5085.723135731073
 20
-934.5037879437722
 30
0.0
 11
5085.723135731075
 21
-936.5037879437691
 31
0.0
  0
ARC
  5
2F5
  8
LAYER_01
 10
5081.723135731075
 20
-936.5037879437693
 30
-0.0000000000000001
 40
4.0
 50
270.0000000000391
 51
0.0000000000032569
  0
LINE
  5
2F6
  8
LAYER_01
 10
5081.723135731077
 20
-952.8481169467547
 30
0.0000000000000001
 11
5078.223135731075
 21
-952.8481169467548
 31
0.0
  0
ARC
  5
2F7
  8
LAYER_01
 10
5078.223135731075
 20
-951.3481169467548
 30
0.0
 40
1.5
 50
180.0
 51
270.0
  0
ARC
  5
2F8
  8
LAYER_01
 10
5078.223135731075
 20
-951.3481169467548
 30
0.0
 40
1.5
 50
90.0
 51
180.0
  0
LINE
  5
2F9
  8
LAYER_01
 10
5078.223135731075
 20
-949.8481169467548
 30
0.0
 11
5081.223135731075
 21
-949.8481169467549
 31
0.0
  0
ARC
  5
2FA
  8
LAYER_01
 10
5081.223135731074
 20
-948.3481169467549
 30
0.0
 40
1.5
 50
270.0000000000347
 51
0.0
  0
ARC
  5
2FB
  8
LAYER_01
 10
5081.223135731074
 20
-948.3481169467557
 30
0.0
 40
1.500000000000114
 50
0.0000000000303976
 51
89.99999999996527
  0
LINE
  5
2FC
  8
LAYER_01
 10
5081.223135731075
 20
-946.8481169467556
 30
0.0
 11
4952.747939427188
 21
-946.8481169467548
 31
0.0
  0
ARC
  5
2FD
  8
LAYER_01
 10
4952.747939427187
 20
-948.3481169467548
 30
0.0
 40
1.5
 50
89.99999999996527
 51
180.0
  0
ARC
  5
2FE
  8
LAYER_01
 10
4952.747939427187
 20
-948.3481169467549
 30
0.0
 40
1.5
 50
179.9999999999957
 51
269.9999999999652
  0
LINE
  5
2FF
  8
LAYER_01
 10
4952.747939427186
 20
-949.8481169467549
 30
0.0
 11
4955.747939427188
 21
-949.8481169467548
 31
0.0
  0
ARC
  5
300
  8
LAYER_01
 10
4955.747939427188
 20
-951.3481169467547
 30
0.0
 40
1.499999999999886
 50
359.9999999999392
 51
90.0
  0
ARC
  5
301
  8
LAYER_01
 10
4955.747939427188
 20
-951.3481169467562
 30
0.0
 40
1.5
 50
270.0000000000347
 51
0.0
  0
LINE
  5
302
  8
LAYER_01
 10
4955.747939427189
 20
-952.8481169467562
 30
0.0
 11
4952.24793942719
 21
-952.8481169467552
 31
0.0000000000000001
  0
ARC
  5
303
  8
LAYER_01
 10
4952.247939427188
 20
-948.8481169467552
 30
-0.0000000000000001
 40
4.0
 50
179.9999999999756
 51
270.0000000000391
  0
LINE
  5
304
  8
LAYER_01
 10
4948.247939427188
 20
-948.8481169467535
 30
0.0
 11
4948.247939427189
 21
-946.8481169467557
 31
0.0
  0
ARC
  5
305
  8
LAYER_01
 10
4952.247939427189
 20
-946.8481169467548
 30
-0.0000000000000042
 40
4.0
 50
90.0
 51
180.000000000013
  0
LINE
  5
306
  8
LAYER_01
 10
4952.247939427189
 20
-942.8481169467548
 30
-0.0000000000000042
 11
5081.723135731074
 21
-942.8481169467578
 31
-0.0000000000000007
  0
ARC
  5
307
  8
LAYER_01
 10
5081.723135731073
 20
-946.8481169467578
 30
-0.0000000000000007
 40
4.0
 50
0.0000000000048853
 51
89.99999999998697
  0
LINE
  5
308
  8
LAYER_01
 10
5085.723135731073
 20
-946.8481169467575
 30
0.0
 11
5085.723135731075
 21
-948.8481169467544
 31
0.0
  0
ARC
  5
309
  8
LAYER_01
 10
5081.723135731075
 20
-948.8481169467547
 30
-0.0000000000000001
 40
4.0
 50
270.0000000000391
 51
0.0000000000032569
  0
LINE
  5
30A
  8
LAYER_01
 10
5081.723135731077
 20
-965.19244594974
 30
0.0000000000000001
 11
5078.223135731075
 21
-965.1924459497401
 31
0.0
  0
ARC
  5
30B
  8
LAYER_01
 10
5078.223135731075
 20
-963.6924459497401
 30
0.0
 40
1.5
 50
180.0
 51
270.0
  0
ARC
  5
30C
  8
LAYER_01
 10
5078.223135731075
 20
-963.6924459497401
 30
0.0
 40
1.5
 50
90.0
 51
180.0
  0
LINE
  5
30D
  8
LAYER_01
 10
5078.223135731075
 20
-962.1924459497401
 30
0.0
 11
5081.223135731075
 21
-962.1924459497402
 31
0.0
  0
ARC
  5
30E
  8
LAYER_01
 10
5081.223135731074
 20
-960.6924459497402
 30
0.0
 40
1.5
 50
270.0000000000347
 51
0.0
  0
ARC
  5
30F
  8
LAYER_01
 10
5081.223135731074
 20
-960.692445949741
 30
0.0
 40
1.500000000000114
 50
0.0000000000303976
 51
89.99999999996527
  0
LINE
  5
310
  8
LAYER_01
 10
5081.223135731075
 20
-959.1924459497409
 30
0.0
 11
4952.747939427188
 21
-959.1924459497401
 31
0.0
  0
ARC
  5
311
  8
LAYER_01
 10
4952.747939427187
 20
-960.6924459497401
 30
0.0
 40
1.5
 50
89.99999999996527
 51
180.0
  0
ARC
  5
312
  8
LAYER_01
 10
4952.747939427187
 20
-960.6924459497402
 30
0.0
 40
1.5
 50
179.9999999999957
 51
269.9999999999652
  0
LINE
  5
313
  8
LAYER_01
 10
4952.747939427186
 20
-962.1924459497402
 30
0.0
 11
4955.747939427188
 21
-962.1924459497401
 31
0.0
  0
ARC
  5
314
  8
LAYER_01
 10
4955.747939427188
 20
-963.69244594974
 30
0.0
 40
1.499999999999886
 50
359.9999999999392
 51
90.0
  0
ARC
  5
315
  8
LAYER_01
 10
4955.747939427188
 20
-963.6924459497416
 30
0.0
 40
1.5
 50
270.0000000000347
 51
0.0
  0
LINE
  5
316
  8
LAYER_01
 10
4955.747939427189
 20
-965.1924459497416
 30
0.0
 11
4952.24793942719
 21
-965.1924459497405
 31
0.0000000000000001
  0
ARC
  5
317
  8
LAYER_01
 10
4952.247939427188
 20
-961.1924459497405
 30
-0.0000000000000001
 40
4.0
 50
179.9999999999756
 51
270.0000000000391
  0
LINE
  5
318
  8
LAYER_01
 10
4948.247939427188
 20
-961.1924459497388
 30
0.0
 11
4948.247939427189
 21
-959.192445949741
 31
0.0
  0
ARC
  5
319
  8
LAYER_01
 10
4952.247939427189
 20
-959.1924459497401
 30
-0.0000000000000042
 40
4.0
 50
90.0
 51
180.000000000013
  0
LINE
  5
31A
  8
LAYER_01
 10
4952.247939427189
 20
-955.1924459497401
 30
-0.0000000000000042
 11
5081.723135731074
 21
-955.1924459497432
 31
-0.0000000000000007
  0
ARC
  5
31B
  8
LAYER_01
 10
5081.723135731073
 20
-959.1924459497432
 30
-0.0000000000000007
 40
4.0
 50
0.0000000000048853
 51
89.99999999998697
  0
LINE
  5
31C
  8
LAYER_01
 10
5085.723135731073
 20
-959.1924459497428
 30
0.0
 11
5085.723135731075
 21
-961.1924459497397
 31
0.0
  0
ARC
  5
31D
  8
LAYER_01
 10
5081.723135731075
 20
-961.19244594974
 30
-0.0000000000000001
 40
4.0
 50
270.0000000000391
 51
0.0000000000032569
  0
LINE
  5
31E
  8
LAYER_01
 10
5022.895260803234
 20
-902.9617989588876
 30
0.0
 11
5022.895260803234
 21
-905.9617989588876
 31
0.0
  0
LINE
  5
31F
  8
LAYER_01
 10
5022.895260803234
 20
-905.9617989588876
 30
0.0
 11
5028.652620116115
 21
-905.9617989588876
 31
0.0
  0
ARC
  5
320
  8
LAYER_01
 10
5032.895260803234
 20
-907.4617989588876
 30
0.0
 40
4.5
 50
160.5287793655071
 51
19.47122063449151
  0
LINE
  5
321
  8
LAYER_01
 10
5037.137901490354
 20
-905.9617989588876
 30
0.0
 11
5042.895260803234
 21
-905.9617989588876
 31
0.0
  0
LINE
  5
322
  8
LAYER_01
 10
5042.895260803234
 20
-905.9617989588876
 30
0.0
 11
5042.895260803234
 21
-902.9617989588876
 31
0.0
  0
LINE
  5
323
  8
LAYER_01
 10
5042.895260803234
 20
-902.9617989588876
 30
0.0
 11
5022.895260803234
 21
-902.9617989588876
 31
0.0
  0
LINE
  5
324
  8
LAYER_01
 10
4998.895260803234
 20
-902.9617989588876
 30
0.0
 11
4998.895260803234
 21
-905.9617989588876
 31
0.0
  0
LINE
  5
325
  8
LAYER_01
 10
4998.895260803234
 20
-905.9617989588876
 30
0.0
 11
5004.652620116115
 21
-905.9617989588876
 31
0.0
  0
ARC
  5
326
  8
LAYER_01
 10
5008.895260803234
 20
-907.4617989588876
 30
0.0
 40
4.5
 50
160.5287793655071
 51
19.47122063449151
  0
LINE
  5
327
  8
LAYER_01
 10
5013.137901490354
 20
-905.9617989588876
 30
0.0
 11
5018.895260803234
 21
-905.9617989588876
 31
0.0
  0
LINE
  5
328
  8
LAYER_01
 10
5018.895260803234
 20
-905.9617989588876
 30
0.0
 11
5018.895260803234
 21
-902.9617989588876
 31
0.0
  0
LINE
  5
329
  8
LAYER_01
 10
5018.895260803234
 20
-902.9617989588876
 30
0.0
 11
4998.895260803234
 21
-902.9617989588876
 31
0.0
  0
LINE
  5
32A
  8
LAYER_01
 10
4973.206837279166
 20
-902.9617989588876
 30
0.0
 11
4973.206837279166
 21
-905.9617989588876
 31
0.0
  0
LINE
  5
32B
  8
LAYER_01
 10
4973.206837279166
 20
-905.9617989588876
 30
0.0
 11
4978.964196592047
 21
-905.9617989588876
 31
0.0
  0
ARC
  5
32C
  8
LAYER_01
 10
4983.206837279166
 20
-907.4617989588876
 30
0.0
 40
4.5
 50
160.5287793655071
 51
19.47122063449151
  0
LINE
  5
32D
  8
LAYER_01
 10
4987.449477966285
 20
-905.9617989588876
 30
0.0
 11
4993.206837279166
 21
-905.9617989588876
 31
0.0
  0
LINE
  5
32E
  8
LAYER_01
 10
4993.206837279166
 20
-905.9617989588876
 30
0.0
 11
4993.206837279166
 21
-902.9617989588876
 31
0.0
  0
LINE
  5
32F
  8
LAYER_01
 10
4993.206837279166
 20
-902.9617989588876
 30
0.0
 11
4973.206837279166
 21
-902.9617989588876
 31
0.0
  0
LINE
  5
330
  8
LAYER_01
 10
4948.469836848582
 20
-902.9617989588876
 30
0.0
 11
4948.469836848582
 21
-905.9617989588876
 31
0.0
  0
LINE
  5
331
  8
LAYER_01
 10
4948.469836848582
 20
-905.9617989588876
 30
0.0
 11
4954.227196161463
 21
-905.9617989588876
 31
0.0
  0
ARC
  5
332
  8
LAYER_01
 10
4958.469836848582
 20
-907.4617989588876
 30
0.0
 40
4.5
 50
160.5287793655071
 51
19.47122063449151
  0
LINE
  5
333
  8
LAYER_01
 10
4962.712477535702
 20
-905.9617989588876
 30
0.0
 11
4968.469836848582
 21
-905.9617989588876
 31
0.0
  0
LINE
  5
334
  8
LAYER_01
 10
4968.469836848582
 20
-905.9617989588876
 30
0.0
 11
4968.469836848582
 21
-902.9617989588876
 31
0.0
  0
LINE
  5
335
  8
LAYER_01
 10
4968.469836848582
 20
-902.9617989588876
 30
0.0
 11
4948.469836848582
 21
-902.9617989588876
 31
0.0
  0
CIRCLE
  5
336
  8
LAYER_04
 10
4958.469836848582
 20
-907.4617989588878
 30
0.0
 40
1.750000000000227
  0
CIRCLE
  5
337
  8
LAYER_04
 10
4983.206837279167
 20
-907.4617989588876
 30
0.0
 40
1.749999999999773
  0
CIRCLE
  5
338
  8
LAYER_04
 10
5008.895260803234
 20
-907.4617989588878
 30
0.0
 40
1.750000000000227
  0
CIRCLE
  5
339
  8
LAYER_04
 10
5032.895260803234
 20
-907.4617989588878
 30
0.0
 40
1.75
  0
CIRCLE
  5
33A
  8
LAYER_04
 10
5144.040175334957
 20
-948.0206904862139
 30
0.0
 40
0.950012048754375
  0
CIRCLE
  5
33B
  8
LAYER_04
 10
5116.667366428936
 20
-948.0206904862139
 30
0.0
 40
0.950012048754375
  0
LINE
  5
33C
  8
LAYER_04
 10
5148.418633596196
 20
-939.7564716064919
 30
0.0
 11
5143.418633596196
 21
-939.7564716064919
 31
0.0
  0
LINE
  5
33D
  8
LAYER_04
 10
5143.418633596196
 20
-939.7564716064919
 30
0.0
 11
5143.418633596196
 21
-937.2564716064919
 31
0.0
  0
LINE
  5
33E
  8
LAYER_04
 10
5143.418633596196
 20
-937.2564716064919
 30
0.0
 11
5148.418633596196
 21
-937.2564716064919
 31
0.0
  0
LINE
  5
33F
  8
LAYER_04
 10
5148.418633596196
 20
-937.2564716064919
 30
0.0
 11
5148.418633596196
 21
-939.7564716064919
 31
0.0
  0
LINE
  5
340
  8
LAYER_04
 10
5112.288908167698
 20
-939.7564716064919
 30
0.0
 11
5117.288908167698
 21
-939.7564716064919
 31
0.0
  0
LINE
  5
341
  8
LAYER_04
 10
5117.288908167698
 20
-939.7564716064919
 30
0.0
 11
5117.288908167698
 21
-937.2564716064919
 31
0.0
  0
LINE
  5
342
  8
LAYER_04
 10
5117.288908167698
 20
-937.2564716064919
 30
0.0
 11
5112.288908167698
 21
-937.2564716064919
 31
0.0
  0
LINE
  5
343
  8
LAYER_04
 10
5112.288908167698
 20
-937.2564716064919
 30
0.0
 11
5112.288908167698
 21
-939.7564716064919
 31
0.0
  0
LINE
  5
344
  8
LAYER_01
 10
5119.10527032284
 20
-942.0129432129814
 30
0.0
 11
5119.10527032284
 21
-954.0512322353563
 31
0.0
  0
LINE
  5
345
  8
LAYER_01
 10
5119.10527032284
 20
-954.0512322353563
 30
0.0
 11
5110.472546012557
 21
-954.0512322353562
 31
0.0
  0
LINE
  5
346
  8
LAYER_01
 10
5110.472546012557
 20
-954.0512322353562
 30
0.0
 11
5110.472546012556
 21
-935.0
 31
0.0
  0
LINE
  5
347
  8
LAYER_01
 10
5110.472546012556
 20
-935.0
 30
0.0
 11
5150.234995751337
 21
-934.9999999999999
 31
0.0
  0
LINE
  5
348
  8
LAYER_01
 10
5150.234995751337
 20
-934.9999999999999
 30
0.0
 11
5150.234995751336
 21
-954.0512322353562
 31
0.0
  0
LINE
  5
349
  8
LAYER_01
 10
5150.234995751336
 20
-954.0512322353562
 30
0.0
 11
5141.602271441054
 21
-954.0512322353563
 31
0.0
  0
LINE
  5
34A
  8
LAYER_01
 10
5141.602271441054
 20
-954.0512322353563
 30
0.0
 11
5141.602271441054
 21
-942.0129432129817
 31
0.0
  0
LINE
  5
34B
  8
LAYER_01
 10
5141.602271441054
 20
-942.0129432129817
 30
0.0
 11
5119.10527032284
 21
-942.0129432129814
 31
0.0
  0
LINE
  5
34C
  8
LAYER_01
 10
5142.538178545036
 20
-907.6342632688784
 30
0.0
 11
5116.408453116538
 21
-907.6342632688784
 31
0.0
  0
LINE
  5
34D
  8
LAYER_01
 10
5116.408453116538
 20
-907.6342632688785
 30
0.0
 11
5116.408453116538
 21
-905.1342632688785
 31
0.0
  0
LINE
  5
34E
  8
LAYER_01
 10
5116.408453116538
 20
-905.1342632688785
 30
0.0
 11
5111.408453116538
 21
-905.1342632688785
 31
0.0
  0
LINE
  5
34F
  8
LAYER_01
 10
5111.408453116538
 20
-905.1342632688785
 30
0.0
 11
5111.408453116538
 21
-907.6342632688784
 31
0.0
  0
LINE
  5
350
  8
LAYER_01
 10
5111.408453116538
 20
-907.6342632688784
 30
0.0
 11
5109.592090961397
 21
-907.6342632688784
 31
0.0
  0
LINE
  5
351
  8
LAYER_01
 10
5109.592090961397
 20
-907.6342632688784
 30
0.0
 11
5109.592090961397
 21
-925.6342632688783
 31
0.0
  0
LINE
  5
352
  8
LAYER_01
 10
5109.592090961397
 20
-925.6342632688783
 30
0.0
 11
5111.408453116538
 21
-925.6342632688784
 31
0.0
  0
LINE
  5
353
  8
LAYER_01
 10
5111.408453116538
 20
-925.6342632688784
 30
0.0
 11
5111.408453116538
 21
-928.1342632688783
 31
0.0
  0
LINE
  5
354
  8
LAYER_01
 10
5111.408453116538
 20
-928.1342632688783
 30
0.0
 11
5116.408453116538
 21
-928.1342632688783
 31
0.0
  0
LINE
  5
355
  8
LAYER_01
 10
5116.408453116538
 20
-928.1342632688783
 30
0.0
 11
5116.408453116538
 21
-925.6342632688784
 31
0.0
  0
LINE
  5
356
  8
LAYER_01
 10
5116.408453116538
 20
-925.6342632688784
 30
0.0
 11
5142.538178545036
 21
-925.6342632688783
 31
0.0
  0
LINE
  5
357
  8
LAYER_01
 10
5142.538178545036
 20
-925.6342632688783
 30
0.0
 11
5142.538178545036
 21
-928.1342632688783
 31
0.0
  0
LINE
  5
358
  8
LAYER_01
 10
5142.538178545036
 20
-928.1342632688783
 30
0.0
 11
5147.538178545036
 21
-928.1342632688783
 31
0.0
  0
LINE
  5
359
  8
LAYER_01
 10
5147.538178545036
 20
-928.1342632688783
 30
0.0
 11
5147.538178545036
 21
-925.6342632688783
 31
0.0
  0
LINE
  5
35A
  8
LAYER_01
 10
5147.538178545036
 20
-925.6342632688783
 30
0.0
 11
5149.354540700177
 21
-925.6342632688783
 31
0.0
  0
LINE
  5
35B
  8
LAYER_01
 10
5149.354540700177
 20
-925.6342632688783
 30
0.0
 11
5149.354540700177
 21
-907.6342632688784
 31
0.0
  0
LINE
  5
35C
  8
LAYER_01
 10
5149.354540700177
 20
-907.6342632688784
 30
0.0
 11
5147.538178545036
 21
-907.6342632688784
 31
0.0
  0
LINE
  5
35D
  8
LAYER_01
 10
5147.538178545036
 20
-907.6342632688784
 30
0.0
 11
5147.538178545036
 21
-905.1342632688785
 31
0.0
  0
LINE
  5
35E
  8
LAYER_01
 10
5147.538178545036
 20
-905.1342632688785
 30
0.0
 11
5142.538178545036
 21
-905.1342632688785
 31
0.0
  0
LINE
  5
35F
  8
LAYER_01
 10
5142.538178545036
 20
-905.1342632688785
 30
0.0
 11
5142.538178545036
 21
-907.6342632688784
 31
0.0
  0
CIRCLE
  5
360
  8
LAYER_04
 10
4981.040175334957
 20
-1015.020690486214
 30
0.0
 40
0.950012048754375
  0
CIRCLE
  5
361
  8
LAYER_04
 10
4953.667366428936
 20
-1015.020690486214
 30
0.0
 40
0.950012048754375
  0
LINE
  5
362
  8
LAYER_04
 10
4985.418633596196
 20
-1006.756471606492
 30
0.0
 11
4980.418633596196
 21
-1006.756471606492
 31
0.0
  0
LINE
  5
363
  8
LAYER_04
 10
4980.418633596196
 20
-1006.756471606492
 30
0.0
 11
4980.418633596196
 21
-1004.256471606492
 31
0.0
  0
LINE
  5
364
  8
LAYER_04
 10
4980.418633596196
 20
-1004.256471606492
 30
0.0
 11
4985.418633596196
 21
-1004.256471606492
 31
0.0
  0
LINE
  5
365
  8
LAYER_04
 10
4985.418633596196
 20
-1004.256471606492
 30
0.0
 11
4985.418633596196
 21
-1006.756471606492
 31
0.0
  0
LINE
  5
366
  8
LAYER_04
 10
4949.288908167698
 20
-1006.756471606492
 30
0.0
 11
4954.288908167698
 21
-1006.756471606492
 31
0.0
  0
LINE
  5
367
  8
LAYER_04
 10
4954.288908167698
 20
-1006.756471606492
 30
0.0
 11
4954.288908167698
 21
-1004.256471606492
 31
0.0
  0
LINE
  5
368
  8
LAYER_04
 10
4954.288908167698
 20
-1004.256471606492
 30
0.0
 11
4949.288908167698
 21
-1004.256471606492
 31
0.0
  0
LINE
  5
369
  8
LAYER_04
 10
4949.288908167698
 20
-1004.256471606492
 30
0.0
 11
4949.288908167698
 21
-1006.756471606492
 31
0.0
  0
LINE
  5
36A
  8
LAYER_01
 10
4956.10527032284
 20
-1009.012943212981
 30
0.0
 11
4956.10527032284
 21
-1021.051232235356
 31
0.0
  0
LINE
  5
36B
  8
LAYER_01
 10
4956.10527032284
 20
-1021.051232235356
 30
0.0
 11
4947.472546012557
 21
-1021.051232235356
 31
0.0
  0
LINE
  5
36C
  8
LAYER_01
 10
4947.472546012557
 20
-1021.051232235356
 30
0.0
 11
4947.472546012556
 21
-1002.0
 31
0.0
  0
LINE
  5
36D
  8
LAYER_01
 10
4947.472546012556
 20
-1002.0
 30
0.0
 11
4987.234995751337
 21
-1002.0
 31
0.0
  0
LINE
  5
36E
  8
LAYER_01
 10
4987.234995751337
 20
-1002.0
 30
0.0
 11
4987.234995751336
 21
-1021.051232235356
 31
0.0
  0
LINE
  5
36F
  8
LAYER_01
 10
4987.234995751336
 20
-1021.051232235356
 30
0.0
 11
4978.602271441054
 21
-1021.051232235356
 31
0.0
  0
LINE
  5
370
  8
LAYER_01
 10
4978.602271441054
 20
-1021.051232235356
 30
0.0
 11
4978.602271441054
 21
-1009.012943212982
 31
0.0
  0
LINE
  5
371
  8
LAYER_01
 10
4978.602271441054
 20
-1009.012943212982
 30
0.0
 11
4956.10527032284
 21
-1009.012943212981
 31
0.0
  0
LINE
  5
372
  8
LAYER_01
 10
4979.538178545036
 20
-974.6342632688784
 30
0.0
 11
4953.408453116538
 21
-974.6342632688784
 31
0.0
  0
LINE
  5
373
  8
LAYER_01
 10
4953.408453116538
 20
-974.6342632688785
 30
0.0
 11
4953.408453116538
 21
-972.1342632688785
 31
0.0
  0
LINE
  5
374
  8
LAYER_01
 10
4953.408453116538
 20
-972.1342632688785
 30
0.0
 11
4948.408453116538
 21
-972.1342632688785
 31
0.0
  0
LINE
  5
375
  8
LAYER_01
 10
4948.408453116538
 20
-972.1342632688785
 30
0.0
 11
4948.408453116538
 21
-974.6342632688784
 31
0.0
  0
LINE
  5
376
  8
LAYER_01
 10
4948.408453116538
 20
-974.6342632688784
 30
0.0
 11
4946.592090961397
 21
-974.6342632688784
 31
0.0
  0
LINE
  5
377
  8
LAYER_01
 10
4946.592090961397
 20
-974.6342632688784
 30
0.0
 11
4946.592090961397
 21
-992.6342632688783
 31
0.0
  0
LINE
  5
378
  8
LAYER_01
 10
4946.592090961397
 20
-992.6342632688783
 30
0.0
 11
4948.408453116538
 21
-992.6342632688784
 31
0.0
  0
LINE
  5
379
  8
LAYER_01
 10
4948.408453116538
 20
-992.6342632688784
 30
0.0
 11
4948.408453116538
 21
-995.1342632688783
 31
0.0
  0
LINE
  5
37A
  8
LAYER_01
 10
4948.408453116538
 20
-995.1342632688783
 30
0.0
 11
4953.408453116538
 21
-995.1342632688783
 31
0.0
  0
LINE
  5
37B
  8
LAYER_01
 10
4953.408453116538
 20
-995.1342632688783
 30
0.0
 11
4953.408453116538
 21
-992.6342632688784
 31
0.0
  0
LINE
  5
37C
  8
LAYER_01
 10
4953.408453116538
 20
-992.6342632688784
 30
0.0
 11
4979.538178545036
 21
-992.6342632688783
 31
0.0
  0
LINE
  5
37D
  8
LAYER_01
 10
4979.538178545036
 20
-992.6342632688783
 30
0.0
 11
4979.538178545036
 21
-995.1342632688783
 31
0.0
  0
LINE
  5
37E
  8
LAYER_01
 10
4979.538178545036
 20
-995.1342632688783
 30
0.0
 11
4984.538178545036
 21
-995.1342632688783
 31
0.0
  0
LINE
  5
37F
  8
LAYER_01
 10
4984.538178545036
 20
-995.1342632688783
 30
0.0
 11
4984.538178545036
 21
-992.6342632688783
 31
0.0
  0
LINE
  5
380
  8
LAYER_01
 10
4984.538178545036
 20
-992.6342632688783
 30
0.0
 11
4986.354540700177
 21
-992.6342632688783
 31
0.0
  0
LINE
  5
381
  8
LAYER_01
 10
4986.354540700177
 20
-992.6342632688783
 30
0.0
 11
4986.354540700177
 21
-974.6342632688784
 31
0.0
  0
LINE
  5
382
  8
LAYER_01
 10
4986.354540700177
 20
-974.6342632688784
 30
0.0
 11
4984.538178545036
 21
-974.6342632688784
 31
0.0
  0
LINE
  5
383
  8
LAYER_01
 10
4984.538178545036
 20
-974.6342632688784
 30
0.0
 11
4984.538178545036
 21
-972.1342632688785
 31
0.0
  0
LINE
  5
384
  8
LAYER_01
 10
4984.538178545036
 20
-972.1342632688785
 30
0.0
 11
4979.538178545036
 21
-972.1342632688785
 31
0.0
  0
LINE
  5
385
  8
LAYER_01
 10
4979.538178545036
 20
-972.1342632688785
 30
0.0
 11
4979.538178545036
 21
-974.6342632688784
 31
0.0
  0
CIRCLE
  5
386
  8
LAYER_04
 10
5028.040175334957
 20
-1014.020690486214
 30
0.0
 40
0.950012048754375
  0
CIRCLE
  5
387
  8
LAYER_04
 10
5000.667366428936
 20
-1014.020690486214
 30
0.0
 40
0.950012048754375
  0
LINE
  5
388
  8
LAYER_04
 10
5032.418633596196
 20
-1005.756471606492
 30
0.0
 11
5027.418633596196
 21
-1005.756471606492
 31
0.0
  0
LINE
  5
389
  8
LAYER_04
 10
5027.418633596196
 20
-1005.756471606492
 30
0.0
 11
5027.418633596196
 21
-1003.256471606492
 31
0.0
  0
LINE
  5
38A
  8
LAYER_04
 10
5027.418633596196
 20
-1003.256471606492
 30
0.0
 11
5032.418633596196
 21
-1003.256471606492
 31
0.0
  0
LINE
  5
38B
  8
LAYER_04
 10
5032.418633596196
 20
-1003.256471606492
 30
0.0
 11
5032.418633596196
 21
-1005.756471606492
 31
0.0
  0
LINE
  5
38C
  8
LAYER_04
 10
4996.288908167698
 20
-1005.756471606492
 30
0.0
 11
5001.288908167698
 21
-1005.756471606492
 31
0.0
  0
LINE
  5
38D
  8
LAYER_04
 10
5001.288908167698
 20
-1005.756471606492
 30
0.0
 11
5001.288908167698
 21
-1003.256471606492
 31
0.0
  0
LINE
  5
38E
  8
LAYER_04
 10
5001.288908167698
 20
-1003.256471606492
 30
0.0
 11
4996.288908167698
 21
-1003.256471606492
 31
0.0
  0
LINE
  5
38F
  8
LAYER_04
 10
4996.288908167698
 20
-1003.256471606492
 30
0.0
 11
4996.288908167698
 21
-1005.756471606492
 31
0.0
  0
LINE
  5
390
  8
LAYER_01
 10
5003.10527032284
 20
-1008.012943212981
 30
0.0
 11
5003.10527032284
 21
-1020.051232235356
 31
0.0
  0
LINE
  5
391
  8
LAYER_01
 10
5003.10527032284
 20
-1020.051232235356
 30
0.0
 11
4994.472546012557
 21
-1020.051232235356
 31
0.0
  0
LINE
  5
392
  8
LAYER_01
 10
4994.472546012557
 20
-1020.051232235356
 30
0.0
 11
4994.472546012556
 21
-1001.0
 31
0.0
  0
LINE
  5
393
  8
LAYER_01
 10
4994.472546012556
 20
-1001.0
 30
0.0
 11
5034.234995751337
 21
-1001.0
 31
0.0
  0
LINE
  5
394
  8
LAYER_01
 10
5034.234995751337
 20
-1001.0
 30
0.0
 11
5034.234995751336
 21
-1020.051232235356
 31
0.0
  0
LINE
  5
395
  8
LAYER_01
 10
5034.234995751336
 20
-1020.051232235356
 30
0.0
 11
5025.602271441054
 21
-1020.051232235356
 31
0.0
  0
LINE
  5
396
  8
LAYER_01
 10
5025.602271441054
 20
-1020.051232235356
 30
0.0
 11
5025.602271441054
 21
-1008.012943212982
 31
0.0
  0
LINE
  5
397
  8
LAYER_01
 10
5025.602271441054
 20
-1008.012943212982
 30
0.0
 11
5003.10527032284
 21
-1008.012943212981
 31
0.0
  0
LINE
  5
398
  8
LAYER_01
 10
5026.538178545036
 20
-973.6342632688784
 30
0.0
 11
5000.408453116538
 21
-973.6342632688784
 31
0.0
  0
LINE
  5
399
  8
LAYER_01
 10
5000.408453116538
 20
-973.6342632688785
 30
0.0
 11
5000.408453116538
 21
-971.1342632688785
 31
0.0
  0
LINE
  5
39A
  8
LAYER_01
 10
5000.408453116538
 20
-971.1342632688785
 30
0.0
 11
4995.408453116538
 21
-971.1342632688785
 31
0.0
  0
LINE
  5
39B
  8
LAYER_01
 10
4995.408453116538
 20
-971.1342632688785
 30
0.0
 11
4995.408453116538
 21
-973.6342632688784
 31
0.0
  0
LINE
  5
39C
  8
LAYER_01
 10
4995.408453116538
 20
-973.6342632688784
 30
0.0
 11
4993.592090961397
 21
-973.6342632688784
 31
0.0
  0
LINE
  5
39D
  8
LAYER_01
 10
4993.592090961397
 20
-973.6342632688784
 30
0.0
 11
4993.592090961397
 21
-991.6342632688783
 31
0.0
  0
LINE
  5
39E
  8
LAYER_01
 10
4993.592090961397
 20
-991.6342632688783
 30
0.0
 11
4995.408453116538
 21
-991.6342632688784
 31
0.0
  0
LINE
  5
39F
  8
LAYER_01
 10
4995.408453116538
 20
-991.6342632688784
 30
0.0
 11
4995.408453116538
 21
-994.1342632688783
 31
0.0
  0
LINE
  5
3A0
  8
LAYER_01
 10
4995.408453116538
 20
-994.1342632688783
 30
0.0
 11
5000.408453116538
 21
-994.1342632688783
 31
0.0
  0
LINE
  5
3A1
  8
LAYER_01
 10
5000.408453116538
 20
-994.1342632688783
 30
0.0
 11
5000.408453116538
 21
-991.6342632688784
 31
0.0
  0
LINE
  5
3A2
  8
LAYER_01
 10
5000.408453116538
 20
-991.6342632688784
 30
0.0
 11
5026.538178545036
 21
-991.6342632688783
 31
0.0
  0
LINE
  5
3A3
  8
LAYER_01
 10
5026.538178545036
 20
-991.6342632688783
 30
0.0
 11
5026.538178545036
 21
-994.1342632688783
 31
0.0
  0
LINE
  5
3A4
  8
LAYER_01
 10
5026.538178545036
 20
-994.1342632688783
 30
0.0
 11
5031.538178545036
 21
-994.1342632688783
 31
0.0
  0
LINE
  5
3A5
  8
LAYER_01
 10
5031.538178545036
 20
-994.1342632688783
 30
0.0
 11
5031.538178545036
 21
-991.6342632688783
 31
0.0
  0
LINE
  5
3A6
  8
LAYER_01
 10
5031.538178545036
 20
-991.6342632688783
 30
0.0
 11
5033.354540700177
 21
-991.6342632688783
 31
0.0
  0
LINE
  5
3A7
  8
LAYER_01
 10
5033.354540700177
 20
-991.6342632688783
 30
0.0
 11
5033.354540700177
 21
-973.6342632688784
 31
0.0
  0
LINE
  5
3A8
  8
LAYER_01
 10
5033.354540700177
 20
-973.6342632688784
 30
0.0
 11
5031.538178545036
 21
-973.6342632688784
 31
0.0
  0
LINE
  5
3A9
  8
LAYER_01
 10
5031.538178545036
 20
-973.6342632688784
 30
0.0
 11
5031.538178545036
 21
-971.1342632688785
 31
0.0
  0
LINE
  5
3AA
  8
LAYER_01
 10
5031.538178545036
 20
-971.1342632688785
 30
0.0
 11
5026.538178545036
 21
-971.1342632688785
 31
0.0
  0
LINE
  5
3AB
  8
LAYER_01
 10
5026.538178545036
 20
-971.1342632688785
 30
0.0
 11
5026.538178545036
 21
-973.6342632688784
 31
0.0
  0
CIRCLE
  5
3AC
  8
LAYER_04
 10
5075.040175334957
 20
-1012.020690486214
 30
0.0
 40
0.950012048754375
  0
CIRCLE
  5
3AD
  8
LAYER_04
 10
5047.667366428936
 20
-1012.020690486214
 30
0.0
 40
0.950012048754375
  0
LINE
  5
3AE
  8
LAYER_04
 10
5079.418633596196
 20
-1003.756471606492
 30
0.0
 11
5074.418633596196
 21
-1003.756471606492
 31
0.0
  0
LINE
  5
3AF
  8
LAYER_04
 10
5074.418633596196
 20
-1003.756471606492
 30
0.0
 11
5074.418633596196
 21
-1001.256471606492
 31
0.0
  0
LINE
  5
3B0
  8
LAYER_04
 10
5074.418633596196
 20
-1001.256471606492
 30
0.0
 11
5079.418633596196
 21
-1001.256471606492
 31
0.0
  0
LINE
  5
3B1
  8
LAYER_04
 10
5079.418633596196
 20
-1001.256471606492
 30
0.0
 11
5079.418633596196
 21
-1003.756471606492
 31
0.0
  0
LINE
  5
3B2
  8
LAYER_04
 10
5043.288908167698
 20
-1003.756471606492
 30
0.0
 11
5048.288908167698
 21
-1003.756471606492
 31
0.0
  0
LINE
  5
3B3
  8
LAYER_04
 10
5048.288908167698
 20
-1003.756471606492
 30
0.0
 11
5048.288908167698
 21
-1001.256471606492
 31
0.0
  0
LINE
  5
3B4
  8
LAYER_04
 10
5048.288908167698
 20
-1001.256471606492
 30
0.0
 11
5043.288908167698
 21
-1001.256471606492
 31
0.0
  0
LINE
  5
3B5
  8
LAYER_04
 10
5043.288908167698
 20
-1001.256471606492
 30
0.0
 11
5043.288908167698
 21
-1003.756471606492
 31
0.0
  0
LINE
  5
3B6
  8
LAYER_01
 10
5050.10527032284
 20
-1006.012943212981
 30
0.0
 11
5050.10527032284
 21
-1018.051232235356
 31
0.0
  0
LINE
  5
3B7
  8
LAYER_01
 10
5050.10527032284
 20
-1018.051232235356
 30
0.0
 11
5041.472546012557
 21
-1018.051232235356
 31
0.0
  0
LINE
  5
3B8
  8
LAYER_01
 10
5041.472546012557
 20
-1018.051232235356
 30
0.0
 11
5041.472546012556
 21
-999.0
 31
0.0
  0
LINE
  5
3B9
  8
LAYER_01
 10
5041.472546012556
 20
-999.0
 30
0.0
 11
5081.234995751337
 21
-998.9999999999999
 31
0.0
  0
LINE
  5
3BA
  8
LAYER_01
 10
5081.234995751337
 20
-998.9999999999999
 30
0.0
 11
5081.234995751336
 21
-1018.051232235356
 31
0.0
  0
LINE
  5
3BB
  8
LAYER_01
 10
5081.234995751336
 20
-1018.051232235356
 30
0.0
 11
5072.602271441054
 21
-1018.051232235356
 31
0.0
  0
LINE
  5
3BC
  8
LAYER_01
 10
5072.602271441054
 20
-1018.051232235356
 30
0.0
 11
5072.602271441054
 21
-1006.012943212982
 31
0.0
  0
LINE
  5
3BD
  8
LAYER_01
 10
5072.602271441054
 20
-1006.012943212982
 30
0.0
 11
5050.10527032284
 21
-1006.012943212981
 31
0.0
  0
LINE
  5
3BE
  8
LAYER_01
 10
5073.538178545036
 20
-971.6342632688784
 30
0.0
 11
5047.408453116538
 21
-971.6342632688784
 31
0.0
  0
LINE
  5
3BF
  8
LAYER_01
 10
5047.408453116538
 20
-971.6342632688785
 30
0.0
 11
5047.408453116538
 21
-969.1342632688785
 31
0.0
  0
LINE
  5
3C0
  8
LAYER_01
 10
5047.408453116538
 20
-969.1342632688785
 30
0.0
 11
5042.408453116538
 21
-969.1342632688785
 31
0.0
  0
LINE
  5
3C1
  8
LAYER_01
 10
5042.408453116538
 20
-969.1342632688785
 30
0.0
 11
5042.408453116538
 21
-971.6342632688784
 31
0.0
  0
LINE
  5
3C2
  8
LAYER_01
 10
5042.408453116538
 20
-971.6342632688784
 30
0.0
 11
5040.592090961397
 21
-971.6342632688784
 31
0.0
  0
LINE
  5
3C3
  8
LAYER_01
 10
5040.592090961397
 20
-971.6342632688784
 30
0.0
 11
5040.592090961397
 21
-989.6342632688783
 31
0.0
  0
LINE
  5
3C4
  8
LAYER_01
 10
5040.592090961397
 20
-989.6342632688783
 30
0.0
 11
5042.408453116538
 21
-989.6342632688784
 31
0.0
  0
LINE
  5
3C5
  8
LAYER_01
 10
5042.408453116538
 20
-989.6342632688784
 30
0.0
 11
5042.408453116538
 21
-992.1342632688783
 31
0.0
  0
LINE
  5
3C6
  8
LAYER_01
 10
5042.408453116538
 20
-992.1342632688783
 30
0.0
 11
5047.408453116538
 21
-992.1342632688783
 31
0.0
  0
LINE
  5
3C7
  8
LAYER_01
 10
5047.408453116538
 20
-992.1342632688783
 30
0.0
 11
5047.408453116538
 21
-989.6342632688784
 31
0.0
  0
LINE
  5
3C8
  8
LAYER_01
 10
5047.408453116538
 20
-989.6342632688784
 30
0.0
 11
5073.538178545036
 21
-989.6342632688783
 31
0.0
  0
LINE
  5
3C9
  8
LAYER_01
 10
5073.538178545036
 20
-989.6342632688783
 30
0.0
 11
5073.538178545036
 21
-992.1342632688783
 31
0.0
  0
LINE
  5
3CA
  8
LAYER_01
 10
5073.538178545036
 20
-992.1342632688783
 30
0.0
 11
5078.538178545036
 21
-992.1342632688783
 31
0.0
  0
LINE
  5
3CB
  8
LAYER_01
 10
5078.538178545036
 20
-992.1342632688783
 30
0.0
 11
5078.538178545036
 21
-989.6342632688783
 31
0.0
  0
LINE
  5
3CC
  8
LAYER_01
 10
5078.538178545036
 20
-989.6342632688783
 30
0.0
 11
5080.354540700177
 21
-989.6342632688783
 31
0.0
  0
LINE
  5
3CD
  8
LAYER_01
 10
5080.354540700177
 20
-989.6342632688783
 30
0.0
 11
5080.354540700177
 21
-971.6342632688784
 31
0.0
  0
LINE
  5
3CE
  8
LAYER_01
 10
5080.354540700177
 20
-971.6342632688784
 30
0.0
 11
5078.538178545036
 21
-971.6342632688784
 31
0.0
  0
LINE
  5
3CF
  8
LAYER_01
 10
5078.538178545036
 20
-971.6342632688784
 30
0.0
 11
5078.538178545036
 21
-969.1342632688785
 31
0.0
  0
LINE
  5
3D0
  8
LAYER_01
 10
5078.538178545036
 20
-969.1342632688785
 30
0.0
 11
5073.538178545036
 21
-969.1342632688785
 31
0.0
  0
LINE
  5
3D1
  8
LAYER_01
 10
5073.538178545036
 20
-969.1342632688785
 30
0.0
 11
5073.538178545036
 21
-971.6342632688784
 31
0.0
  0
CIRCLE
  5
3D2
  8
LAYER_04
 10
4981.040175334957
 20
-1120.020690486214
 30
0.0
 40
0.950012048754375
  0
CIRCLE
  5
3D3
  8
LAYER_04
 10
4953.667366428936
 20
-1120.020690486214
 30
0.0
 40
0.950012048754375
  0
LINE
  5
3D4
  8
LAYER_04
 10
4985.418633596196
 20
-1111.756471606492
 30
0.0
 11
4980.418633596196
 21
-1111.756471606492
 31
0.0
  0
LINE
  5
3D5
  8
LAYER_04
 10
4980.418633596196
 20
-1111.756471606492
 30
0.0
 11
4980.418633596196
 21
-1109.256471606492
 31
0.0
  0
LINE
  5
3D6
  8
LAYER_04
 10
4980.418633596196
 20
-1109.256471606492
 30
0.0
 11
4985.418633596196
 21
-1109.256471606492
 31
0.0
  0
LINE
  5
3D7
  8
LAYER_04
 10
4985.418633596196
 20
-1109.256471606492
 30
0.0
 11
4985.418633596196
 21
-1111.756471606492
 31
0.0
  0
LINE
  5
3D8
  8
LAYER_04
 10
4949.288908167698
 20
-1111.756471606492
 30
0.0
 11
4954.288908167698
 21
-1111.756471606492
 31
0.0
  0
LINE
  5
3D9
  8
LAYER_04
 10
4954.288908167698
 20
-1111.756471606492
 30
0.0
 11
4954.288908167698
 21
-1109.256471606492
 31
0.0
  0
LINE
  5
3DA
  8
LAYER_04
 10
4954.288908167698
 20
-1109.256471606492
 30
0.0
 11
4949.288908167698
 21
-1109.256471606492
 31
0.0
  0
LINE
  5
3DB
  8
LAYER_04
 10
4949.288908167698
 20
-1109.256471606492
 30
0.0
 11
4949.288908167698
 21
-1111.756471606492
 31
0.0
  0
LINE
  5
3DC
  8
LAYER_01
 10
4956.10527032284
 20
-1114.012943212982
 30
0.0
 11
4956.10527032284
 21
-1126.051232235356
 31
0.0
  0
LINE
  5
3DD
  8
LAYER_01
 10
4956.10527032284
 20
-1126.051232235356
 30
0.0
 11
4947.472546012557
 21
-1126.051232235356
 31
0.0
  0
LINE
  5
3DE
  8
LAYER_01
 10
4947.472546012557
 20
-1126.051232235356
 30
0.0
 11
4947.472546012556
 21
-1107.0
 31
0.0
  0
LINE
  5
3DF
  8
LAYER_01
 10
4947.472546012556
 20
-1107.0
 30
0.0
 11
4987.234995751337
 21
-1107.0
 31
0.0
  0
LINE
  5
3E0
  8
LAYER_01
 10
4987.234995751337
 20
-1107.0
 30
0.0
 11
4987.234995751336
 21
-1126.051232235356
 31
0.0
  0
LINE
  5
3E1
  8
LAYER_01
 10
4987.234995751336
 20
-1126.051232235356
 30
0.0
 11
4978.602271441054
 21
-1126.051232235356
 31
0.0
  0
LINE
  5
3E2
  8
LAYER_01
 10
4978.602271441054
 20
-1126.051232235356
 30
0.0
 11
4978.602271441054
 21
-1114.012943212982
 31
0.0
  0
LINE
  5
3E3
  8
LAYER_01
 10
4978.602271441054
 20
-1114.012943212982
 30
0.0
 11
4956.10527032284
 21
-1114.012943212982
 31
0.0
  0
LINE
  5
3E4
  8
LAYER_01
 10
4979.538178545036
 20
-1079.634263268878
 30
0.0
 11
4953.408453116538
 21
-1079.634263268878
 31
0.0
  0
LINE
  5
3E5
  8
LAYER_01
 10
4953.408453116538
 20
-1079.634263268878
 30
0.0
 11
4953.408453116538
 21
-1077.134263268878
 31
0.0
  0
LINE
  5
3E6
  8
LAYER_01
 10
4953.408453116538
 20
-1077.134263268878
 30
0.0
 11
4948.408453116538
 21
-1077.134263268878
 31
0.0
  0
LINE
  5
3E7
  8
LAYER_01
 10
4948.408453116538
 20
-1077.134263268878
 30
0.0
 11
4948.408453116538
 21
-1079.634263268878
 31
0.0
  0
LINE
  5
3E8
  8
LAYER_01
 10
4948.408453116538
 20
-1079.634263268878
 30
0.0
 11
4946.592090961397
 21
-1079.634263268878
 31
0.0
  0
LINE
  5
3E9
  8
LAYER_01
 10
4946.592090961397
 20
-1079.634263268878
 30
0.0
 11
4946.592090961397
 21
-1097.634263268878
 31
0.0
  0
LINE
  5
3EA
  8
LAYER_01
 10
4946.592090961397
 20
-1097.634263268878
 30
0.0
 11
4948.408453116538
 21
-1097.634263268878
 31
0.0
  0
LINE
  5
3EB
  8
LAYER_01
 10
4948.408453116538
 20
-1097.634263268878
 30
0.0
 11
4948.408453116538
 21
-1100.134263268878
 31
0.0
  0
LINE
  5
3EC
  8
LAYER_01
 10
4948.408453116538
 20
-1100.134263268878
 30
0.0
 11
4953.408453116538
 21
-1100.134263268878
 31
0.0
  0
LINE
  5
3ED
  8
LAYER_01
 10
4953.408453116538
 20
-1100.134263268878
 30
0.0
 11
4953.408453116538
 21
-1097.634263268878
 31
0.0
  0
LINE
  5
3EE
  8
LAYER_01
 10
4953.408453116538
 20
-1097.634263268878
 30
0.0
 11
4979.538178545036
 21
-1097.634263268878
 31
0.0
  0
LINE
  5
3EF
  8
LAYER_01
 10
4979.538178545036
 20
-1097.634263268878
 30
0.0
 11
4979.538178545036
 21
-1100.134263268878
 31
0.0
  0
LINE
  5
3F0
  8
LAYER_01
 10
4979.538178545036
 20
-1100.134263268878
 30
0.0
 11
4984.538178545036
 21
-1100.134263268878
 31
0.0
  0
LINE
  5
3F1
  8
LAYER_01
 10
4984.538178545036
 20
-1100.134263268878
 30
0.0
 11
4984.538178545036
 21
-1097.634263268878
 31
0.0
  0
LINE
  5
3F2
  8
LAYER_01
 10
4984.538178545036
 20
-1097.634263268878
 30
0.0
 11
4986.354540700177
 21
-1097.634263268878
 31
0.0
  0
LINE
  5
3F3
  8
LAYER_01
 10
4986.354540700177
 20
-1097.634263268878
 30
0.0
 11
4986.354540700177
 21
-1079.634263268878
 31
0.0
  0
LINE
  5
3F4
  8
LAYER_01
 10
4986.354540700177
 20
-1079.634263268878
 30
0.0
 11
4984.538178545036
 21
-1079.634263268878
 31
0.0
  0
LINE
  5
3F5
  8
LAYER_01
 10
4984.538178545036
 20
-1079.634263268878
 30
0.0
 11
4984.538178545036
 21
-1077.134263268878
 31
0.0
  0
LINE
  5
3F6
  8
LAYER_01
 10
4984.538178545036
 20
-1077.134263268878
 30
0.0
 11
4979.538178545036
 21
-1077.134263268878
 31
0.0
  0
LINE
  5
3F7
  8
LAYER_01
 10
4979.538178545036
 20
-1077.134263268878
 30
0.0
 11
4979.538178545036
 21
-1079.634263268878
 31
0.0
  0
CIRCLE
  5
3F8
  8
LAYER_04
 10
5027.040175334957
 20
-1118.020690486214
 30
0.0
 40
0.950012048754375
  0
CIRCLE
  5
3F9
  8
LAYER_04
 10
4999.667366428936
 20
-1118.020690486214
 30
0.0
 40
0.950012048754375
  0
LINE
  5
3FA
  8
LAYER_04
 10
5031.418633596196
 20
-1109.756471606492
 30
0.0
 11
5026.418633596196
 21
-1109.756471606492
 31
0.0
  0
LINE
  5
3FB
  8
LAYER_04
 10
5026.418633596196
 20
-1109.756471606492
 30
0.0
 11
5026.418633596196
 21
-1107.256471606492
 31
0.0
  0
LINE
  5
3FC
  8
LAYER_04
 10
5026.418633596196
 20
-1107.256471606492
 30
0.0
 11
5031.418633596196
 21
-1107.256471606492
 31
0.0
  0
LINE
  5
3FD
  8
LAYER_04
 10
5031.418633596196
 20
-1107.256471606492
 30
0.0
 11
5031.418633596196
 21
-1109.756471606492
 31
0.0
  0
LINE
  5
3FE
  8
LAYER_04
 10
4995.288908167698
 20
-1109.756471606492
 30
0.0
 11
5000.288908167698
 21
-1109.756471606492
 31
0.0
  0
LINE
  5
3FF
  8
LAYER_04
 10
5000.288908167698
 20
-1109.756471606492
 30
0.0
 11
5000.288908167698
 21
-1107.256471606492
 31
0.0
  0
LINE
  5
400
  8
LAYER_04
 10
5000.288908167698
 20
-1107.256471606492
 30
0.0
 11
4995.288908167698
 21
-1107.256471606492
 31
0.0
  0
LINE
  5
401
  8
LAYER_04
 10
4995.288908167698
 20
-1107.256471606492
 30
0.0
 11
4995.288908167698
 21
-1109.756471606492
 31
0.0
  0
LINE
  5
402
  8
LAYER_01
 10
5002.10527032284
 20
-1112.012943212982
 30
0.0
 11
5002.10527032284
 21
-1124.051232235356
 31
0.0
  0
LINE
  5
403
  8
LAYER_01
 10
5002.10527032284
 20
-1124.051232235356
 30
0.0
 11
4993.472546012557
 21
-1124.051232235356
 31
0.0
  0
LINE
  5
404
  8
LAYER_01
 10
4993.472546012557
 20
-1124.051232235356
 30
0.0
 11
4993.472546012556
 21
-1105.0
 31
0.0
  0
LINE
  5
405
  8
LAYER_01
 10
4993.472546012556
 20
-1105.0
 30
0.0
 11
5033.234995751337
 21
-1105.0
 31
0.0
  0
LINE
  5
406
  8
LAYER_01
 10
5033.234995751337
 20
-1105.0
 30
0.0
 11
5033.234995751336
 21
-1124.051232235356
 31
0.0
  0
LINE
  5
407
  8
LAYER_01
 10
5033.234995751336
 20
-1124.051232235356
 30
0.0
 11
5024.602271441054
 21
-1124.051232235356
 31
0.0
  0
LINE
  5
408
  8
LAYER_01
 10
5024.602271441054
 20
-1124.051232235356
 30
0.0
 11
5024.602271441054
 21
-1112.012943212982
 31
0.0
  0
LINE
  5
409
  8
LAYER_01
 10
5024.602271441054
 20
-1112.012943212982
 30
0.0
 11
5002.10527032284
 21
-1112.012943212982
 31
0.0
  0
LINE
  5
40A
  8
LAYER_01
 10
5025.538178545036
 20
-1077.634263268878
 30
0.0
 11
4999.408453116538
 21
-1077.634263268878
 31
0.0
  0
LINE
  5
40B
  8
LAYER_01
 10
4999.408453116538
 20
-1077.634263268878
 30
0.0
 11
4999.408453116538
 21
-1075.134263268878
 31
0.0
  0
LINE
  5
40C
  8
LAYER_01
 10
4999.408453116538
 20
-1075.134263268878
 30
0.0
 11
4994.408453116538
 21
-1075.134263268878
 31
0.0
  0
LINE
  5
40D
  8
LAYER_01
 10
4994.408453116538
 20
-1075.134263268878
 30
0.0
 11
4994.408453116538
 21
-1077.634263268878
 31
0.0
  0
LINE
  5
40E
  8
LAYER_01
 10
4994.408453116538
 20
-1077.634263268878
 30
0.0
 11
4992.592090961397
 21
-1077.634263268878
 31
0.0
  0
LINE
  5
40F
  8
LAYER_01
 10
4992.592090961397
 20
-1077.634263268878
 30
0.0
 11
4992.592090961397
 21
-1095.634263268878
 31
0.0
  0
LINE
  5
410
  8
LAYER_01
 10
4992.592090961397
 20
-1095.634263268878
 30
0.0
 11
4994.408453116538
 21
-1095.634263268878
 31
0.0
  0
LINE
  5
411
  8
LAYER_01
 10
4994.408453116538
 20
-1095.634263268878
 30
0.0
 11
4994.408453116538
 21
-1098.134263268878
 31
0.0
  0
LINE
  5
412
  8
LAYER_01
 10
4994.408453116538
 20
-1098.134263268878
 30
0.0
 11
4999.408453116538
 21
-1098.134263268878
 31
0.0
  0
LINE
  5
413
  8
LAYER_01
 10
4999.408453116538
 20
-1098.134263268878
 30
0.0
 11
4999.408453116538
 21
-1095.634263268878
 31
0.0
  0
LINE
  5
414
  8
LAYER_01
 10
4999.408453116538
 20
-1095.634263268878
 30
0.0
 11
5025.538178545036
 21
-1095.634263268878
 31
0.0
  0
LINE
  5
415
  8
LAYER_01
 10
5025.538178545036
 20
-1095.634263268878
 30
0.0
 11
5025.538178545036
 21
-1098.134263268878
 31
0.0
  0
LINE
  5
416
  8
LAYER_01
 10
5025.538178545036
 20
-1098.134263268878
 30
0.0
 11
5030.538178545036
 21
-1098.134263268878
 31
0.0
  0
LINE
  5
417
  8
LAYER_01
 10
5030.538178545036
 20
-1098.134263268878
 30
0.0
 11
5030.538178545036
 21
-1095.634263268878
 31
0.0
  0
LINE
  5
418
  8
LAYER_01
 10
5030.538178545036
 20
-1095.634263268878
 30
0.0
 11
5032.354540700177
 21
-1095.634263268878
 31
0.0
  0
LINE
  5
419
  8
LAYER_01
 10
5032.354540700177
 20
-1095.634263268878
 30
0.0
 11
5032.354540700177
 21
-1077.634263268878
 31
0.0
  0
LINE
  5
41A
  8
LAYER_01
 10
5032.354540700177
 20
-1077.634263268878
 30
0.0
 11
5030.538178545036
 21
-1077.634263268878
 31
0.0
  0
LINE
  5
41B
  8
LAYER_01
 10
5030.538178545036
 20
-1077.634263268878
 30
0.0
 11
5030.538178545036
 21
-1075.134263268878
 31
0.0
  0
LINE
  5
41C
  8
LAYER_01
 10
5030.538178545036
 20
-1075.134263268878
 30
0.0
 11
5025.538178545036
 21
-1075.134263268878
 31
0.0
  0
LINE
  5
41D
  8
LAYER_01
 10
5025.538178545036
 20
-1075.134263268878
 30
0.0
 11
5025.538178545036
 21
-1077.634263268878
 31
0.0
  0
ENDSEC
  0
EOF
