  0
SECTION
  2
HEADER
  9
$ACADVER
  1
AC1009
  9
$DWGCODEPAGE
  3
ansi_1252
  9
$INSBASE
 10
0.0
 20
0.0
 30
0.0
  9
$EXTMIN
 10
-2698.454425213368
 20
-494.1180448977303
 30
0.0
  9
$EXTMAX
 10
-1460.454425213356
 20
621.5569165077303
 30
0.0
  9
$LIMMIN
 10
0.0
 20
0.0
  9
$LIMMAX
 10
12.0
 20
9.0
  9
$ORTHOMODE
 70
     0
  9
$REGENMODE
 70
     1
  9
$FILLMODE
 70
     1
  9
$QTEXTMODE
 70
     0
  9
$MIRRTEXT
 70
     1
  9
$DRAGMODE
 70
     2
  9
$LTSCALE
 40
1.0
  9
$OSMODE
 70
    37
  9
$ATTMODE
 70
     1
  9
$TEXTSIZE
 40
0.2
  9
$TRACEWID
 40
0.05
  9
$TEXTSTYLE
  7
STANDARD
  9
$CLAYER
  8
DEFAULT
  9
$CELTYPE
  6
BYLAYER
  9
$CECOLOR
 62
   256
  9
$DIMSCALE
 40
1.0
  9
$DIMASZ
 40
0.18
  9
$DIMEXO
 40
0.0625
  9
$DIMDLI
 40
0.38
  9
$DIMRND
 40
0.0
  9
$DIMDLE
 40
0.0
  9
$DIMEXE
 40
0.18
  9
$DIMTP
 40
0.0
  9
$DIMTM
 40
0.0
  9
$DIMTXT
 40
0.18
  9
$DIMCEN
 40
0.09
  9
$DIMTSZ
 40
0.0
  9
$DIMTOL
 70
     0
  9
$DIMLIM
 70
     0
  9
$DIMTIH
 70
     1
  9
$DIMTOH
 70
     1
  9
$DIMSE1
 70
     0
  9
$DIMSE2
 70
     0
  9
$DIMTAD
 70
     0
  9
$DIMZIN
 70
     0
  9
$DIMBLK
  1

  9
$DIMASO
 70
     1
  9
$DIMSHO
 70
     1
  9
$DIMPOST
  1

  9
$DIMAPOST
  1

  9
$DIMALT
 70
     0
  9
$DIMALTD
 70
     2
  9
$DIMALTF
 40
25.4
  9
$DIMLFAC
 40
1.0
  9
$DIMTOFL
 70
     0
  9
$DIMTVP
 40
0.0
  9
$DIMTIX
 70
     0
  9
$DIMSOXD
 70
     0
  9
$DIMSAH
 70
     0
  9
$DIMBLK1
  1

  9
$DIMBLK2
  1

  9
$DIMSTYLE
  2
STANDARD
  9
$DIMCLRD
 70
     0
  9
$DIMCLRE
 70
     0
  9
$DIMCLRT
 70
     0
  9
$DIMTFAC
 40
1.0
  9
$DIMGAP
 40
0.09
  9
$LUNITS
 70
     2
  9
$LUPREC
 70
     2
  9
$SKETCHINC
 40
0.1
  9
$FILLETRAD
 40
0.5
  9
$AUNITS
 70
     0
  9
$AUPREC
 70
     0
  9
$MENU
  1
.
  9
$ELEVATION
 40
0.0
  9
$PELEVATION
 40
0.0
  9
$THICKNESS
 40
0.0
  9
$LIMCHECK
 70
     0
  9
$CHAMFERA
 40
0.0
  9
$CHAMFERB
 40
0.0
  9
$SKPOLY
 70
     0
  9
$TDCREATE
 40
2457943.96876853
  9
$TDUPDATE
 40
2457943.96878162
  9
$TDINDWG
 40
0.0000000116
  9
$TDUSRTIMER
 40
0.0000000116
  9
$USRTIMER
 70
     1
  9
$ANGBASE
 50
0.0
  9
$ANGDIR
 70
     0
  9
$PDMODE
 70
     0
  9
$PDSIZE
 40
0.0
  9
$PLINEWID
 40
0.0
  9
$COORDS
 70
     1
  9
$SPLFRAME
 70
     0
  9
$SPLINETYPE
 70
     6
  9
$SPLINESEGS
 70
     8
  9
$ATTDIA
 70
     0
  9
$ATTREQ
 70
     1
  9
$HANDLING
 70
     1
  9
$HANDSEED
  5
2D4
  9
$SURFTAB1
 70
     6
  9
$SURFTAB2
 70
     6
  9
$SURFTYPE
 70
     6
  9
$SURFU
 70
     6
  9
$SURFV
 70
     6
  9
$UCSNAME
  2

  9
$UCSORG
 10
0.0
 20
0.0
 30
0.0
  9
$UCSXDIR
 10
1.0
 20
0.0
 30
0.0
  9
$UCSYDIR
 10
0.0
 20
1.0
 30
0.0
  9
$PUCSNAME
  2

  9
$PUCSORG
 10
0.0
 20
0.0
 30
0.0
  9
$PUCSXDIR
 10
1.0
 20
0.0
 30
0.0
  9
$PUCSYDIR
 10
0.0
 20
1.0
 30
0.0
  9
$USERI1
 70
     0
  9
$USERI2
 70
     0
  9
$USERI3
 70
     0
  9
$USERI4
 70
     0
  9
$USERI5
 70
     0
  9
$USERR1
 40
0.0
  9
$USERR2
 40
0.0
  9
$USERR3
 40
0.0
  9
$USERR4
 40
0.0
  9
$USERR5
 40
0.0
  9
$WORLDVIEW
 70
     1
  9
$SHADEDGE
 70
     3
  9
$SHADEDIF
 70
    70
  9
$TILEMODE
 70
     1
  9
$MAXACTVP
 70
    64
  9
$PLIMCHECK
 70
     0
  9
$PEXTMIN
 10
1.000000000000000E+20
 20
1.000000000000000E+20
 30
1.000000000000000E+20
  9
$PEXTMAX
 10
-1.000000000000000E+20
 20
-1.000000000000000E+20
 30
-1.000000000000000E+20
  9
$PLIMMIN
 10
0.0
 20
0.0
  9
$PLIMMAX
 10
12.0
 20
9.0
  9
$UNITMODE
 70
     0
  9
$VISRETAIN
 70
     1
  9
$PLINEGEN
 70
     0
  9
$PSLTSCALE
 70
     1
  0
ENDSEC
  0
SECTION
  2
TABLES
  0
TABLE
  2
VPORT
 70
     1
  0
VPORT
  2
*ACTIVE
 70
     0
 10
0.0
 20
0.0
 11
1.0
 21
1.0
 12
-2079.454425213362
 22
63.71943580499999
 13
0.0
 23
0.0
 14
0.5
 24
0.5
 15
0.5
 25
0.5
 16
0.0
 26
0.0
 36
1.0
 17
0.0
 27
0.0
 37
0.0
 40
1137.98846063357
 41
1.109642183275722
 42
50.0
 43
0.0
 44
0.0
 50
0.0
 51
0.0
 71
     0
 72
   100
 73
     1
 74
     3
 75
     0
 76
     0
 77
     0
 78
     0
  0
ENDTAB
  0
TABLE
  2
LTYPE
 70
     1
  0
LTYPE
  2
CONTINUOUS
 70
     0
  3
Solid line
 72
    65
 73
     0
 40
0.0
  0
ENDTAB
  0
TABLE
  2
LAYER
 70
     4
  0
LAYER
  2
0
 70
     0
 62
     7
  6
CONTINUOUS
  0
LAYER
  2
DEFAULT
 70
     0
 62
     7
  6
CONTINUOUS
  0
LAYER
  2
CUTSHEETS_2D$EXTERIOR_CUTS
 70
     0
 62
     7
  6
CONTINUOUS
  0
LAYER
  2
LAYER_01
 70
     0
 62
    12
  6
CONTINUOUS
  0
ENDTAB
  0
TABLE
  2
STYLE
 70
     1
  0
STYLE
  2
STANDARD
 70
     0
 40
0.0
 41
1.0
 50
0.0
 71
     0
 42
0.2
  3
txt
  4

  0
ENDTAB
  0
TABLE
  2
VIEW
 70
     0
  0
ENDTAB
  0
TABLE
  2
UCS
 70
     0
  0
ENDTAB
  0
TABLE
  2
APPID
 70
     1
  0
APPID
  2
ACAD
 70
     0
  0
ENDTAB
  0
TABLE
  2
DIMSTYLE
 70
     1
  0
DIMSTYLE
  2
STANDARD
 70
     0
  3

  4

  5

  6

  7

 40
1.0
 41
0.18
 42
0.0625
 43
0.38
 44
0.18
 45
0.0
 46
0.0
 47
0.0
 48
0.0
140
0.18
141
0.09
142
0.0
143
25.4
144
1.0
145
0.0
146
1.0
147
0.09
 71
     0
 72
     0
 73
     1
 74
     1
 75
     0
 76
     0
 77
     0
 78
     0
170
     0
171
     2
172
     0
173
     0
174
     0
175
     0
176
     0
177
     0
178
     0
  0
ENDTAB
  0
ENDSEC
  0
SECTION
  2
BLOCKS
  0
BLOCK
  8
0
  2
$MODEL_SPACE
 70
     0
 10
0.0
 20
0.0
 30
0.0
  3
$MODEL_SPACE
  1

  0
ENDBLK
  5
21
  8
0
  0
BLOCK
 67
     1
  8
0
  2
$PAPER_SPACE
 70
     0
 10
0.0
 20
0.0
 30
0.0
  3
$PAPER_SPACE
  1

  0
ENDBLK
  5
1D
 67
     1
  8
0
  0
ENDSEC
  0
SECTION
  2
ENTITIES
  0
CIRCLE
  5
6B
  8
DEFAULT
 10
-2157.469289497179
 20
574.5491908509376
 30
0.0
 40
20.0
  0
LINE
  5
6C
  8
DEFAULT
 10
-1572.467122686062
 20
610.5618782444745
 30
0.0
 11
-1572.467122686062
 21
610.5569163548402
 31
0.0
  0
LINE
  5
6D
  8
DEFAULT
 10
-1572.467122686062
 20
610.5569163548402
 30
0.0
 11
-1572.462171912421
 21
610.5569163548229
 31
0.0
  0
LINE
  5
6E
  8
DEFAULT
 10
-1572.467122686062
 20
490.5519542793508
 30
0.0
 11
-1572.467122686062
 21
490.5569161689849
 31
0.0
  0
LINE
  5
6F
  8
DEFAULT
 10
-1572.467122686062
 20
490.5569161689849
 30
0.0
 11
-1572.462171912421
 21
490.5569161690026
 31
0.0
  0
LINE
  5
70
  8
DEFAULT
 10
-2045.857230528571
 20
560.4486519440994
 30
0.0
 11
-2044.203049034731
 21
560.4494339042709
 31
0.0
  0
LINE
  5
71
  8
DEFAULT
 10
-2044.203049034731
 20
560.4494339042709
 30
0.0
 11
-2044.102503716301
 21
560.5519912481496
 31
0.0
  0
ARC
  5
72
  8
DEFAULT
 10
-2041.5392416345
 20
557.9887291663482
 30
0.0
 40
3.625000000000009
 50
318.3747859981926
 51
134.9999999999949
  0
LINE
  5
73
  8
DEFAULT
 10
-2038.829532943293
 20
555.5808039580435
 30
0.0
 11
-2038.829532943292
 21
545.5330284235321
 31
0.0
  0
ARC
  5
74
  8
DEFAULT
 10
-2041.539241634499
 20
543.1251032152237
 30
0.0
 40
3.625000000001453
 50
222.7342909154318
 51
41.62521400185454
  0
LINE
  5
75
  8
DEFAULT
 10
-2044.201835281211
 20
540.665180437472
 30
0.0
 11
-2045.85601677505
 21
540.6643984773006
 31
0.0
  0
LINE
  5
76
  8
DEFAULT
 10
-2045.85601677505
 20
540.6643984773006
 30
0.0
 11
-2045.95656209348
 21
540.5618411334214
 31
0.0
  0
ARC
  5
77
  8
DEFAULT
 10
-2048.519824175281
 20
543.1251032152228
 30
0.0
 40
3.624999999999889
 50
138.3747859981913
 51
314.9999999999974
  0
LINE
  5
78
  8
DEFAULT
 10
-2051.229532866489
 20
545.533028423528
 30
0.0
 11
-2051.229532866489
 21
555.5808039580435
 31
0.0
  0
ARC
  5
79
  8
DEFAULT
 10
-2048.519824175281
 20
557.9887291663487
 30
0.0
 40
3.624999999999724
 50
42.73429091542815
 51
221.6252140018108
  0
LINE
  5
7A
  8
DEFAULT
 10
-1484.807814408174
 20
560.4486519440992
 30
0.0
 11
-1486.461995902014
 21
560.4494339042707
 31
0.0
  0
LINE
  5
7B
  8
DEFAULT
 10
-1486.461995902014
 20
560.4494339042707
 30
0.0
 11
-1486.562541220444
 21
560.5519912481494
 31
0.0
  0
ARC
  5
7C
  8
DEFAULT
 10
-1489.125803302245
 20
557.988729166348
 30
0.0
 40
3.625000000000009
 50
45.00000000000509
 51
221.6252140018074
  0
LINE
  5
7D
  8
DEFAULT
 10
-1491.835511993453
 20
555.5808039580432
 30
0.0
 11
-1491.835511993453
 21
545.5330284235318
 31
0.0
  0
ARC
  5
7E
  8
DEFAULT
 10
-1489.125803302246
 20
543.1251032152235
 30
0.0
 40
3.625000000001453
 50
138.3747859981455
 51
317.2657090845682
  0
LINE
  5
7F
  8
DEFAULT
 10
-1486.463209655534
 20
540.6651804374718
 30
0.0
 11
-1484.809028161695
 21
540.6643984773003
 31
0.0
  0
LINE
  5
80
  8
DEFAULT
 10
-1484.809028161695
 20
540.6643984773003
 30
0.0
 11
-1484.708482843265
 21
540.5618411334211
 31
0.0
  0
ARC
  5
81
  8
DEFAULT
 10
-1482.145220761464
 20
543.1251032152226
 30
0.0
 40
3.624999999999889
 50
225.0
 51
41.62521400181111
  0
LINE
  5
82
  8
DEFAULT
 10
-1479.435512070256
 20
545.5330284235278
 30
0.0
 11
-1479.435512070256
 21
555.5808039580432
 31
0.0
  0
ARC
  5
83
  8
DEFAULT
 10
-1482.145220761464
 20
557.9887291663484
 30
0.0
 40
3.624999999999724
 50
318.3747859981916
 51
137.2657090845719
  0
LINE
  5
85
  8
CUTSHEETS_2D$EXTERIOR_CUTS
 10
-1568.042754742776
 20
490.5569159562314
 30
0.0
 11
-1465.33252230515
 21
490.5569165433411
 31
0.0
  0
LINE
  5
86
  8
CUTSHEETS_2D$EXTERIOR_CUTS
 10
-1465.33252230515
 20
490.5569165433411
 30
0.0
 11
-1465.332522468373
 21
610.5569162842909
 31
0.0
  0
LINE
  5
87
  8
CUTSHEETS_2D$EXTERIOR_CUTS
 10
-1465.332522468373
 20
610.5569162842909
 30
0.0
 11
-1568.042754742776
 21
610.5569165675939
 31
0.0
  0
ARC
  5
88
  8
CUTSHEETS_2D$EXTERIOR_CUTS
 10
-1570.252463433984
 20
612.766625258802
 30
0.0
 40
3.125000000000025
 50
135.0000000000015
 51
314.999999999997
  0
LINE
  5
89
  8
CUTSHEETS_2D$EXTERIOR_CUTS
 10
-1572.462172125192
 20
614.9763339500099
 30
0.0
 11
-1572.462172205127
 21
621.5569165077303
 31
0.0
  0
LINE
  5
8A
  8
CUTSHEETS_2D$EXTERIOR_CUTS
 10
-1572.462172205127
 20
621.5569165077303
 30
0.0
 11
-1598.202872731617
 21
621.5569163423119
 31
0.0
  0
LINE
  5
8B
  8
CUTSHEETS_2D$EXTERIOR_CUTS
 10
-1598.202872731617
 20
621.5569163423119
 30
0.0
 11
-1598.202872811552
 21
614.9763339500101
 31
0.0
  0
ARC
  5
8C
  8
CUTSHEETS_2D$EXTERIOR_CUTS
 10
-1600.41258150276
 20
612.7666252588023
 30
0.0
 40
3.125
 50
225.0000000000015
 51
45.00000000000147
  0
LINE
  5
8D
  8
CUTSHEETS_2D$EXTERIOR_CUTS
 10
-1602.622290193968
 20
610.5569165675944
 30
0.0
 11
-1748.042754742776
 21
610.5569165675942
 31
0.0
  0
ARC
  5
8E
  8
CUTSHEETS_2D$EXTERIOR_CUTS
 10
-1750.252463433984
 20
612.7666252588023
 30
0.0
 40
3.125000000000025
 50
135.0000000000015
 51
314.999999999997
  0
LINE
  5
8F
  8
CUTSHEETS_2D$EXTERIOR_CUTS
 10
-1752.462172125192
 20
614.9763339500101
 30
0.0
 11
-1752.462172205126
 21
621.5569165077303
 31
0.0
  0
LINE
  5
90
  8
CUTSHEETS_2D$EXTERIOR_CUTS
 10
-1752.462172205126
 20
621.5569165077303
 30
0.0
 11
-1778.202872731617
 21
621.5569163423119
 31
0.0
  0
LINE
  5
91
  8
CUTSHEETS_2D$EXTERIOR_CUTS
 10
-1778.202872731617
 20
621.5569163423119
 30
0.0
 11
-1778.202872811552
 21
614.9763339500101
 31
0.0
  0
ARC
  5
92
  8
CUTSHEETS_2D$EXTERIOR_CUTS
 10
-1780.41258150276
 20
612.7666252588023
 30
0.0
 40
3.125
 50
225.0000000000015
 51
45.00000000000147
  0
LINE
  5
93
  8
CUTSHEETS_2D$EXTERIOR_CUTS
 10
-1782.622290193968
 20
610.5569165675944
 30
0.0
 11
-1928.047705303646
 21
610.5569165675942
 31
0.0
  0
ARC
  5
94
  8
CUTSHEETS_2D$EXTERIOR_CUTS
 10
-1930.257413994854
 20
612.7666252588023
 30
0.0
 40
3.125000000000025
 50
135.0000000000015
 51
314.999999999997
  0
LINE
  5
95
  8
CUTSHEETS_2D$EXTERIOR_CUTS
 10
-1932.467122686062
 20
614.9763339500101
 30
0.0
 11
-1932.467122765996
 21
621.5569165077303
 31
0.0
  0
LINE
  5
96
  8
CUTSHEETS_2D$EXTERIOR_CUTS
 10
-1932.467122765996
 20
621.5569165077303
 30
0.0
 11
-1958.207823292487
 21
621.5569163423119
 31
0.0
  0
LINE
  5
97
  8
CUTSHEETS_2D$EXTERIOR_CUTS
 10
-1958.207823292487
 20
621.5569163423119
 30
0.0
 11
-1958.207823372422
 21
614.9763339500101
 31
0.0
  0
ARC
  5
98
  8
CUTSHEETS_2D$EXTERIOR_CUTS
 10
-1960.41753206363
 20
612.7666252588023
 30
0.0
 40
3.125
 50
225.0000000000015
 51
45.00000000000147
  0
LINE
  5
99
  8
CUTSHEETS_2D$EXTERIOR_CUTS
 10
-1962.627240754838
 20
610.5569165675944
 30
0.0
 11
-2065.332522305151
 21
610.556916284307
 31
0.0
  0
LINE
  5
9A
  8
CUTSHEETS_2D$EXTERIOR_CUTS
 10
-2065.332522305151
 20
610.556916284307
 30
0.0
 11
-2065.332522468374
 21
490.5569162422061
 31
0.0
  0
LINE
  5
9B
  8
CUTSHEETS_2D$EXTERIOR_CUTS
 10
-2065.332522468374
 20
490.5569162422061
 30
0.0
 11
-1962.627240754838
 21
490.5569159562309
 31
0.0
  0
ARC
  5
9C
  8
CUTSHEETS_2D$EXTERIOR_CUTS
 10
-1960.41753206363
 20
488.3472072650228
 30
0.0
 40
3.125
 50
314.9999999999993
 51
134.9999999999993
  0
LINE
  5
9D
  8
CUTSHEETS_2D$EXTERIOR_CUTS
 10
-1958.207823372422
 20
486.1374985738152
 30
0.0
 11
-1958.207823292487
 21
479.5569161815137
 31
0.0
  0
LINE
  5
9E
  8
CUTSHEETS_2D$EXTERIOR_CUTS
 10
-1958.207823292487
 20
479.5569161815137
 30
0.0
 11
-1932.467122765996
 21
479.5569160160948
 31
0.0
  0
LINE
  5
9F
  8
CUTSHEETS_2D$EXTERIOR_CUTS
 10
-1932.467122765996
 20
479.5569160160948
 30
0.0
 11
-1932.467122686062
 21
486.1374985738152
 31
0.0
  0
ARC
  5
A0
  8
CUTSHEETS_2D$EXTERIOR_CUTS
 10
-1930.257413994854
 20
488.3472072650233
 30
0.0
 40
3.125000000000025
 50
45.00000000000295
 51
224.9999999999985
  0
LINE
  5
A1
  8
CUTSHEETS_2D$EXTERIOR_CUTS
 10
-1928.047705303646
 20
490.5569159562314
 30
0.0
 11
-1782.622290193968
 21
490.5569159562309
 31
0.0
  0
ARC
  5
A2
  8
CUTSHEETS_2D$EXTERIOR_CUTS
 10
-1780.41258150276
 20
488.3472072650228
 30
0.0
 40
3.125
 50
314.9999999999993
 51
134.9999999999993
  0
LINE
  5
A3
  8
CUTSHEETS_2D$EXTERIOR_CUTS
 10
-1778.202872811552
 20
486.1374985738147
 30
0.0
 11
-1778.202872731617
 21
479.5569161815137
 31
0.0
  0
LINE
  5
A4
  8
CUTSHEETS_2D$EXTERIOR_CUTS
 10
-1778.202872731617
 20
479.5569161815137
 30
0.0
 11
-1752.462172205126
 21
479.5569160160948
 31
0.0
  0
LINE
  5
A5
  8
CUTSHEETS_2D$EXTERIOR_CUTS
 10
-1752.462172205126
 20
479.5569160160948
 30
0.0
 11
-1752.462172125192
 21
486.1374985738152
 31
0.0
  0
ARC
  5
A6
  8
CUTSHEETS_2D$EXTERIOR_CUTS
 10
-1750.252463433984
 20
488.3472072650233
 30
0.0
 40
3.125000000000025
 50
45.00000000000295
 51
224.9999999999985
  0
LINE
  5
A7
  8
CUTSHEETS_2D$EXTERIOR_CUTS
 10
-1748.042754742776
 20
490.5569159562314
 30
0.0
 11
-1602.622290193968
 21
490.5569159562309
 31
0.0
  0
ARC
  5
A8
  8
CUTSHEETS_2D$EXTERIOR_CUTS
 10
-1600.41258150276
 20
488.3472072650228
 30
0.0
 40
3.125
 50
314.9999999999993
 51
134.9999999999993
  0
LINE
  5
A9
  8
CUTSHEETS_2D$EXTERIOR_CUTS
 10
-1598.202872811552
 20
486.1374985738147
 30
0.0
 11
-1598.202872731617
 21
479.5569161815137
 31
0.0
  0
LINE
  5
AA
  8
CUTSHEETS_2D$EXTERIOR_CUTS
 10
-1598.202872731617
 20
479.5569161815137
 30
0.0
 11
-1572.462172205127
 21
479.5569160160948
 31
0.0
  0
LINE
  5
AB
  8
CUTSHEETS_2D$EXTERIOR_CUTS
 10
-1572.462172205127
 20
479.5569160160948
 30
0.0
 11
-1572.462172125192
 21
486.1374985738152
 31
0.0
  0
ARC
  5
AC
  8
CUTSHEETS_2D$EXTERIOR_CUTS
 10
-1570.252463433984
 20
488.3472072650233
 30
0.0
 40
3.125000000000005
 50
45.00000000000147
 51
225.000000000003
  0
LINE
  5
AD
  8
DEFAULT
 10
-2098.332522336488
 20
559.9984379375721
 30
0.0
 11
-2098.332522195659
 21
541.1153946351333
 31
0.0
  0
LINE
  5
AE
  8
DEFAULT
 10
-2098.332522195659
 20
541.1153946351333
 30
0.0
 11
-2104.913104740593
 21
541.1153945551986
 31
0.0
  0
ARC
  5
AF
  8
DEFAULT
 10
-2107.122813431801
 20
538.9056858639906
 30
0.0
 40
3.125000000000025
 50
44.99999999999853
 51
224.999999999997
  0
LINE
  5
B0
  8
DEFAULT
 10
-2109.332522123009
 20
536.6959771727827
 30
0.0
 11
-2109.33252173677
 21
490.5569162841334
 31
0.0
  0
LINE
  5
B1
  8
DEFAULT
 10
-2109.33252173677
 20
490.5569162841334
 30
0.0
 11
-2147.58058253765
 21
490.5569162841343
 31
0.0
  0
ARC
  5
B2
  8
DEFAULT
 10
-2149.790291228858
 20
488.3472075929263
 30
0.0
 40
3.125
 50
44.99999999999779
 51
224.9999999999978
  0
LINE
  5
B3
  8
DEFAULT
 10
-2151.999999920066
 20
486.1374989017184
 30
0.0
 11
-2152.0
 21
479.5569164976129
 31
0.0
  0
LINE
  5
B4
  8
DEFAULT
 10
-2152.0
 20
479.5569164976129
 30
0.0
 11
-2170.883043302439
 21
479.5569163567837
 31
0.0
  0
LINE
  5
B5
  8
DEFAULT
 10
-2170.883043302439
 20
479.5569163567837
 30
0.0
 11
-2170.883043382374
 21
486.1374989017181
 31
0.0
  0
ARC
  5
B6
  8
DEFAULT
 10
-2173.092752073582
 20
488.3472075929261
 30
0.0
 40
3.125000000000025
 50
314.9999999999956
 51
134.9999999999941
  0
LINE
  5
B7
  8
DEFAULT
 10
-2175.302460764789
 20
490.5569162841342
 30
0.0
 11
-2384.022082797567
 21
490.5569162841342
 31
0.0
  0
ARC
  5
B8
  8
DEFAULT
 10
-2386.231791488775
 20
488.3472075929262
 30
0.0
 40
3.125
 50
44.99999999999779
 51
224.9999999999978
  0
LINE
  5
B9
  8
DEFAULT
 10
-2388.441500179983
 20
486.1374989017183
 30
0.0
 11
-2388.441500259918
 21
479.5569164976127
 31
0.0
  0
LINE
  5
BA
  8
DEFAULT
 10
-2388.441500259918
 20
479.5569164976127
 30
0.0
 11
-2407.324543562356
 21
479.5569163567836
 31
0.0
  0
LINE
  5
BB
  8
DEFAULT
 10
-2407.324543562356
 20
479.5569163567836
 30
0.0
 11
-2407.324543642291
 21
486.137498901718
 31
0.0
  0
ARC
  5
BC
  8
DEFAULT
 10
-2409.534252333499
 20
488.347207592926
 30
0.0
 40
3.125000000000025
 50
314.9999999999956
 51
134.9999999999941
  0
LINE
  5
BD
  8
DEFAULT
 10
-2411.743961024707
 20
490.5569162841341
 30
0.0
 11
-2620.463583057482
 21
490.5569162841342
 31
0.0
  0
ARC
  5
BE
  8
DEFAULT
 10
-2622.67329174869
 20
488.3472075929262
 30
0.0
 40
3.125
 50
44.99999999999779
 51
224.9999999999978
  0
LINE
  5
BF
  8
DEFAULT
 10
-2624.883000439898
 20
486.1374989017183
 30
0.0
 11
-2624.883000519833
 21
479.5569164976127
 31
0.0
  0
LINE
  5
C0
  8
DEFAULT
 10
-2624.883000519833
 20
479.5569164976127
 30
0.0
 11
-2643.766043822272
 21
479.5569163567836
 31
0.0
  0
LINE
  5
C1
  8
DEFAULT
 10
-2643.766043822272
 20
479.5569163567836
 30
0.0
 11
-2643.766043902207
 21
486.137498901718
 31
0.0
  0
ARC
  5
C2
  8
DEFAULT
 10
-2645.975752593415
 20
488.3472075929259
 30
0.0
 40
3.12500000000001
 50
315.0000000000022
 51
135.0
  0
LINE
  5
C3
  8
DEFAULT
 10
-2648.185461284623
 20
490.5569162841341
 30
0.0
 11
-2687.33252263841
 21
490.5569162841344
 31
0.0
  0
LINE
  5
C4
  8
DEFAULT
 10
-2687.33252263841
 20
490.5569162841344
 30
0.0
 11
-2687.332522029206
 21
536.6959771727827
 31
0.0
  0
ARC
  5
C5
  8
DEFAULT
 10
-2689.542230720414
 20
538.9056858639906
 30
0.0
 40
3.125000000000025
 50
315.000000000003
 51
135.0000000000015
  0
LINE
  5
C6
  8
DEFAULT
 10
-2691.751939411623
 20
541.1153945551986
 30
0.0
 11
-2698.332521956557
 21
541.1153946351333
 31
0.0
  0
LINE
  5
C7
  8
DEFAULT
 10
-2698.332521956557
 20
541.1153946351333
 30
0.0
 11
-2698.332521815727
 21
559.9984379375721
 31
0.0
  0
LINE
  5
C8
  8
DEFAULT
 10
-2698.332521815727
 20
559.9984379375721
 30
0.0
 11
-2691.751939411622
 21
559.9984380175072
 31
0.0
  0
ARC
  5
C9
  8
DEFAULT
 10
-2689.542230720414
 20
562.208146708715
 30
0.0
 40
3.125
 50
224.9999999999985
 51
44.99999999999853
  0
LINE
  5
CA
  8
DEFAULT
 10
-2687.332522029206
 20
564.4178553999229
 30
0.0
 11
-2687.332521847065
 21
610.5569162842912
 31
0.0
  0
LINE
  5
CB
  8
DEFAULT
 10
-2687.332521847065
 20
610.5569162842912
 30
0.0
 11
-2648.185461284623
 21
610.5569162885713
 31
0.0
  0
ARC
  5
CC
  8
DEFAULT
 10
-2645.975752593415
 20
612.7666249797794
 30
0.0
 40
3.125000000000025
 50
225.0000000000059
 51
45.00000000000442
  0
LINE
  5
CD
  8
DEFAULT
 10
-2643.766043902207
 20
614.9763336709874
 30
0.0
 11
-2643.766043822272
 21
621.5569162159218
 31
0.0
  0
LINE
  5
CE
  8
DEFAULT
 10
-2643.766043822272
 20
621.5569162159218
 30
0.0
 11
-2624.883000519833
 21
621.5569160750927
 31
0.0
  0
LINE
  5
CF
  8
DEFAULT
 10
-2624.883000519833
 20
621.5569160750927
 30
0.0
 11
-2624.883000439898
 21
614.9763336709872
 31
0.0
  0
ARC
  5
D0
  8
DEFAULT
 10
-2622.67329174869
 20
612.7666249797792
 30
0.0
 40
3.125
 50
135.0000000000015
 51
315.0000000000015
  0
LINE
  5
D1
  8
DEFAULT
 10
-2620.463583057482
 20
610.5569162885712
 30
0.0
 11
-2411.743961024707
 21
610.5569162885713
 31
0.0
  0
ARC
  5
D2
  8
DEFAULT
 10
-2409.534252333499
 20
612.7666249797794
 30
0.0
 40
3.125000000000025
 50
225.0000000000059
 51
45.00000000000442
  0
LINE
  5
D3
  8
DEFAULT
 10
-2407.324543642291
 20
614.9763336709874
 30
0.0
 11
-2407.324543562356
 21
621.5569162159218
 31
0.0
  0
LINE
  5
D4
  8
DEFAULT
 10
-2407.324543562356
 20
621.5569162159218
 30
0.0
 11
-2388.441500259918
 21
621.5569160750927
 31
0.0
  0
LINE
  5
D5
  8
DEFAULT
 10
-2388.441500259918
 20
621.5569160750927
 30
0.0
 11
-2388.441500179983
 21
614.9763336709872
 31
0.0
  0
ARC
  5
D6
  8
DEFAULT
 10
-2386.231791488775
 20
612.7666249797792
 30
0.0
 40
3.125
 50
135.0000000000015
 51
315.0000000000015
  0
LINE
  5
D7
  8
DEFAULT
 10
-2384.022082797567
 20
610.5569162885712
 30
0.0
 11
-2175.302460764789
 21
610.5569162885712
 31
0.0
  0
ARC
  5
D8
  8
DEFAULT
 10
-2173.092752073582
 20
612.7666249797793
 30
0.0
 40
3.125000000000025
 50
225.0000000000059
 51
45.00000000000442
  0
LINE
  5
D9
  8
DEFAULT
 10
-2170.883043382374
 20
614.9763336709873
 30
0.0
 11
-2170.883043302439
 21
621.5569162159217
 31
0.0
  0
LINE
  5
DA
  8
DEFAULT
 10
-2170.883043302439
 20
621.5569162159217
 30
0.0
 11
-2152.0
 21
621.5569160750925
 31
0.0
  0
LINE
  5
DB
  8
DEFAULT
 10
-2152.0
 20
621.5569160750925
 30
0.0
 11
-2151.999999920066
 21
614.9763336709871
 31
0.0
  0
ARC
  5
DC
  8
DEFAULT
 10
-2149.790291228858
 20
612.7666249797791
 30
0.0
 40
3.125
 50
135.0000000000015
 51
315.0000000000015
  0
LINE
  5
DD
  8
DEFAULT
 10
-2147.58058253765
 20
610.5569162885711
 30
0.0
 11
-2109.332522305151
 21
610.556916284307
 31
0.0
  0
LINE
  5
DE
  8
DEFAULT
 10
-2109.332522305151
 20
610.556916284307
 30
0.0
 11
-2109.33252212301
 21
564.4178553999229
 31
0.0
  0
ARC
  5
DF
  8
DEFAULT
 10
-2107.122813431802
 20
562.208146708715
 30
0.0
 40
3.125
 50
135.0000000000015
 51
315.0000000000015
  0
LINE
  5
E0
  8
DEFAULT
 10
-2104.913104740594
 20
559.9984380175072
 30
0.0
 11
-2098.332522336488
 21
559.9984379375721
 31
0.0
  0
CIRCLE
  5
E1
  8
DEFAULT
 10
-2135.332521736777
 20
510.5569162841334
 30
0.0
 40
8.0
  0
CIRCLE
  5
E2
  8
DEFAULT
 10
-2162.332521736777
 20
510.5569162841334
 30
0.0
 40
8.0
  0
LINE
  5
E3
  8
DEFAULT
 10
-1569.507430157601
 20
466.5809674201433
 30
0.0
 11
-1569.507430157601
 21
466.5859293097775
 31
0.0
  0
LINE
  5
E4
  8
DEFAULT
 10
-1569.507430157601
 20
466.5859293097775
 30
0.0
 11
-1569.502479383961
 21
466.585929309795
 31
0.0
  0
LINE
  5
E5
  8
DEFAULT
 10
-1651.595842288592
 20
459.9999999401366
 30
0.0
 11
-1677.336542815083
 21
459.9999997747177
 31
0.0
  0
LINE
  5
E6
  8
DEFAULT
 10
-1677.336542815083
 20
459.9999997747177
 30
0.0
 11
-1677.336542895017
 21
453.4194173824164
 31
0.0
  0
ARC
  5
E7
  8
DEFAULT
 10
-1679.546251586225
 20
451.2097086912086
 30
0.0
 40
3.125
 50
225.0000000000007
 51
45.00000000000074
  0
LINE
  5
E8
  8
DEFAULT
 10
-1681.755960277434
 20
449.0000000000007
 30
0.0
 11
-1786.341192551838
 21
449.0
 31
0.0
  0
LINE
  5
E9
  8
DEFAULT
 10
-1786.341192551838
 20
449.0
 30
0.0
 11
-1786.341192551835
 21
378.4194173824158
 31
0.0
  0
ARC
  5
EA
  8
DEFAULT
 10
-1788.550901243043
 20
376.2097086912079
 30
0.0
 40
3.125
 50
225.0000000000007
 51
45.00000000000074
  0
LINE
  5
EB
  8
DEFAULT
 10
-1790.760609934251
 20
374.0
 30
0.0
 11
-1794.42177516942
 21
374.0
 31
0.0
  0
ARC
  5
EC
  8
DEFAULT
 10
-1796.631483860628
 20
376.2097086912079
 30
0.0
 40
3.125
 50
134.9999999999993
 51
314.9999999999993
  0
LINE
  5
ED
  8
DEFAULT
 10
-1798.841192551836
 20
378.4194173824158
 30
0.0
 11
-1798.841192551838
 21
449.0
 31
0.0
  0
LINE
  5
EE
  8
DEFAULT
 10
-1798.841192551838
 20
449.0
 30
0.0
 11
-1903.426424826241
 21
449.0
 31
0.0
  0
ARC
  5
EF
  8
DEFAULT
 10
-1905.636133517455
 20
451.2097086912086
 30
0.0
 40
3.125
 50
134.9999999999993
 51
314.9999999999993
  0
LINE
  5
F0
  8
DEFAULT
 10
-1907.845842208663
 20
453.4194173824164
 30
0.0
 11
-1907.845842288598
 21
459.9999997747177
 31
0.0
  0
LINE
  5
F1
  8
DEFAULT
 10
-1907.845842288598
 20
459.9999997747177
 30
0.0
 11
-1933.586542815088
 21
459.9999999401366
 31
0.0
  0
LINE
  5
F2
  8
DEFAULT
 10
-1933.586542815088
 20
459.9999999401366
 30
0.0
 11
-1933.586542895023
 21
453.419417382416
 31
0.0
  0
ARC
  5
F3
  8
DEFAULT
 10
-1935.796251586231
 20
451.2097086912081
 30
0.0
 40
3.125000000000025
 50
225.000000000003
 51
44.99999999999853
  0
LINE
  5
F4
  8
DEFAULT
 10
-1938.005960277439
 20
449.0
 30
0.0
 11
-2042.591192551838
 21
449.0
 31
0.0
  0
LINE
  5
F5
  8
DEFAULT
 10
-2042.591192551838
 20
449.0
 30
0.0
 11
-2042.591192551838
 21
299.0
 31
0.0
  0
LINE
  5
F6
  8
DEFAULT
 10
-2042.591192551838
 20
299.0
 30
0.0
 11
-1542.591192551842
 21
299.0
 31
0.0
  0
LINE
  5
F7
  8
DEFAULT
 10
-1542.591192551842
 20
299.0
 30
0.0
 11
-1542.591192551837
 21
449.0
 31
0.0
  0
LINE
  5
F8
  8
DEFAULT
 10
-1542.591192551837
 20
449.0
 30
0.0
 11
-1647.176424826241
 21
449.0
 31
0.0
  0
ARC
  5
F9
  8
DEFAULT
 10
-1649.386133517449
 20
451.2097086912081
 30
0.0
 40
3.125000000000025
 50
135.0000000000015
 51
314.999999999997
  0
LINE
  5
FA
  8
DEFAULT
 10
-1651.595842208657
 20
453.419417382416
 30
0.0
 11
-1651.595842288592
 21
459.9999999401366
 31
0.0
  0
LINE
  5
FB
  8
CUTSHEETS_2D$EXTERIOR_CUTS
 10
-2358.841192551836
 20
299.0
 30
0.0
 11
-2602.591192551834
 21
299.0
 31
0.0
  0
LINE
  5
FC
  8
CUTSHEETS_2D$EXTERIOR_CUTS
 10
-2602.591192551834
 20
299.0
 30
0.0
 11
-2602.591192551839
 21
449.0
 31
0.0
  0
LINE
  5
FD
  8
CUTSHEETS_2D$EXTERIOR_CUTS
 10
-2602.591192551839
 20
449.0
 30
0.0
 11
-2498.005960277434
 21
449.0
 31
0.0
  0
ARC
  5
FE
  8
CUTSHEETS_2D$EXTERIOR_CUTS
 10
-2495.796251586227
 20
451.2097086912081
 30
0.0
 40
3.125000000000025
 50
225.0000000000059
 51
45.00000000000442
  0
LINE
  5
FF
  8
CUTSHEETS_2D$EXTERIOR_CUTS
 10
-2493.586542895019
 20
453.419417382416
 30
0.0
 11
-2493.586542815084
 21
459.9999999401366
 31
0.0
  0
LINE
  5
100
  8
CUTSHEETS_2D$EXTERIOR_CUTS
 10
-2493.586542815084
 20
459.9999999401366
 30
0.0
 11
-2467.845842288593
 21
459.9999997747177
 31
0.0
  0
LINE
  5
101
  8
CUTSHEETS_2D$EXTERIOR_CUTS
 10
-2467.845842288593
 20
459.9999997747177
 30
0.0
 11
-2467.845842208659
 21
453.4194173824164
 31
0.0
  0
ARC
  5
102
  8
CUTSHEETS_2D$EXTERIOR_CUTS
 10
-2465.636133517451
 20
451.2097086912086
 30
0.0
 40
3.125
 50
135.0000000000022
 51
315.0000000000022
  0
LINE
  5
103
  8
CUTSHEETS_2D$EXTERIOR_CUTS
 10
-2463.426424826243
 20
449.0000000000007
 30
0.0
 11
-2352.591192551839
 21
449.0
 31
0.0
  0
LINE
  5
104
  8
CUTSHEETS_2D$EXTERIOR_CUTS
 10
-2352.591192551839
 20
449.0
 30
0.0
 11
-2241.755960277429
 21
449.0000000000007
 31
0.0
  0
ARC
  5
105
  8
CUTSHEETS_2D$EXTERIOR_CUTS
 10
-2239.546251586221
 20
451.2097086912086
 30
0.0
 40
3.125
 50
224.9999999999978
 51
44.99999999999779
  0
LINE
  5
106
  8
CUTSHEETS_2D$EXTERIOR_CUTS
 10
-2237.336542895014
 20
453.4194173824164
 30
0.0
 11
-2237.336542815078
 21
459.9999997747177
 31
0.0
  0
LINE
  5
107
  8
CUTSHEETS_2D$EXTERIOR_CUTS
 10
-2237.336542815078
 20
459.9999997747177
 30
0.0
 11
-2211.595842288588
 21
459.9999999401366
 31
0.0
  0
LINE
  5
108
  8
CUTSHEETS_2D$EXTERIOR_CUTS
 10
-2211.595842288588
 20
459.9999999401366
 30
0.0
 11
-2211.595842208653
 21
453.419417382416
 31
0.0
  0
ARC
  5
109
  8
CUTSHEETS_2D$EXTERIOR_CUTS
 10
-2209.386133517445
 20
451.2097086912081
 30
0.0
 40
3.125000000000025
 50
135.0000000000015
 51
315.0
  0
LINE
  5
10A
  8
CUTSHEETS_2D$EXTERIOR_CUTS
 10
-2207.176424826237
 20
449.0
 30
0.0
 11
-2102.591192551838
 21
449.0
 31
0.0
  0
LINE
  5
10B
  8
CUTSHEETS_2D$EXTERIOR_CUTS
 10
-2102.591192551838
 20
449.0
 30
0.0
 11
-2102.591192551838
 21
299.0
 31
0.0
  0
LINE
  5
10C
  8
CUTSHEETS_2D$EXTERIOR_CUTS
 10
-2102.591192551838
 20
299.0
 30
0.0
 11
-2346.341192551836
 21
299.0
 31
0.0
  0
LINE
  5
10D
  8
DEFAULT
 10
-2358.841192551839
 20
299.0
 30
0.0
 11
-2358.841192551842
 21
369.5805826175842
 31
0.0
  0
ARC
  5
10E
  8
DEFAULT
 10
-2356.631483860634
 20
371.7902913087921
 30
0.0
 40
3.125
 50
44.99999999999779
 51
224.9999999999978
  0
LINE
  5
10F
  8
DEFAULT
 10
-2354.421775169426
 20
374.0
 30
0.0
 11
-2350.760609934255
 21
374.0
 31
0.0
  0
ARC
  5
110
  8
DEFAULT
 10
-2348.550901243048
 20
371.7902913087921
 30
0.0
 40
3.125
 50
315.0000000000022
 51
135.0000000000022
  0
LINE
  5
111
  8
DEFAULT
 10
-2346.34119255184
 20
369.5805826175842
 30
0.0
 11
-2346.341192551839
 21
299.0
 31
0.0
  0
LINE
  5
112
  8
DEFAULT
 10
-2006.338160955866
 20
253.435676045065
 30
0.0
 11
-2006.338942916037
 21
251.7814945512249
 31
0.0
  0
LINE
  5
113
  8
DEFAULT
 10
-2006.338942916037
 20
251.7814945512249
 30
0.0
 11
-2006.441500259916
 21
251.6809492327952
 31
0.0
  0
ARC
  5
114
  8
DEFAULT
 10
-2003.878238178114
 20
249.1176871509941
 30
0.0
 40
3.625000000000009
 50
135.0000000000045
 51
311.6252140018078
  0
LINE
  5
115
  8
DEFAULT
 10
-2001.470312969809
 20
246.4079784597861
 30
0.0
 11
-1991.422537435298
 21
246.407978459786
 31
0.0
  0
ARC
  5
116
  8
DEFAULT
 10
-1989.01461222699
 20
249.1176871509932
 30
0.0
 40
3.625000000001453
 50
228.3747859981447
 51
47.26570908456758
  0
LINE
  5
117
  8
DEFAULT
 10
-1986.554689449238
 20
251.7802807977044
 30
0.0
 11
-1986.553907489067
 21
253.4344622915436
 31
0.0
  0
LINE
  5
118
  8
DEFAULT
 10
-1986.553907489067
 20
253.4344622915436
 30
0.0
 11
-1986.451350145187
 21
253.5350076099741
 31
0.0
  0
ARC
  5
119
  8
DEFAULT
 10
-1989.014612226989
 20
256.0982696917752
 30
0.0
 40
3.624999999999889
 50
315.0000000000013
 51
131.6252140018105
  0
LINE
  5
11A
  8
DEFAULT
 10
-1991.422537435294
 20
258.8079783829832
 30
0.0
 11
-2001.47031296981
 21
258.8079783829833
 31
0.0
  0
ARC
  5
11B
  8
DEFAULT
 10
-2003.878238178115
 20
256.0982696917752
 30
0.0
 40
3.624999999999724
 50
48.37478599819158
 51
227.2657090845715
  0
LINE
  5
11C
  8
DEFAULT
 10
-1769.89666069595
 20
253.435676045065
 30
0.0
 11
-1769.897442656121
 21
251.7814945512249
 31
0.0
  0
LINE
  5
11D
  8
DEFAULT
 10
-1769.897442656121
 20
251.7814945512249
 30
0.0
 11
-1770.0
 21
251.6809492327952
 31
0.0
  0
ARC
  5
11E
  8
DEFAULT
 10
-1767.436737918199
 20
249.1176871509941
 30
0.0
 40
3.625000000000009
 50
135.0000000000045
 51
311.6252140018078
  0
LINE
  5
11F
  8
DEFAULT
 10
-1765.028812709894
 20
246.4079784597861
 30
0.0
 11
-1754.981037175382
 21
246.407978459786
 31
0.0
  0
ARC
  5
120
  8
DEFAULT
 10
-1752.573111967074
 20
249.1176871509932
 30
0.0
 40
3.625000000001453
 50
228.3747859981447
 51
47.26570908456758
  0
LINE
  5
121
  8
DEFAULT
 10
-1750.113189189322
 20
251.7802807977044
 30
0.0
 11
-1750.112407229151
 21
253.4344622915436
 31
0.0
  0
LINE
  5
122
  8
DEFAULT
 10
-1750.112407229151
 20
253.4344622915436
 30
0.0
 11
-1750.009849885272
 21
253.5350076099741
 31
0.0
  0
ARC
  5
123
  8
DEFAULT
 10
-1752.573111967073
 20
256.0982696917752
 30
0.0
 40
3.624999999999889
 50
315.0000000000013
 51
131.6252140018105
  0
LINE
  5
124
  8
DEFAULT
 10
-1754.981037175378
 20
258.8079783829832
 30
0.0
 11
-1765.028812709894
 21
258.8079783829833
 31
0.0
  0
ARC
  5
125
  8
DEFAULT
 10
-1767.436737918199
 20
256.0982696917752
 30
0.0
 40
3.624999999999724
 50
48.37478599819158
 51
227.2657090845715
  0
LINE
  5
126
  8
DEFAULT
 10
-1533.455160436033
 20
253.4356760450651
 30
0.0
 11
-1533.455942396204
 21
251.781494551225
 31
0.0
  0
LINE
  5
127
  8
DEFAULT
 10
-1533.455942396204
 20
251.781494551225
 30
0.0
 11
-1533.558499740083
 21
251.6809492327953
 31
0.0
  0
ARC
  5
128
  8
DEFAULT
 10
-1530.995237658281
 20
249.1176871509942
 30
0.0
 40
3.625000000000009
 50
135.0000000000045
 51
311.6252140018078
  0
LINE
  5
129
  8
DEFAULT
 10
-1528.587312449977
 20
246.4079784597862
 30
0.0
 11
-1518.539536915465
 21
246.4079784597861
 31
0.0
  0
ARC
  5
12A
  8
DEFAULT
 10
-1516.131611707157
 20
249.1176871509933
 30
0.0
 40
3.625000000001453
 50
228.3747859981447
 51
47.26570908456758
  0
LINE
  5
12B
  8
DEFAULT
 10
-1513.671688929405
 20
251.7802807977046
 30
0.0
 11
-1513.670906969234
 21
253.4344622915437
 31
0.0
  0
LINE
  5
12C
  8
DEFAULT
 10
-1513.670906969234
 20
253.4344622915437
 30
0.0
 11
-1513.568349625355
 21
253.5350076099742
 31
0.0
  0
ARC
  5
12D
  8
DEFAULT
 10
-1516.131611707156
 20
256.0982696917753
 30
0.0
 40
3.624999999999889
 50
315.0000000000013
 51
131.6252140018105
  0
LINE
  5
12E
  8
DEFAULT
 10
-1518.539536915461
 20
258.8079783829833
 30
0.0
 11
-1528.587312449977
 21
258.8079783829834
 31
0.0
  0
ARC
  5
12F
  8
DEFAULT
 10
-1530.995237658282
 20
256.0982696917753
 30
0.0
 40
3.624999999999724
 50
48.37478599819158
 51
227.2657090845715
  0
LINE
  5
130
  8
DEFAULT
 10
-1533.455160436033
 20
-307.6137400753323
 30
0.0
 11
-1533.455942396204
 21
-305.9595585814923
 31
0.0
  0
LINE
  5
131
  8
DEFAULT
 10
-1533.455942396204
 20
-305.9595585814923
 30
0.0
 11
-1533.558499740083
 21
-305.8590132630626
 31
0.0
  0
ARC
  5
132
  8
DEFAULT
 10
-1530.995237658281
 20
-303.2957511812615
 30
0.0
 40
3.625000000000009
 50
48.37478599819188
 51
224.9999999999956
  0
LINE
  5
133
  8
DEFAULT
 10
-1528.587312449977
 20
-300.5860424900535
 30
0.0
 11
-1518.539536915465
 21
-300.5860424900534
 31
0.0
  0
ARC
  5
134
  8
DEFAULT
 10
-1516.131611707157
 20
-303.2957511812606
 30
0.0
 40
3.625000000001453
 50
312.7342909154324
 51
131.6252140018553
  0
LINE
  5
135
  8
DEFAULT
 10
-1513.671688929405
 20
-305.9583448279718
 30
0.0
 11
-1513.670906969234
 21
-307.6125263218109
 31
0.0
  0
LINE
  5
136
  8
DEFAULT
 10
-1513.670906969234
 20
-307.6125263218109
 30
0.0
 11
-1513.568349625355
 21
-307.7130716402414
 31
0.0
  0
ARC
  5
137
  8
DEFAULT
 10
-1516.131611707156
 20
-310.2763337220425
 30
0.0
 40
3.624999999999889
 50
228.3747859981895
 51
44.99999999999873
  0
LINE
  5
138
  8
DEFAULT
 10
-1518.539536915461
 20
-312.9860424132505
 30
0.0
 11
-1528.587312449977
 21
-312.9860424132506
 31
0.0
  0
ARC
  5
139
  8
DEFAULT
 10
-1530.995237658282
 20
-310.2763337220425
 30
0.0
 40
3.624999999999724
 50
132.7342909154288
 51
311.6252140018084
  0
LINE
  5
13A
  8
DEFAULT
 10
-1769.89666069595
 20
-307.6137400753322
 30
0.0
 11
-1769.897442656121
 21
-305.9595585814922
 31
0.0
  0
LINE
  5
13B
  8
DEFAULT
 10
-1769.897442656121
 20
-305.9595585814922
 30
0.0
 11
-1770.0
 21
-305.8590132630625
 31
0.0
  0
ARC
  5
13C
  8
DEFAULT
 10
-1767.436737918199
 20
-303.2957511812614
 30
0.0
 40
3.625000000000009
 50
48.37478599819188
 51
224.9999999999956
  0
LINE
  5
13D
  8
DEFAULT
 10
-1765.028812709894
 20
-300.5860424900534
 30
0.0
 11
-1754.981037175382
 21
-300.5860424900533
 31
0.0
  0
ARC
  5
13E
  8
DEFAULT
 10
-1752.573111967074
 20
-303.2957511812605
 30
0.0
 40
3.625000000001453
 50
312.7342909154324
 51
131.6252140018553
  0
LINE
  5
13F
  8
DEFAULT
 10
-1750.113189189322
 20
-305.9583448279717
 30
0.0
 11
-1750.112407229151
 21
-307.6125263218108
 31
0.0
  0
LINE
  5
140
  8
DEFAULT
 10
-1750.112407229151
 20
-307.6125263218108
 30
0.0
 11
-1750.009849885272
 21
-307.7130716402413
 31
0.0
  0
ARC
  5
141
  8
DEFAULT
 10
-1752.573111967073
 20
-310.2763337220424
 30
0.0
 40
3.624999999999889
 50
228.3747859981895
 51
44.99999999999873
  0
LINE
  5
142
  8
DEFAULT
 10
-1754.981037175378
 20
-312.9860424132504
 30
0.0
 11
-1765.028812709894
 21
-312.9860424132505
 31
0.0
  0
ARC
  5
143
  8
DEFAULT
 10
-1767.436737918199
 20
-310.2763337220424
 30
0.0
 40
3.624999999999724
 50
132.7342909154288
 51
311.6252140018084
  0
LINE
  5
144
  8
DEFAULT
 10
-2006.338160955866
 20
-307.6137400753322
 30
0.0
 11
-2006.338942916037
 21
-305.9595585814922
 31
0.0
  0
LINE
  5
145
  8
DEFAULT
 10
-2006.338942916037
 20
-305.9595585814922
 30
0.0
 11
-2006.441500259916
 21
-305.8590132630625
 31
0.0
  0
ARC
  5
146
  8
DEFAULT
 10
-2003.878238178114
 20
-303.2957511812614
 30
0.0
 40
3.625000000000009
 50
48.37478599819188
 51
224.9999999999956
  0
LINE
  5
147
  8
DEFAULT
 10
-2001.470312969809
 20
-300.5860424900534
 30
0.0
 11
-1991.422537435298
 21
-300.5860424900533
 31
0.0
  0
ARC
  5
148
  8
DEFAULT
 10
-1989.01461222699
 20
-303.2957511812605
 30
0.0
 40
3.625000000001453
 50
312.7342909154324
 51
131.6252140018553
  0
LINE
  5
149
  8
DEFAULT
 10
-1986.554689449238
 20
-305.9583448279717
 30
0.0
 11
-1986.553907489067
 21
-307.6125263218108
 31
0.0
  0
LINE
  5
14A
  8
DEFAULT
 10
-1986.553907489067
 20
-307.6125263218108
 30
0.0
 11
-1986.451350145187
 21
-307.7130716402413
 31
0.0
  0
ARC
  5
14B
  8
DEFAULT
 10
-1989.014612226989
 20
-310.2763337220424
 30
0.0
 40
3.624999999999889
 50
228.3747859981895
 51
44.99999999999873
  0
LINE
  5
14C
  8
DEFAULT
 10
-1991.422537435294
 20
-312.9860424132504
 30
0.0
 11
-2001.47031296981
 21
-312.9860424132505
 31
0.0
  0
ARC
  5
14D
  8
DEFAULT
 10
-2003.878238178115
 20
-310.2763337220424
 30
0.0
 40
3.624999999999724
 50
132.7342909154288
 51
311.6252140018084
  0
LINE
  5
14E
  8
DEFAULT
 10
-1465.827409533762
 20
-220.4129174089396
 30
0.0
 11
-1465.726815745943
 21
-220.5154272118559
 31
0.0
  0
LINE
  5
14F
  8
DEFAULT
 10
-1465.827409533762
 20
-40.40796684806969
 30
0.0
 11
-1465.726815745943
 21
-40.51047665098599
 31
0.0
  0
LINE
  5
150
  8
DEFAULT
 10
-1465.827409533762
 20
139.5920331519301
 30
0.0
 11
-1465.726815745943
 21
139.4895233490138
 31
0.0
  0
LINE
  5
151
  8
DEFAULT
 10
-2055.081440892966
 20
139.5920331519301
 30
0.0
 11
-2055.182034680785
 21
139.4895233490138
 31
0.0
  0
LINE
  5
152
  8
DEFAULT
 10
-2055.081440892966
 20
-40.40796684806969
 30
0.0
 11
-2055.182034680785
 21
-40.51047665098599
 31
0.0
  0
LINE
  5
153
  8
DEFAULT
 10
-2055.081440892966
 20
-220.4129174089396
 30
0.0
 11
-2055.182034680785
 21
-220.5154272118559
 31
0.0
  0
CIRCLE
  5
155
  8
LAYER_01
 10
-1760.454425213364
 20
-27.08903201513374
 30
0.0
 40
39.99999999999989
  0
LINE
  5
156
  8
DEFAULT
 10
-1857.462189382976
 20
-125.2664791680747
 30
0.0
 11
-1858.632353536211
 21
-124.0972773546529
 31
0.0
  0
LINE
  5
157
  8
DEFAULT
 10
-1858.632353536211
 20
-124.0972773546529
 30
0.0
 11
-1858.775968893019
 21
-124.0986912607683
 31
0.0
  0
ARC
  5
158
  8
DEFAULT
 10
-1858.77574650118
 20
-120.4736912675901
 30
0.0
 40
3.625000000000009
 50
93.3712709323293
 51
269.9964849341352
  0
LINE
  5
159
  8
DEFAULT
 10
-1858.988917641816
 20
-116.8549645488672
 30
0.0
 11
-1851.883631560079
 21
-109.7505502247584
 31
0.0
  0
ARC
  5
15A
  8
DEFAULT
 10
-1848.264931024469
 20
-109.964165377738
 30
0.0
 40
3.625000000001453
 50
357.7307758495712
 51
176.6216989359924
  0
LINE
  5
15B
  8
DEFAULT
 10
-1844.642773722798
 20
-110.1076975412386
 30
0.0
 11
-1843.472609569563
 21
-111.2768993546597
 31
0.0
  0
LINE
  5
15C
  8
DEFAULT
 10
-1843.472609569563
 20
-111.2768993546597
 30
0.0
 11
-1843.328994212755
 21
-111.2754854485449
 31
0.0
  0
ARC
  5
15D
  8
DEFAULT
 10
-1843.329216604593
 20
-114.900485441723
 30
0.0
 40
3.624999999999889
 50
273.3712709323294
 51
89.9964849341388
  0
LINE
  5
15E
  8
DEFAULT
 10
-1843.116045463957
 20
-118.519212160446
 30
0.0
 11
-1850.221331545697
 21
-125.6236264845578
 31
0.0
  0
ARC
  5
15F
  8
DEFAULT
 10
-1853.840032081306
 20
-125.4100113315755
 30
0.0
 40
3.624999999999724
 50
177.7307758495676
 51
356.6216989359472
  0
LINE
  5
160
  8
DEFAULT
 10
-1662.276978060423
 20
69.9187321544778
 30
0.0
 11
-1663.446179873845
 21
71.08889630771264
 31
0.0
  0
LINE
  5
161
  8
DEFAULT
 10
-1663.446179873845
 20
71.08889630771264
 30
0.0
 11
-1663.44476596773
 21
71.23251166452081
 31
0.0
  0
ARC
  5
162
  8
DEFAULT
 10
-1667.069765960908
 20
71.23228927268215
 30
0.0
 40
3.625000000000009
 50
0.0035150658656837
 51
176.6287290676679
  0
LINE
  5
163
  8
DEFAULT
 10
-1670.688492679631
 20
71.44546041331822
 30
0.0
 11
-1677.792907003739
 21
64.34017433158135
 31
0.0
  0
ARC
  5
164
  8
DEFAULT
 10
-1677.57929185076
 20
60.72147379597089
 30
0.0
 40
3.625000000001453
 50
93.3783010640083
 51
272.2692241504306
  0
LINE
  5
165
  8
DEFAULT
 10
-1677.435759687259
 20
57.09931649429964
 30
0.0
 11
-1676.266557873838
 21
55.92915234106539
 31
0.0
  0
LINE
  5
166
  8
DEFAULT
 10
-1676.266557873838
 20
55.92915234106539
 30
0.0
 11
-1676.267971779953
 21
55.78553698425668
 31
0.0
  0
ARC
  5
167
  8
DEFAULT
 10
-1672.642971786775
 20
55.78575937609517
 30
0.0
 40
3.624999999999889
 50
180.0035150658625
 51
356.6287290676706
  0
LINE
  5
168
  8
DEFAULT
 10
-1669.024245068052
 20
55.57258823545928
 30
0.0
 11
-1661.91983074394
 21
62.67787431719924
 31
0.0
  0
ARC
  5
169
  8
DEFAULT
 10
-1662.133445896922
 20
66.29657485280822
 30
0.0
 40
3.624999999999724
 50
273.3783010640531
 51
92.26922415043171
  0
LINE
  5
16A
  8
DEFAULT
 10
-1858.631872366305
 20
-124.0967961847453
 30
0.0
 11
-1857.462670552884
 21
-125.2669603379801
 31
0.0
  0
LINE
  5
16B
  8
DEFAULT
 10
-1857.462670552884
 20
-125.2669603379801
 30
0.0
 11
-1857.464084458999
 21
-125.4105756947883
 31
0.0
  0
ARC
  5
16C
  8
DEFAULT
 10
-1853.839084465821
 20
-125.4103533029496
 30
0.0
 40
3.625000000000009
 50
180.0035150658657
 51
356.6287290676679
  0
LINE
  5
16D
  8
DEFAULT
 10
-1850.220357747098
 20
-125.6235244435857
 30
0.0
 11
-1843.115943422989
 21
-118.5182383618488
 31
0.0
  0
ARC
  5
16E
  8
DEFAULT
 10
-1843.329558575969
 20
-114.8995378262384
 30
0.0
 40
3.625000000001453
 50
273.3783010640083
 51
92.26922415043062
  0
LINE
  5
16F
  8
DEFAULT
 10
-1843.473090739469
 20
-111.2773805245671
 30
0.0
 11
-1844.64229255289
 21
-110.1072163713329
 31
0.0
  0
LINE
  5
170
  8
DEFAULT
 10
-1844.64229255289
 20
-110.1072163713329
 30
0.0
 11
-1844.640878646775
 21
-109.9636010145242
 31
0.0
  0
ARC
  5
171
  8
DEFAULT
 10
-1848.265878639954
 20
-109.9638234063626
 30
0.0
 40
3.624999999999889
 50
0.0035150658625391
 51
176.6287290676706
  0
LINE
  5
172
  8
DEFAULT
 10
-1851.884605358677
 20
-109.7506522657268
 30
0.0
 11
-1858.989019682788
 21
-116.8559383474667
 31
0.0
  0
ARC
  5
173
  8
DEFAULT
 10
-1858.775404529806
 20
-120.4746388830757
 30
0.0
 40
3.624999999999724
 50
93.37830106405312
 51
272.2692241504317
  0
LINE
  5
174
  8
DEFAULT
 10
-1663.446661043753
 20
71.0884151378072
 30
0.0
 11
-1662.276496890518
 21
69.91921332438545
 31
0.0
  0
LINE
  5
175
  8
DEFAULT
 10
-1662.276496890518
 20
69.91921332438545
 30
0.0
 11
-1662.13288153371
 21
69.92062723050083
 31
0.0
  0
ARC
  5
176
  8
DEFAULT
 10
-1662.133103925549
 20
66.29562723732258
 30
0.0
 40
3.625000000000009
 50
273.3712709323293
 51
89.99648493413522
  0
LINE
  5
177
  8
DEFAULT
 10
-1661.919932784912
 20
62.67690051859975
 30
0.0
 11
-1669.025218866649
 21
55.57248619449095
 31
0.0
  0
ARC
  5
178
  8
DEFAULT
 10
-1672.64391940226
 20
55.78610134747052
 30
0.0
 40
3.625000000001453
 50
177.7307758495712
 51
356.6216989359925
  0
LINE
  5
179
  8
DEFAULT
 10
-1676.266076703931
 20
55.92963351097112
 30
0.0
 11
-1677.436240857165
 21
57.09883532439221
 31
0.0
  0
LINE
  5
17A
  8
DEFAULT
 10
-1677.436240857165
 20
57.09883532439221
 30
0.0
 11
-1677.579856213974
 21
57.09742141827741
 31
0.0
  0
ARC
  5
17B
  8
DEFAULT
 10
-1677.579633822136
 20
60.72242141145549
 30
0.0
 40
3.624999999999889
 50
93.37127093232941
 51
269.9964849341388
  0
LINE
  5
17C
  8
DEFAULT
 10
-1677.792804962771
 20
64.34114813017851
 30
0.0
 11
-1670.687518881031
 21
71.44556245429035
 31
0.0
  0
ARC
  5
17D
  8
DEFAULT
 10
-1667.068818345422
 20
71.23194730130803
 30
0.0
 40
3.624999999999724
 50
357.7307758495676
 51
176.6216989359471
  0
LINE
  5
17E
  8
DEFAULT
 10
-1663.446661043753
 20
-125.2664791680748
 30
0.0
 11
-1662.276496890518
 21
-124.097277354653
 31
0.0
  0
LINE
  5
17F
  8
DEFAULT
 10
-1662.276496890518
 20
-124.097277354653
 30
0.0
 11
-1662.13288153371
 21
-124.0986912607684
 31
0.0
  0
ARC
  5
180
  8
DEFAULT
 10
-1662.133103925548
 20
-120.4736912675902
 30
0.0
 40
3.625000000000009
 50
270.0035150658648
 51
86.6287290676707
  0
LINE
  5
181
  8
DEFAULT
 10
-1661.919932784912
 20
-116.8549645488673
 30
0.0
 11
-1669.025218866649
 21
-109.7505502247585
 31
0.0
  0
ARC
  5
182
  8
DEFAULT
 10
-1672.64391940226
 20
-109.9641653777381
 30
0.0
 40
3.625000000001453
 50
3.378301064007656
 51
182.2692241504288
  0
LINE
  5
183
  8
DEFAULT
 10
-1676.266076703931
 20
-110.1076975412387
 30
0.0
 11
-1677.436240857165
 21
-111.2768993546598
 31
0.0
  0
LINE
  5
184
  8
DEFAULT
 10
-1677.436240857165
 20
-111.2768993546598
 30
0.0
 11
-1677.579856213974
 21
-111.275485448545
 31
0.0
  0
ARC
  5
185
  8
DEFAULT
 10
-1677.579633822135
 20
-114.9004854417231
 30
0.0
 40
3.624999999999889
 50
90.00351506586118
 51
266.6287290676706
  0
LINE
  5
186
  8
DEFAULT
 10
-1677.792804962771
 20
-118.5192121604461
 30
0.0
 11
-1670.687518881031
 21
-125.6236264845579
 31
0.0
  0
ARC
  5
187
  8
DEFAULT
 10
-1667.068818345422
 20
-125.4100113315756
 30
0.0
 40
3.624999999999724
 50
183.3783010640528
 51
2.269224150432382
  0
LINE
  5
188
  8
DEFAULT
 10
-1858.631872366305
 20
69.91873215447771
 30
0.0
 11
-1857.462670552884
 21
71.08889630771256
 31
0.0
  0
LINE
  5
189
  8
DEFAULT
 10
-1857.462670552884
 20
71.08889630771256
 30
0.0
 11
-1857.464084458999
 21
71.23251166452073
 31
0.0
  0
ARC
  5
18A
  8
DEFAULT
 10
-1853.839084465821
 20
71.23228927268207
 30
0.0
 40
3.625000000000009
 50
3.371270932332127
 51
179.9964849341343
  0
LINE
  5
18B
  8
DEFAULT
 10
-1850.220357747098
 20
71.44546041331813
 30
0.0
 11
-1843.115943422989
 21
64.34017433158127
 31
0.0
  0
ARC
  5
18C
  8
DEFAULT
 10
-1843.329558575969
 20
60.72147379597081
 30
0.0
 40
3.625000000001453
 50
267.7307758495694
 51
86.6216989359917
  0
LINE
  5
18D
  8
DEFAULT
 10
-1843.473090739469
 20
57.09931649429956
 30
0.0
 11
-1844.64229255289
 21
55.9291523410653
 31
0.0
  0
LINE
  5
18E
  8
DEFAULT
 10
-1844.64229255289
 20
55.9291523410653
 30
0.0
 11
-1844.640878646775
 21
55.78553698425659
 31
0.0
  0
ARC
  5
18F
  8
DEFAULT
 10
-1848.265878639953
 20
55.78575937609509
 30
0.0
 40
3.624999999999889
 50
183.3712709323294
 51
359.9964849341375
  0
LINE
  5
190
  8
DEFAULT
 10
-1851.884605358676
 20
55.57258823545919
 30
0.0
 11
-1858.989019682788
 21
62.67787431719916
 31
0.0
  0
ARC
  5
191
  8
DEFAULT
 10
-1858.775404529806
 20
66.29657485280813
 30
0.0
 40
3.624999999999724
 50
87.7307758495683
 51
266.6216989359469
  0
LINE
  5
192
  8
LAYER_01
 10
-1645.091192551838
 20
-223.5
 30
0.0
 11
-1550.091192551838
 21
-223.5
 31
0.0
  0
LINE
  5
193
  8
LAYER_01
 10
-1550.091192551838
 20
-223.5
 30
0.0
 11
-1550.091192551838
 21
-142.5
 31
0.0
  0
LINE
  5
194
  8
LAYER_01
 10
-1550.091192551838
 20
-142.5
 30
0.0
 11
-1645.091192551838
 21
-142.5
 31
0.0
  0
LINE
  5
195
  8
LAYER_01
 10
-1645.091192551838
 20
-142.5
 30
0.0
 11
-1645.091192551838
 21
-223.5
 31
0.0
  0
LINE
  5
196
  8
DEFAULT
 10
-2060.454425213368
 20
166.2339422060325
 30
0.0
 11
-2053.419120610307
 21
166.2339422060325
 31
0.0
  0
LINE
  5
197
  8
DEFAULT
 10
-2053.419120610307
 20
166.2339422060325
 30
0.0
 11
-2053.318526822489
 21
166.3364520089489
 31
0.0
  0
ARC
  5
198
  8
DEFAULT
 10
-2050.756476725219
 20
163.7719785154065
 30
0.0
 40
3.625000000000009
 50
318.3477012953351
 51
134.9729152971371
  0
LINE
  5
199
  8
DEFAULT
 10
-2048.04790660449
 20
161.3627726501699
 30
0.0
 11
-2048.054276366139
 21
144.4591633195642
 31
0.0
  0
ARC
  5
19A
  8
DEFAULT
 10
-2050.763503318536
 20
142.0506967228374
 30
0.0
 40
3.624999589950911
 50
222.7072062125743
 51
41.63666823614318
  0
LINE
  5
19B
  8
DEFAULT
 10
-2053.427259214304
 20
139.5920331519301
 30
0.0
 11
-2060.454425213362
 21
139.5920331519301
 31
0.0
  0
LINE
  5
19C
  8
DEFAULT
 10
-2060.454425213362
 20
139.5920331519301
 30
0.0
 11
-2060.454425213368
 21
-13.76605779396746
 31
0.0
  0
LINE
  5
19D
  8
DEFAULT
 10
-2060.454425213368
 20
-13.76605779396746
 30
0.0
 11
-2053.419120610307
 21
-13.76605779396726
 31
0.0
  0
LINE
  5
19E
  8
DEFAULT
 10
-2053.419120610307
 20
-13.76605779396726
 30
0.0
 11
-2053.318526822489
 21
-13.6635479910509
 31
0.0
  0
ARC
  5
19F
  8
DEFAULT
 10
-2050.756476725219
 20
-16.22802148459328
 30
0.0
 40
3.625000000000009
 50
318.347701295335
 51
134.972915297137
  0
LINE
  5
1A0
  8
DEFAULT
 10
-2048.04790660449
 20
-18.63722734982986
 30
0.0
 11
-2048.054276366139
 21
-35.54083668043563
 31
0.0
  0
ARC
  5
1A1
  8
DEFAULT
 10
-2050.763503318536
 20
-37.94930327716236
 30
0.0
 40
3.624999589950911
 50
222.7072062125743
 51
41.63666823614318
  0
LINE
  5
1A2
  8
DEFAULT
 10
-2053.427259214304
 20
-40.40796684806969
 30
0.0
 11
-2060.454425213362
 21
-40.40796684806972
 31
0.0
  0
LINE
  5
1A3
  8
DEFAULT
 10
-2060.454425213362
 20
-40.40796684806972
 30
0.0
 11
-2060.454425213368
 21
-193.771008354837
 31
0.0
  0
LINE
  5
1A4
  8
DEFAULT
 10
-2060.454425213368
 20
-193.771008354837
 30
0.0
 11
-2053.419120610307
 21
-193.7710083548371
 31
0.0
  0
LINE
  5
1A5
  8
DEFAULT
 10
-2053.419120610307
 20
-193.7710083548371
 30
0.0
 11
-2053.318526822489
 21
-193.6684985519208
 31
0.0
  0
ARC
  5
1A6
  8
DEFAULT
 10
-2050.756476725219
 20
-196.2329720454632
 30
0.0
 40
3.625000000000009
 50
318.3477012953351
 51
134.9729152971371
  0
LINE
  5
1A7
  8
DEFAULT
 10
-2048.04790660449
 20
-198.6421779106997
 30
0.0
 11
-2048.054276366139
 21
-215.5457872413055
 31
0.0
  0
ARC
  5
1A8
  8
DEFAULT
 10
-2050.763503318536
 20
-217.9542538380323
 30
0.0
 40
3.624999589950911
 50
222.7072062125743
 51
41.63666823614318
  0
LINE
  5
1A9
  8
DEFAULT
 10
-2053.427259214304
 20
-220.4129174089396
 30
0.0
 11
-2060.454425213361
 21
-220.4129174089396
 31
0.0
  0
LINE
  5
1AA
  8
DEFAULT
 10
-2060.454425213361
 20
-220.4129174089396
 30
0.0
 11
-2060.454425213364
 21
-327.0890320151336
 31
0.0
  0
LINE
  5
1AB
  8
DEFAULT
 10
-2060.454425213364
 20
-327.0890320151336
 30
0.0
 11
-1460.454425213364
 21
-327.0890320151336
 31
0.0
  0
LINE
  5
1AC
  8
DEFAULT
 10
-1460.454425213364
 20
-327.0890320151336
 30
0.0
 11
-1460.454425213368
 21
-220.4129174089396
 31
0.0
  0
LINE
  5
1AD
  8
DEFAULT
 10
-1460.454425213368
 20
-220.4129174089396
 30
0.0
 11
-1467.481591212425
 21
-220.4129174089396
 31
0.0
  0
ARC
  5
1AE
  8
DEFAULT
 10
-1470.145347108192
 20
-217.9542538380323
 30
0.0
 40
3.624999589950911
 50
138.3633317638568
 51
317.2927937874281
  0
LINE
  5
1AF
  8
DEFAULT
 10
-1472.85457406059
 20
-215.5457872413055
 30
0.0
 11
-1472.860943822239
 21
-198.6421779106997
 31
0.0
  0
ARC
  5
1B0
  8
DEFAULT
 10
-1470.15237370151
 20
-196.2329720454632
 30
0.0
 40
3.625000000000009
 50
45.0270847028629
 51
221.6522987046649
  0
LINE
  5
1B1
  8
DEFAULT
 10
-1467.59032360424
 20
-193.6684985519208
 30
0.0
 11
-1467.489729816421
 21
-193.7710083548371
 31
0.0
  0
LINE
  5
1B2
  8
DEFAULT
 10
-1467.489729816421
 20
-193.7710083548371
 30
0.0
 11
-1460.45442521336
 21
-193.771008354837
 31
0.0
  0
LINE
  5
1B3
  8
DEFAULT
 10
-1460.45442521336
 20
-193.771008354837
 30
0.0
 11
-1460.454425213366
 21
-40.40796684806972
 31
0.0
  0
LINE
  5
1B4
  8
DEFAULT
 10
-1460.454425213366
 20
-40.40796684806972
 30
0.0
 11
-1467.481591212425
 21
-40.40796684806969
 31
0.0
  0
ARC
  5
1B5
  8
DEFAULT
 10
-1470.145347108192
 20
-37.94930327716236
 30
0.0
 40
3.624999589950911
 50
138.3633317638568
 51
317.2927937874281
  0
LINE
  5
1B6
  8
DEFAULT
 10
-1472.85457406059
 20
-35.54083668043563
 30
0.0
 11
-1472.860943822239
 21
-18.63722734982986
 31
0.0
  0
ARC
  5
1B7
  8
DEFAULT
 10
-1470.15237370151
 20
-16.22802148459328
 30
0.0
 40
3.625000000000009
 50
45.02708470286296
 51
221.652298704665
  0
LINE
  5
1B8
  8
DEFAULT
 10
-1467.59032360424
 20
-13.6635479910509
 30
0.0
 11
-1467.489729816421
 21
-13.76605779396726
 31
0.0
  0
LINE
  5
1B9
  8
DEFAULT
 10
-1467.489729816421
 20
-13.76605779396726
 30
0.0
 11
-1460.454425213356
 21
-13.76605779396726
 31
0.0
  0
LINE
  5
1BA
  8
DEFAULT
 10
-1460.454425213364
 20
-13.76605779396766
 30
0.0
 11
-1460.454425213366
 21
139.5920331519301
 31
0.0
  0
LINE
  5
1BB
  8
DEFAULT
 10
-1460.454425213366
 20
139.5920331519301
 30
0.0
 11
-1467.481591212425
 21
139.5920331519301
 31
0.0
  0
ARC
  5
1BC
  8
DEFAULT
 10
-1470.145347108192
 20
142.0506967228374
 30
0.0
 40
3.624999589950911
 50
138.3633317638568
 51
317.2927937874281
  0
LINE
  5
1BD
  8
DEFAULT
 10
-1472.85457406059
 20
144.4591633195642
 30
0.0
 11
-1472.860943822239
 21
161.3627726501699
 31
0.0
  0
ARC
  5
1BE
  8
DEFAULT
 10
-1470.15237370151
 20
163.7719785154065
 30
0.0
 40
3.625000000000009
 50
45.0270847028629
 51
221.6522987046649
  0
LINE
  5
1BF
  8
DEFAULT
 10
-1467.59032360424
 20
166.3364520089489
 30
0.0
 11
-1467.489729816421
 21
166.2339422060325
 31
0.0
  0
LINE
  5
1C0
  8
DEFAULT
 10
-1467.489729816421
 20
166.2339422060325
 30
0.0
 11
-1460.45442521336
 21
166.2339422060325
 31
0.0
  0
LINE
  5
1C1
  8
DEFAULT
 10
-1460.45442521336
 20
166.2339422060325
 30
0.0
 11
-1460.454425213364
 21
272.9109679848664
 31
0.0
  0
LINE
  5
1C2
  8
DEFAULT
 10
-1460.454425213364
 20
272.9109679848664
 30
0.0
 11
-2060.454425213364
 21
272.9109679848664
 31
0.0
  0
LINE
  5
1C3
  8
DEFAULT
 10
-2060.454425213364
 20
272.9109679848664
 30
0.0
 11
-2060.454425213368
 21
166.2339422060325
 31
0.0
  0
LINE
  5
1C4
  8
DEFAULT
 10
-1572.467122686062
 20
-483.0939938324099
 30
0.0
 11
-1572.467122686062
 21
-483.0890319427755
 31
0.0
  0
LINE
  5
1C5
  8
DEFAULT
 10
-1572.467122686062
 20
-483.0890319427755
 30
0.0
 11
-1572.462171912421
 21
-483.0890319427582
 31
0.0
  0
LINE
  5
1C6
  8
DEFAULT
 10
-1572.467122686062
 20
-363.0840698672861
 30
0.0
 11
-1572.467122686062
 21
-363.0890317569202
 31
0.0
  0
LINE
  5
1C7
  8
DEFAULT
 10
-1572.467122686062
 20
-363.0890317569202
 30
0.0
 11
-1572.462171912421
 21
-363.089031756938
 31
0.0
  0
LINE
  5
1C8
  8
DEFAULT
 10
-2045.857230528571
 20
-432.9807675320347
 30
0.0
 11
-2044.203049034731
 21
-432.9815494922062
 31
0.0
  0
LINE
  5
1C9
  8
DEFAULT
 10
-2044.203049034731
 20
-432.9815494922062
 30
0.0
 11
-2044.102503716301
 21
-433.084106836085
 31
0.0
  0
ARC
  5
1CA
  8
DEFAULT
 10
-2041.5392416345
 20
-430.5208447542835
 30
0.0
 40
3.625000000000009
 50
225.0000000000051
 51
41.62521400180738
  0
LINE
  5
1CB
  8
DEFAULT
 10
-2038.829532943293
 20
-428.1129195459788
 30
0.0
 11
-2038.829532943292
 21
-418.0651440114674
 31
0.0
  0
ARC
  5
1CC
  8
DEFAULT
 10
-2041.539241634499
 20
-415.657218803159
 30
0.0
 40
3.625000000001453
 50
318.3747859981455
 51
137.2657090845682
  0
LINE
  5
1CD
  8
DEFAULT
 10
-2044.201835281211
 20
-413.1972960254074
 30
0.0
 11
-2045.85601677505
 21
-413.1965140652359
 31
0.0
  0
LINE
  5
1CE
  8
DEFAULT
 10
-2045.85601677505
 20
-413.1965140652359
 30
0.0
 11
-2045.95656209348
 21
-413.0939567213567
 31
0.0
  0
ARC
  5
1CF
  8
DEFAULT
 10
-2048.519824175281
 20
-415.6572188031581
 30
0.0
 40
3.624999999999889
 50
45.00000000000255
 51
221.625214001808
  0
LINE
  5
1D0
  8
DEFAULT
 10
-2051.229532866489
 20
-418.0651440114633
 30
0.0
 11
-2051.229532866489
 21
-428.1129195459788
 31
0.0
  0
ARC
  5
1D1
  8
DEFAULT
 10
-2048.519824175281
 20
-430.520844754284
 30
0.0
 40
3.624999999999724
 50
138.3747859981892
 51
317.2657090845711
  0
LINE
  5
1D2
  8
DEFAULT
 10
-1484.807814408174
 20
-432.9807675320345
 30
0.0
 11
-1486.461995902014
 21
-432.981549492206
 31
0.0
  0
LINE
  5
1D3
  8
DEFAULT
 10
-1486.461995902014
 20
-432.981549492206
 30
0.0
 11
-1486.562541220444
 21
-433.0841068360847
 31
0.0
  0
ARC
  5
1D4
  8
DEFAULT
 10
-1489.125803302245
 20
-430.5208447542833
 30
0.0
 40
3.625000000000009
 50
138.3747859981926
 51
314.9999999999949
  0
LINE
  5
1D5
  8
DEFAULT
 10
-1491.835511993453
 20
-428.1129195459786
 30
0.0
 11
-1491.835511993453
 21
-418.0651440114672
 31
0.0
  0
ARC
  5
1D6
  8
DEFAULT
 10
-1489.125803302246
 20
-415.6572188031588
 30
0.0
 40
3.625000000001453
 50
42.73429091543181
 51
221.6252140018545
  0
LINE
  5
1D7
  8
DEFAULT
 10
-1486.463209655534
 20
-413.1972960254071
 30
0.0
 11
-1484.809028161695
 21
-413.1965140652356
 31
0.0
  0
LINE
  5
1D8
  8
DEFAULT
 10
-1484.809028161695
 20
-413.1965140652356
 30
0.0
 11
-1484.708482843265
 21
-413.0939567213564
 31
0.0
  0
ARC
  5
1D9
  8
DEFAULT
 10
-1482.145220761464
 20
-415.6572188031579
 30
0.0
 40
3.624999999999889
 50
318.3747859981896
 51
135.0
  0
LINE
  5
1DA
  8
DEFAULT
 10
-1479.435512070256
 20
-418.0651440114631
 30
0.0
 11
-1479.435512070256
 21
-428.1129195459786
 31
0.0
  0
ARC
  5
1DB
  8
DEFAULT
 10
-1482.145220761464
 20
-430.5208447542838
 30
0.0
 40
3.624999999999724
 50
222.7342909154288
 51
41.62521400180842
  0
LINE
  5
1DC
  8
CUTSHEETS_2D$EXTERIOR_CUTS
 10
-1568.042754742776
 20
-363.0890315441667
 30
0.0
 11
-1465.33252230515
 21
-363.0890321312764
 31
0.0
  0
LINE
  5
1DD
  8
CUTSHEETS_2D$EXTERIOR_CUTS
 10
-1465.33252230515
 20
-363.0890321312764
 30
0.0
 11
-1465.332522468373
 21
-483.0890318722262
 31
0.0
  0
LINE
  5
1DE
  8
CUTSHEETS_2D$EXTERIOR_CUTS
 10
-1465.332522468373
 20
-483.0890318722262
 30
0.0
 11
-1568.042754742776
 21
-483.0890321555293
 31
0.0
  0
ARC
  5
1DF
  8
CUTSHEETS_2D$EXTERIOR_CUTS
 10
-1570.252463433984
 20
-485.2987408467374
 30
0.0
 40
3.125000000000025
 50
45.00000000000295
 51
224.9999999999985
  0
LINE
  5
1E0
  8
CUTSHEETS_2D$EXTERIOR_CUTS
 10
-1572.462172125192
 20
-487.5084495379452
 30
0.0
 11
-1572.462172205127
 21
-494.0890320956656
 31
0.0
  0
LINE
  5
1E1
  8
CUTSHEETS_2D$EXTERIOR_CUTS
 10
-1572.462172205127
 20
-494.0890320956656
 30
0.0
 11
-1598.202872731617
 21
-494.0890319302472
 31
0.0
  0
LINE
  5
1E2
  8
CUTSHEETS_2D$EXTERIOR_CUTS
 10
-1598.202872731617
 20
-494.0890319302472
 30
0.0
 11
-1598.202872811552
 21
-487.5084495379455
 31
0.0
  0
ARC
  5
1E3
  8
CUTSHEETS_2D$EXTERIOR_CUTS
 10
-1600.41258150276
 20
-485.2987408467376
 30
0.0
 40
3.125
 50
314.9999999999993
 51
134.9999999999993
  0
LINE
  5
1E4
  8
CUTSHEETS_2D$EXTERIOR_CUTS
 10
-1602.622290193968
 20
-483.0890321555297
 30
0.0
 11
-1748.042754742776
 21
-483.0890321555295
 31
0.0
  0
ARC
  5
1E5
  8
CUTSHEETS_2D$EXTERIOR_CUTS
 10
-1750.252463433984
 20
-485.2987408467376
 30
0.0
 40
3.125000000000025
 50
45.00000000000295
 51
224.9999999999985
  0
LINE
  5
1E6
  8
CUTSHEETS_2D$EXTERIOR_CUTS
 10
-1752.462172125192
 20
-487.5084495379455
 30
0.0
 11
-1752.462172205126
 21
-494.0890320956656
 31
0.0
  0
LINE
  5
1E7
  8
CUTSHEETS_2D$EXTERIOR_CUTS
 10
-1752.462172205126
 20
-494.0890320956656
 30
0.0
 11
-1778.202872731617
 21
-494.0890319302472
 31
0.0
  0
LINE
  5
1E8
  8
CUTSHEETS_2D$EXTERIOR_CUTS
 10
-1778.202872731617
 20
-494.0890319302472
 30
0.0
 11
-1778.202872811552
 21
-487.5084495379455
 31
0.0
  0
ARC
  5
1E9
  8
CUTSHEETS_2D$EXTERIOR_CUTS
 10
-1780.41258150276
 20
-485.2987408467376
 30
0.0
 40
3.125
 50
314.9999999999993
 51
134.9999999999993
  0
LINE
  5
1EA
  8
CUTSHEETS_2D$EXTERIOR_CUTS
 10
-1782.622290193968
 20
-483.0890321555297
 30
0.0
 11
-1928.047705303646
 21
-483.0890321555295
 31
0.0
  0
ARC
  5
1EB
  8
CUTSHEETS_2D$EXTERIOR_CUTS
 10
-1930.257413994854
 20
-485.2987408467376
 30
0.0
 40
3.125000000000025
 50
45.00000000000295
 51
224.9999999999985
  0
LINE
  5
1EC
  8
CUTSHEETS_2D$EXTERIOR_CUTS
 10
-1932.467122686062
 20
-487.5084495379455
 30
0.0
 11
-1932.467122765996
 21
-494.0890320956656
 31
0.0
  0
LINE
  5
1ED
  8
CUTSHEETS_2D$EXTERIOR_CUTS
 10
-1932.467122765996
 20
-494.0890320956656
 30
0.0
 11
-1958.207823292487
 21
-494.0890319302472
 31
0.0
  0
LINE
  5
1EE
  8
CUTSHEETS_2D$EXTERIOR_CUTS
 10
-1958.207823292487
 20
-494.0890319302472
 30
0.0
 11
-1958.207823372422
 21
-487.5084495379455
 31
0.0
  0
ARC
  5
1EF
  8
CUTSHEETS_2D$EXTERIOR_CUTS
 10
-1960.41753206363
 20
-485.2987408467376
 30
0.0
 40
3.125
 50
314.9999999999993
 51
134.9999999999993
  0
LINE
  5
1F0
  8
CUTSHEETS_2D$EXTERIOR_CUTS
 10
-1962.627240754838
 20
-483.0890321555297
 30
0.0
 11
-2065.332522305151
 21
-483.0890318722423
 31
0.0
  0
LINE
  5
1F1
  8
CUTSHEETS_2D$EXTERIOR_CUTS
 10
-2065.332522305151
 20
-483.0890318722423
 30
0.0
 11
-2065.332522468374
 21
-363.0890318301414
 31
0.0
  0
LINE
  5
1F2
  8
CUTSHEETS_2D$EXTERIOR_CUTS
 10
-2065.332522468374
 20
-363.0890318301414
 30
0.0
 11
-1962.627240754838
 21
-363.0890315441662
 31
0.0
  0
ARC
  5
1F3
  8
CUTSHEETS_2D$EXTERIOR_CUTS
 10
-1960.41753206363
 20
-360.8793228529581
 30
0.0
 40
3.125
 50
225.0000000000007
 51
45.00000000000074
  0
LINE
  5
1F4
  8
CUTSHEETS_2D$EXTERIOR_CUTS
 10
-1958.207823372422
 20
-358.6696141617505
 30
0.0
 11
-1958.207823292487
 21
-352.089031769449
 31
0.0
  0
LINE
  5
1F5
  8
CUTSHEETS_2D$EXTERIOR_CUTS
 10
-1958.207823292487
 20
-352.089031769449
 30
0.0
 11
-1932.467122765996
 21
-352.0890316040301
 31
0.0
  0
LINE
  5
1F6
  8
CUTSHEETS_2D$EXTERIOR_CUTS
 10
-1932.467122765996
 20
-352.0890316040301
 30
0.0
 11
-1932.467122686062
 21
-358.6696141617505
 31
0.0
  0
ARC
  5
1F7
  8
CUTSHEETS_2D$EXTERIOR_CUTS
 10
-1930.257413994854
 20
-360.8793228529586
 30
0.0
 40
3.125000000000025
 50
135.0000000000015
 51
314.999999999997
  0
LINE
  5
1F8
  8
CUTSHEETS_2D$EXTERIOR_CUTS
 10
-1928.047705303646
 20
-363.0890315441667
 30
0.0
 11
-1782.622290193968
 21
-363.0890315441662
 31
0.0
  0
ARC
  5
1F9
  8
CUTSHEETS_2D$EXTERIOR_CUTS
 10
-1780.41258150276
 20
-360.8793228529581
 30
0.0
 40
3.125
 50
225.0000000000007
 51
45.00000000000074
  0
LINE
  5
1FA
  8
CUTSHEETS_2D$EXTERIOR_CUTS
 10
-1778.202872811552
 20
-358.66961416175
 30
0.0
 11
-1778.202872731617
 21
-352.089031769449
 31
0.0
  0
LINE
  5
1FB
  8
CUTSHEETS_2D$EXTERIOR_CUTS
 10
-1778.202872731617
 20
-352.089031769449
 30
0.0
 11
-1752.462172205126
 21
-352.0890316040301
 31
0.0
  0
LINE
  5
1FC
  8
CUTSHEETS_2D$EXTERIOR_CUTS
 10
-1752.462172205126
 20
-352.0890316040301
 30
0.0
 11
-1752.462172125192
 21
-358.6696141617505
 31
0.0
  0
ARC
  5
1FD
  8
CUTSHEETS_2D$EXTERIOR_CUTS
 10
-1750.252463433984
 20
-360.8793228529586
 30
0.0
 40
3.125000000000025
 50
135.0000000000015
 51
314.999999999997
  0
LINE
  5
1FE
  8
CUTSHEETS_2D$EXTERIOR_CUTS
 10
-1748.042754742776
 20
-363.0890315441667
 30
0.0
 11
-1602.622290193968
 21
-363.0890315441662
 31
0.0
  0
ARC
  5
1FF
  8
CUTSHEETS_2D$EXTERIOR_CUTS
 10
-1600.41258150276
 20
-360.8793228529581
 30
0.0
 40
3.125
 50
225.0000000000007
 51
45.00000000000074
  0
LINE
  5
200
  8
CUTSHEETS_2D$EXTERIOR_CUTS
 10
-1598.202872811552
 20
-358.66961416175
 30
0.0
 11
-1598.202872731617
 21
-352.089031769449
 31
0.0
  0
LINE
  5
201
  8
CUTSHEETS_2D$EXTERIOR_CUTS
 10
-1598.202872731617
 20
-352.089031769449
 30
0.0
 11
-1572.462172205127
 21
-352.0890316040301
 31
0.0
  0
LINE
  5
202
  8
CUTSHEETS_2D$EXTERIOR_CUTS
 10
-1572.462172205127
 20
-352.0890316040301
 30
0.0
 11
-1572.462172125192
 21
-358.6696141617505
 31
0.0
  0
ARC
  5
203
  8
CUTSHEETS_2D$EXTERIOR_CUTS
 10
-1570.252463433984
 20
-360.8793228529586
 30
0.0
 40
3.125000000000005
 50
134.999999999997
 51
314.9999999999985
  0
LINE
  5
204
  8
DEFAULT
 10
-2098.332522336488
 20
-432.5305535255075
 30
0.0
 11
-2098.332522195659
 21
-413.6475102230686
 31
0.0
  0
LINE
  5
205
  8
DEFAULT
 10
-2098.332522195659
 20
-413.6475102230686
 30
0.0
 11
-2104.913104740593
 21
-413.6475101431339
 31
0.0
  0
ARC
  5
206
  8
DEFAULT
 10
-2107.122813431801
 20
-411.4378014519259
 30
0.0
 40
3.125000000000025
 50
135.000000000003
 51
315.0000000000015
  0
LINE
  5
207
  8
DEFAULT
 10
-2109.332522123009
 20
-409.228092760718
 30
0.0
 11
-2109.33252173677
 21
-363.0890318720687
 31
0.0
  0
LINE
  5
208
  8
DEFAULT
 10
-2109.33252173677
 20
-363.0890318720687
 30
0.0
 11
-2147.58058253765
 21
-363.0890318720696
 31
0.0
  0
ARC
  5
209
  8
DEFAULT
 10
-2149.790291228858
 20
-360.8793231808617
 30
0.0
 40
3.125
 50
135.0000000000022
 51
315.0000000000022
  0
LINE
  5
20A
  8
DEFAULT
 10
-2151.999999920066
 20
-358.6696144896537
 30
0.0
 11
-2152.0
 21
-352.0890320855482
 31
0.0
  0
LINE
  5
20B
  8
DEFAULT
 10
-2152.0
 20
-352.0890320855482
 30
0.0
 11
-2170.883043302439
 21
-352.0890319447191
 31
0.0
  0
LINE
  5
20C
  8
DEFAULT
 10
-2170.883043302439
 20
-352.0890319447191
 30
0.0
 11
-2170.883043382374
 21
-358.6696144896534
 31
0.0
  0
ARC
  5
20D
  8
DEFAULT
 10
-2173.092752073582
 20
-360.8793231808614
 30
0.0
 40
3.125000000000025
 50
225.0000000000059
 51
45.00000000000442
  0
LINE
  5
20E
  8
DEFAULT
 10
-2175.302460764789
 20
-363.0890318720695
 30
0.0
 11
-2384.022082797567
 21
-363.0890318720695
 31
0.0
  0
ARC
  5
20F
  8
DEFAULT
 10
-2386.231791488775
 20
-360.8793231808615
 30
0.0
 40
3.125
 50
135.0000000000022
 51
315.0000000000022
  0
LINE
  5
210
  8
DEFAULT
 10
-2388.441500179983
 20
-358.6696144896536
 30
0.0
 11
-2388.441500259918
 21
-352.0890320855481
 31
0.0
  0
LINE
  5
211
  8
DEFAULT
 10
-2388.441500259918
 20
-352.0890320855481
 30
0.0
 11
-2407.324543562356
 21
-352.089031944719
 31
0.0
  0
LINE
  5
212
  8
DEFAULT
 10
-2407.324543562356
 20
-352.089031944719
 30
0.0
 11
-2407.324543642291
 21
-358.6696144896533
 31
0.0
  0
ARC
  5
213
  8
DEFAULT
 10
-2409.534252333499
 20
-360.8793231808613
 30
0.0
 40
3.125000000000025
 50
225.0000000000059
 51
45.00000000000442
  0
LINE
  5
214
  8
DEFAULT
 10
-2411.743961024707
 20
-363.0890318720694
 30
0.0
 11
-2620.463583057482
 21
-363.0890318720695
 31
0.0
  0
ARC
  5
215
  8
DEFAULT
 10
-2622.67329174869
 20
-360.8793231808615
 30
0.0
 40
3.125
 50
135.0000000000022
 51
315.0000000000022
  0
LINE
  5
216
  8
DEFAULT
 10
-2624.883000439898
 20
-358.6696144896536
 30
0.0
 11
-2624.883000519833
 21
-352.0890320855481
 31
0.0
  0
LINE
  5
217
  8
DEFAULT
 10
-2624.883000519833
 20
-352.0890320855481
 30
0.0
 11
-2643.766043822272
 21
-352.089031944719
 31
0.0
  0
LINE
  5
218
  8
DEFAULT
 10
-2643.766043822272
 20
-352.089031944719
 30
0.0
 11
-2643.766043902207
 21
-358.6696144896533
 31
0.0
  0
ARC
  5
219
  8
DEFAULT
 10
-2645.975752593415
 20
-360.8793231808613
 30
0.0
 40
3.12500000000001
 50
225.0
 51
44.99999999999779
  0
LINE
  5
21A
  8
DEFAULT
 10
-2648.185461284623
 20
-363.0890318720694
 30
0.0
 11
-2687.33252263841
 21
-363.0890318720698
 31
0.0
  0
LINE
  5
21B
  8
DEFAULT
 10
-2687.33252263841
 20
-363.0890318720698
 30
0.0
 11
-2687.332522029206
 21
-409.228092760718
 31
0.0
  0
ARC
  5
21C
  8
DEFAULT
 10
-2689.542230720414
 20
-411.4378014519259
 30
0.0
 40
3.125000000000025
 50
224.9999999999985
 51
44.99999999999705
  0
LINE
  5
21D
  8
DEFAULT
 10
-2691.751939411623
 20
-413.6475101431339
 30
0.0
 11
-2698.332521956557
 21
-413.6475102230686
 31
0.0
  0
LINE
  5
21E
  8
DEFAULT
 10
-2698.332521956557
 20
-413.6475102230686
 30
0.0
 11
-2698.332521815727
 21
-432.5305535255075
 31
0.0
  0
LINE
  5
21F
  8
DEFAULT
 10
-2698.332521815727
 20
-432.5305535255075
 30
0.0
 11
-2691.751939411622
 21
-432.5305536054424
 31
0.0
  0
ARC
  5
220
  8
DEFAULT
 10
-2689.542230720414
 20
-434.7402622966504
 30
0.0
 40
3.125
 50
315.0000000000022
 51
135.0000000000022
  0
LINE
  5
221
  8
DEFAULT
 10
-2687.332522029206
 20
-436.9499709878583
 30
0.0
 11
-2687.332521847065
 21
-483.0890318722265
 31
0.0
  0
LINE
  5
222
  8
DEFAULT
 10
-2687.332521847065
 20
-483.0890318722265
 30
0.0
 11
-2648.185461284623
 21
-483.0890318765066
 31
0.0
  0
ARC
  5
223
  8
DEFAULT
 10
-2645.975752593415
 20
-485.2987405677147
 30
0.0
 40
3.125000000000025
 50
314.9999999999956
 51
134.9999999999941
  0
LINE
  5
224
  8
DEFAULT
 10
-2643.766043902207
 20
-487.5084492589227
 30
0.0
 11
-2643.766043822272
 21
-494.0890318038571
 31
0.0
  0
LINE
  5
225
  8
DEFAULT
 10
-2643.766043822272
 20
-494.0890318038571
 30
0.0
 11
-2624.883000519833
 21
-494.089031663028
 31
0.0
  0
LINE
  5
226
  8
DEFAULT
 10
-2624.883000519833
 20
-494.089031663028
 30
0.0
 11
-2624.883000439898
 21
-487.5084492589225
 31
0.0
  0
ARC
  5
227
  8
DEFAULT
 10
-2622.67329174869
 20
-485.2987405677145
 30
0.0
 40
3.125
 50
44.99999999999779
 51
224.9999999999978
  0
LINE
  5
228
  8
DEFAULT
 10
-2620.463583057482
 20
-483.0890318765065
 30
0.0
 11
-2411.743961024707
 21
-483.0890318765066
 31
0.0
  0
ARC
  5
229
  8
DEFAULT
 10
-2409.534252333499
 20
-485.2987405677147
 30
0.0
 40
3.125000000000025
 50
314.9999999999956
 51
134.9999999999941
  0
LINE
  5
22A
  8
DEFAULT
 10
-2407.324543642291
 20
-487.5084492589227
 30
0.0
 11
-2407.324543562356
 21
-494.0890318038571
 31
0.0
  0
LINE
  5
22B
  8
DEFAULT
 10
-2407.324543562356
 20
-494.0890318038571
 30
0.0
 11
-2388.441500259918
 21
-494.089031663028
 31
0.0
  0
LINE
  5
22C
  8
DEFAULT
 10
-2388.441500259918
 20
-494.089031663028
 30
0.0
 11
-2388.441500179983
 21
-487.5084492589225
 31
0.0
  0
ARC
  5
22D
  8
DEFAULT
 10
-2386.231791488775
 20
-485.2987405677145
 30
0.0
 40
3.125
 50
44.99999999999779
 51
224.9999999999978
  0
LINE
  5
22E
  8
DEFAULT
 10
-2384.022082797567
 20
-483.0890318765065
 30
0.0
 11
-2175.302460764789
 21
-483.0890318765065
 31
0.0
  0
ARC
  5
22F
  8
DEFAULT
 10
-2173.092752073582
 20
-485.2987405677146
 30
0.0
 40
3.125000000000025
 50
314.9999999999956
 51
134.9999999999941
  0
LINE
  5
230
  8
DEFAULT
 10
-2170.883043382374
 20
-487.5084492589226
 30
0.0
 11
-2170.883043302439
 21
-494.089031803857
 31
0.0
  0
LINE
  5
231
  8
DEFAULT
 10
-2170.883043302439
 20
-494.089031803857
 30
0.0
 11
-2152.0
 21
-494.0890316630279
 31
0.0
  0
LINE
  5
232
  8
DEFAULT
 10
-2152.0
 20
-494.0890316630279
 30
0.0
 11
-2151.999999920066
 21
-487.5084492589224
 31
0.0
  0
ARC
  5
233
  8
DEFAULT
 10
-2149.790291228858
 20
-485.2987405677144
 30
0.0
 40
3.125
 50
44.99999999999779
 51
224.9999999999978
  0
LINE
  5
234
  8
DEFAULT
 10
-2147.58058253765
 20
-483.0890318765064
 30
0.0
 11
-2109.332522305151
 21
-483.0890318722423
 31
0.0
  0
LINE
  5
235
  8
DEFAULT
 10
-2109.332522305151
 20
-483.0890318722423
 30
0.0
 11
-2109.33252212301
 21
-436.9499709878583
 31
0.0
  0
ARC
  5
236
  8
DEFAULT
 10
-2107.122813431802
 20
-434.7402622966504
 30
0.0
 40
3.125
 50
44.99999999999779
 51
224.9999999999978
  0
LINE
  5
237
  8
DEFAULT
 10
-2104.913104740594
 20
-432.5305536054424
 30
0.0
 11
-2098.332522336488
 21
-432.5305535255075
 31
0.0
  0
CIRCLE
  5
238
  8
DEFAULT
 10
-2135.332521736777
 20
-383.0890318720687
 30
0.0
 40
8.0
  0
CIRCLE
  5
239
  8
DEFAULT
 10
-2162.332521736777
 20
-383.0890318720687
 30
0.0
 40
8.0
  0
LINE
  5
23A
  8
DEFAULT
 10
-2421.702389986981
 20
-71.35563493296196
 30
0.0
 11
-2419.970339260092
 21
-72.35563507270453
 31
0.0
  0
LINE
  5
23B
  8
DEFAULT
 10
-2419.970339260092
 20
-72.35563507270453
 30
0.0
 11
-2419.910219301206
 21
-72.25150426876635
 31
0.0
  0
CIRCLE
  5
23C
  8
DEFAULT
 10
-2398.454425213364
 20
-27.08903201513363
 30
0.0
 40
50.0
  0
LINE
  5
23D
  8
LAYER_01
 10
-2348.614682160509
 20
-31.08903356829795
 30
0.0
 11
-2305.12107236649
 21
-31.08902260241218
 31
0.0
  0
LINE
  5
23E
  8
LAYER_01
 10
-2305.12107236649
 20
-31.08902260241218
 30
0.0
 11
-2118.454366723163
 21
-31.0890320151309
 31
0.0
  0
LINE
  5
23F
  8
LAYER_01
 10
-2118.454366723163
 20
-31.0890320151309
 30
0.0
 11
-2118.454366319761
 21
-23.0890320151309
 31
0.0
  0
LINE
  5
240
  8
LAYER_01
 10
-2118.454366319761
 20
-23.0890320151309
 30
0.0
 11
-2305.12107226564
 21
-23.08902260241222
 31
0.0
  0
LINE
  5
241
  8
LAYER_01
 10
-2305.12107226564
 20
-23.08902260241222
 30
0.0
 11
-2348.614681911203
 21
-23.08903356829793
 31
0.0
  0
LINE
  5
242
  8
LAYER_01
 10
-2348.614681911203
 20
-23.08903356829793
 30
0.0
 11
-2348.614682160509
 21
-31.08903356829795
 31
0.0
  0
LINE
  5
243
  8
LAYER_01
 10
-2376.998653269373
 20
-72.2515147888642
 30
0.0
 11
-2355.251861756865
 21
-109.9180932946131
 31
0.0
  0
LINE
  5
244
  8
LAYER_01
 10
-2355.251861756865
 20
-109.9180932946131
 30
0.0
 11
-2261.918497341351
 21
-271.5761961480048
 31
0.0
  0
LINE
  5
245
  8
LAYER_01
 10
-2261.918497341351
 20
-271.5761961480048
 30
0.0
 11
-2254.990294393457
 21
-267.5761956589054
 31
0.0
  0
LINE
  5
246
  8
LAYER_01
 10
-2254.990294393457
 20
-267.5761956589054
 30
0.0
 11
-2348.323658597185
 21
-105.9180931723382
 31
0.0
  0
LINE
  5
247
  8
LAYER_01
 10
-2348.323658597185
 20
-105.9180931723382
 30
0.0
 11
-2370.070450213613
 21
-68.2515144865957
 31
0.0
  0
LINE
  5
248
  8
LAYER_01
 10
-2370.070450213613
 20
-68.2515144865957
 30
0.0
 11
-2376.998653269373
 21
-72.2515147888642
 31
0.0
  0
LINE
  5
249
  8
LAYER_01
 10
-2426.838396621402
 20
-68.25151696329627
 30
0.0
 11
-2448.585214724766
 21
-105.918080116809
 31
0.0
  0
LINE
  5
24A
  8
LAYER_01
 10
-2448.585214724766
 20
-105.918080116809
 30
0.0
 11
-2541.918556315647
 21
-267.5761961480075
 31
0.0
  0
LINE
  5
24B
  8
LAYER_01
 10
-2541.918556315647
 20
-267.5761961480075
 30
0.0
 11
-2534.99035280299
 21
-271.5761956589086
 31
0.0
  0
LINE
  5
24C
  8
LAYER_01
 10
-2534.99035280299
 20
-271.5761956589086
 30
0.0
 11
-2441.657011423895
 21
-109.9180799945343
 31
0.0
  0
LINE
  5
24D
  8
LAYER_01
 10
-2441.657011423895
 20
-109.9180799945343
 30
0.0
 11
-2419.910193216613
 21
-72.25151666102968
 31
0.0
  0
LINE
  5
24E
  8
LAYER_01
 10
-2419.910193216613
 20
-72.25151666102968
 30
0.0
 11
-2426.838396621402
 21
-68.25151696329627
 31
0.0
  0
LINE
  5
24F
  8
LAYER_01
 10
-2448.294168216358
 20
-31.0890341895669
 30
0.0
 11
-2491.787778040071
 21
-31.089018837331
 31
0.0
  0
LINE
  5
250
  8
LAYER_01
 10
-2491.787778040071
 20
-31.089018837331
 30
0.0
 11
-2678.45448362289
 21
-31.08903201513817
 31
0.0
  0
LINE
  5
251
  8
LAYER_01
 10
-2678.45448362289
 20
-31.08903201513817
 30
0.0
 11
-2678.454484187653
 21
-23.08903201513818
 31
0.0
  0
LINE
  5
252
  8
LAYER_01
 10
-2678.454484187653
 20
-23.08903201513818
 30
0.0
 11
-2491.787778181262
 21
-23.08901883733107
 31
0.0
  0
LINE
  5
253
  8
LAYER_01
 10
-2491.787778181262
 20
-23.08901883733107
 30
0.0
 11
-2448.294168565386
 21
-23.08903418956685
 31
0.0
  0
LINE
  5
254
  8
LAYER_01
 10
-2448.294168565386
 20
-23.08903418956685
 30
0.0
 11
-2448.294168216358
 21
-31.0890341895669
 31
0.0
  0
LINE
  5
255
  8
LAYER_01
 10
-2419.910195468463
 20
18.07345156095398
 30
0.0
 11
-2441.656998421592
 21
55.74002356431203
 31
0.0
  0
LINE
  5
256
  8
LAYER_01
 10
-2441.656998421592
 20
55.74002356431203
 30
0.0
 11
-2534.990352964359
 21
217.3981319081226
 31
0.0
  0
LINE
  5
257
  8
LAYER_01
 10
-2534.990352964359
 20
217.3981319081226
 30
0.0
 11
-2541.918556154294
 21
213.3981318382511
 31
0.0
  0
LINE
  5
258
  8
LAYER_01
 10
-2541.918556154294
 20
213.3981318382511
 30
0.0
 11
-2448.585201641783
 21
51.74002354684401
 31
0.0
  0
LINE
  5
259
  8
LAYER_01
 10
-2448.585201641783
 20
51.74002354684401
 30
0.0
 11
-2426.838398673808
 21
14.07345151777301
 31
0.0
  0
LINE
  5
25A
  8
LAYER_01
 10
-2426.838398673808
 20
14.07345151777301
 30
0.0
 11
-2419.910195468463
 21
18.07345156095398
 31
0.0
  0
LINE
  5
25B
  8
LAYER_01
 10
-2368.438940471074
 20
12.89934974364014
 30
0.0
 11
-2253.258243686746
 21
212.3981314539609
 31
0.0
  0
LINE
  5
25C
  8
LAYER_01
 10
-2253.258243686746
 20
212.3981314539609
 30
0.0
 11
-2260.1864465943
 21
216.3981320129313
 31
0.0
  0
LINE
  5
25D
  8
LAYER_01
 10
-2260.1864465943
 20
216.3981320129313
 30
0.0
 11
-2375.206500472037
 21
17.17759192685745
 31
0.0
  0
LINE
  5
25E
  8
LAYER_01
 10
-2375.206500472037
 20
17.17759192685745
 30
0.0
 11
-2368.438940471074
 21
12.89934974364014
 31
0.0
  0
LINE
  5
25F
  8
DEFAULT
 10
-1569.507430157601
 20
-494.1130830080787
 30
0.0
 11
-1569.507430157601
 21
-494.1180448977128
 31
0.0
  0
LINE
  5
260
  8
DEFAULT
 10
-1569.507430157601
 20
-494.1180448977128
 30
0.0
 11
-1569.502479383961
 21
-494.1180448977303
 31
0.0
  0
LINE
  5
261
  8
DEFAULT
 10
-2698.454425213368
 20
166.2339422060325
 30
0.0
 11
-2691.419120610307
 21
166.2339422060325
 31
0.0
  0
LINE
  5
262
  8
DEFAULT
 10
-2691.419120610307
 20
166.2339422060325
 30
0.0
 11
-2691.318526822489
 21
166.3364520089489
 31
0.0
  0
ARC
  5
263
  8
DEFAULT
 10
-2688.756476725219
 20
163.7719785154065
 30
0.0
 40
3.625000000000009
 50
318.3477012953351
 51
134.9729152971371
  0
LINE
  5
264
  8
DEFAULT
 10
-2686.04790660449
 20
161.3627726501699
 30
0.0
 11
-2686.054276366139
 21
144.4591633195642
 31
0.0
  0
ARC
  5
265
  8
DEFAULT
 10
-2688.763503318536
 20
142.0506967228374
 30
0.0
 40
3.624999589950911
 50
222.7072062125743
 51
41.63666823614318
  0
LINE
  5
266
  8
DEFAULT
 10
-2691.427259214304
 20
139.5920331519301
 30
0.0
 11
-2698.454425213362
 21
139.5920331519301
 31
0.0
  0
LINE
  5
267
  8
DEFAULT
 10
-2698.454425213362
 20
139.5920331519301
 30
0.0
 11
-2698.454425213368
 21
-13.76605779396745
 31
0.0
  0
LINE
  5
268
  8
DEFAULT
 10
-2698.454425213368
 20
-13.76605779396745
 30
0.0
 11
-2691.419120610307
 21
-13.76605779396726
 31
0.0
  0
LINE
  5
269
  8
DEFAULT
 10
-2691.419120610307
 20
-13.76605779396726
 30
0.0
 11
-2691.318526822489
 21
-13.66354799105093
 31
0.0
  0
ARC
  5
26A
  8
DEFAULT
 10
-2688.756476725219
 20
-16.22802148459328
 30
0.0
 40
3.625000000000009
 50
318.347701295335
 51
134.972915297137
  0
LINE
  5
26B
  8
DEFAULT
 10
-2686.04790660449
 20
-18.63722734982986
 30
0.0
 11
-2686.054276366139
 21
-35.5408366804356
 31
0.0
  0
ARC
  5
26C
  8
DEFAULT
 10
-2688.763503318536
 20
-37.94930327716239
 30
0.0
 40
3.624999589950911
 50
222.7072062125743
 51
41.63666823614318
  0
LINE
  5
26D
  8
DEFAULT
 10
-2691.427259214304
 20
-40.40796684806966
 30
0.0
 11
-2698.454425213362
 21
-40.40796684806973
 31
0.0
  0
LINE
  5
26E
  8
DEFAULT
 10
-2698.454425213362
 20
-40.40796684806973
 30
0.0
 11
-2698.454425213368
 21
-193.771008354837
 31
0.0
  0
LINE
  5
26F
  8
DEFAULT
 10
-2698.454425213368
 20
-193.771008354837
 30
0.0
 11
-2691.419120610307
 21
-193.7710083548372
 31
0.0
  0
LINE
  5
270
  8
DEFAULT
 10
-2691.419120610307
 20
-193.7710083548372
 30
0.0
 11
-2691.318526822489
 21
-193.6684985519208
 31
0.0
  0
ARC
  5
271
  8
DEFAULT
 10
-2688.756476725219
 20
-196.2329720454632
 30
0.0
 40
3.625000000000009
 50
318.3477012953351
 51
134.9729152971371
  0
LINE
  5
272
  8
DEFAULT
 10
-2686.04790660449
 20
-198.6421779106998
 30
0.0
 11
-2686.054276366139
 21
-215.5457872413055
 31
0.0
  0
ARC
  5
273
  8
DEFAULT
 10
-2688.763503318536
 20
-217.9542538380323
 30
0.0
 40
3.624999589950911
 50
222.7072062125743
 51
41.63666823614318
  0
LINE
  5
274
  8
DEFAULT
 10
-2691.427259214304
 20
-220.4129174089396
 30
0.0
 11
-2698.454425213361
 21
-220.4129174089396
 31
0.0
  0
LINE
  5
275
  8
DEFAULT
 10
-2698.454425213361
 20
-220.4129174089396
 30
0.0
 11
-2698.454425213364
 21
-327.0890320151336
 31
0.0
  0
LINE
  5
276
  8
DEFAULT
 10
-2698.454425213364
 20
-327.0890320151336
 30
0.0
 11
-2098.454425213364
 21
-327.0890320151336
 31
0.0
  0
LINE
  5
277
  8
DEFAULT
 10
-2098.454425213364
 20
-327.0890320151336
 30
0.0
 11
-2098.454425213368
 21
-220.4129174089396
 31
0.0
  0
LINE
  5
278
  8
DEFAULT
 10
-2098.454425213368
 20
-220.4129174089396
 30
0.0
 11
-2105.481591212425
 21
-220.4129174089396
 31
0.0
  0
ARC
  5
279
  8
DEFAULT
 10
-2108.145347108192
 20
-217.9542538380323
 30
0.0
 40
3.624999589950911
 50
138.3633317638568
 51
317.2927937874256
  0
LINE
  5
27A
  8
DEFAULT
 10
-2110.85457406059
 20
-215.5457872413055
 30
0.0
 11
-2110.860943822239
 21
-198.6421779106998
 31
0.0
  0
ARC
  5
27B
  8
DEFAULT
 10
-2108.15237370151
 20
-196.2329720454632
 30
0.0
 40
3.625000000000009
 50
45.0270847028629
 51
221.6522987046649
  0
LINE
  5
27C
  8
DEFAULT
 10
-2105.59032360424
 20
-193.6684985519208
 30
0.0
 11
-2105.489729816421
 21
-193.7710083548372
 31
0.0
  0
LINE
  5
27D
  8
DEFAULT
 10
-2105.489729816421
 20
-193.7710083548372
 30
0.0
 11
-2098.45442521336
 21
-193.771008354837
 31
0.0
  0
LINE
  5
27E
  8
DEFAULT
 10
-2098.45442521336
 20
-193.771008354837
 30
0.0
 11
-2098.454425213366
 21
-40.40796684806973
 31
0.0
  0
LINE
  5
27F
  8
DEFAULT
 10
-2098.454425213366
 20
-40.40796684806973
 30
0.0
 11
-2105.481591212425
 21
-40.40796684806966
 31
0.0
  0
ARC
  5
280
  8
DEFAULT
 10
-2108.145347108192
 20
-37.94930327716239
 30
0.0
 40
3.624999589950911
 50
138.3633317638568
 51
317.2927937874256
  0
LINE
  5
281
  8
DEFAULT
 10
-2110.85457406059
 20
-35.5408366804356
 30
0.0
 11
-2110.860943822239
 21
-18.63722734982986
 31
0.0
  0
ARC
  5
282
  8
DEFAULT
 10
-2108.15237370151
 20
-16.22802148459328
 30
0.0
 40
3.625000000000009
 50
45.02708470286296
 51
221.652298704665
  0
LINE
  5
283
  8
DEFAULT
 10
-2105.59032360424
 20
-13.66354799105093
 30
0.0
 11
-2105.489729816421
 21
-13.76605779396726
 31
0.0
  0
LINE
  5
284
  8
DEFAULT
 10
-2105.489729816421
 20
-13.76605779396726
 30
0.0
 11
-2098.454425213356
 21
-13.76605779396726
 31
0.0
  0
LINE
  5
285
  8
DEFAULT
 10
-2098.454425213364
 20
-13.76605779396764
 30
0.0
 11
-2098.454425213366
 21
139.5920331519301
 31
0.0
  0
LINE
  5
286
  8
DEFAULT
 10
-2098.454425213366
 20
139.5920331519301
 30
0.0
 11
-2105.481591212425
 21
139.5920331519301
 31
0.0
  0
ARC
  5
287
  8
DEFAULT
 10
-2108.145347108192
 20
142.0506967228374
 30
0.0
 40
3.624999589950911
 50
138.3633317638568
 51
317.2927937874256
  0
LINE
  5
288
  8
DEFAULT
 10
-2110.85457406059
 20
144.4591633195642
 30
0.0
 11
-2110.860943822239
 21
161.3627726501699
 31
0.0
  0
ARC
  5
289
  8
DEFAULT
 10
-2108.15237370151
 20
163.7719785154065
 30
0.0
 40
3.625000000000009
 50
45.0270847028629
 51
221.6522987046649
  0
LINE
  5
28A
  8
DEFAULT
 10
-2105.59032360424
 20
166.3364520089489
 30
0.0
 11
-2105.489729816421
 21
166.2339422060325
 31
0.0
  0
LINE
  5
28B
  8
DEFAULT
 10
-2105.489729816421
 20
166.2339422060325
 30
0.0
 11
-2098.45442521336
 21
166.2339422060325
 31
0.0
  0
LINE
  5
28C
  8
DEFAULT
 10
-2098.45442521336
 20
166.2339422060325
 30
0.0
 11
-2098.454425213364
 21
272.9109679848664
 31
0.0
  0
LINE
  5
28D
  8
DEFAULT
 10
-2098.454425213364
 20
272.9109679848664
 30
0.0
 11
-2698.454425213364
 21
272.9109679848664
 31
0.0
  0
LINE
  5
28E
  8
DEFAULT
 10
-2698.454425213364
 20
272.9109679848664
 30
0.0
 11
-2698.454425213368
 21
166.2339422060325
 31
0.0
  0
LINE
  5
28F
  8
DEFAULT
 10
-2644.338160955866
 20
-307.6137400753322
 30
0.0
 11
-2644.338942916037
 21
-305.9595585814922
 31
0.0
  0
LINE
  5
290
  8
DEFAULT
 10
-2644.338942916037
 20
-305.9595585814922
 30
0.0
 11
-2644.441500259916
 21
-305.8590132630625
 31
0.0
  0
ARC
  5
291
  8
DEFAULT
 10
-2641.878238178114
 20
-303.2957511812614
 30
0.0
 40
3.625000000000009
 50
48.37478599819188
 51
224.9999999999956
  0
LINE
  5
292
  8
DEFAULT
 10
-2639.470312969809
 20
-300.5860424900534
 30
0.0
 11
-2629.422537435298
 21
-300.5860424900533
 31
0.0
  0
ARC
  5
293
  8
DEFAULT
 10
-2627.01461222699
 20
-303.2957511812605
 30
0.0
 40
3.625000000001453
 50
312.7342909154297
 51
131.6252140018499
  0
LINE
  5
294
  8
DEFAULT
 10
-2624.554689449238
 20
-305.9583448279717
 30
0.0
 11
-2624.553907489067
 21
-307.6125263218108
 31
0.0
  0
LINE
  5
295
  8
DEFAULT
 10
-2624.553907489067
 20
-307.6125263218108
 30
0.0
 11
-2624.451350145187
 21
-307.7130716402413
 31
0.0
  0
ARC
  5
296
  8
DEFAULT
 10
-2627.014612226989
 20
-310.2763337220424
 30
0.0
 40
3.624999999999889
 50
228.3747859981949
 51
44.99999999999619
  0
LINE
  5
297
  8
DEFAULT
 10
-2629.422537435294
 20
-312.9860424132504
 30
0.0
 11
-2639.47031296981
 21
-312.9860424132505
 31
0.0
  0
ARC
  5
298
  8
DEFAULT
 10
-2641.878238178115
 20
-310.2763337220424
 30
0.0
 40
3.624999999999724
 50
132.7342909154314
 51
311.6252140018058
  0
LINE
  5
299
  8
DEFAULT
 10
-2407.896660695949
 20
-307.6137400753322
 30
0.0
 11
-2407.897442656121
 21
-305.9595585814922
 31
0.0
  0
LINE
  5
29A
  8
DEFAULT
 10
-2407.897442656121
 20
-305.9595585814922
 30
0.0
 11
-2408.0
 21
-305.8590132630625
 31
0.0
  0
ARC
  5
29B
  8
DEFAULT
 10
-2405.436737918199
 20
-303.2957511812614
 30
0.0
 40
3.625000000000009
 50
48.37478599819188
 51
224.9999999999956
  0
LINE
  5
29C
  8
DEFAULT
 10
-2403.028812709894
 20
-300.5860424900534
 30
0.0
 11
-2392.981037175382
 21
-300.5860424900533
 31
0.0
  0
ARC
  5
29D
  8
DEFAULT
 10
-2390.573111967074
 20
-303.2957511812605
 30
0.0
 40
3.625000000001453
 50
312.7342909154351
 51
131.6252140018499
  0
LINE
  5
29E
  8
DEFAULT
 10
-2388.113189189322
 20
-305.9583448279717
 30
0.0
 11
-2388.11240722915
 21
-307.6125263218108
 31
0.0
  0
LINE
  5
29F
  8
DEFAULT
 10
-2388.11240722915
 20
-307.6125263218108
 30
0.0
 11
-2388.009849885272
 21
-307.7130716402413
 31
0.0
  0
ARC
  5
2A0
  8
DEFAULT
 10
-2390.573111967073
 20
-310.2763337220424
 30
0.0
 40
3.624999999999889
 50
228.3747859981949
 51
44.99999999999619
  0
LINE
  5
2A1
  8
DEFAULT
 10
-2392.981037175378
 20
-312.9860424132504
 30
0.0
 11
-2403.028812709894
 21
-312.9860424132505
 31
0.0
  0
ARC
  5
2A2
  8
DEFAULT
 10
-2405.436737918199
 20
-310.2763337220424
 30
0.0
 40
3.624999999999724
 50
132.7342909154314
 51
311.6252140018111
  0
LINE
  5
2A3
  8
DEFAULT
 10
-2171.455160436032
 20
-307.6137400753323
 30
0.0
 11
-2171.455942396204
 21
-305.9595585814923
 31
0.0
  0
LINE
  5
2A4
  8
DEFAULT
 10
-2171.455942396204
 20
-305.9595585814923
 30
0.0
 11
-2171.558499740083
 21
-305.8590132630626
 31
0.0
  0
ARC
  5
2A5
  8
DEFAULT
 10
-2168.995237658281
 20
-303.2957511812615
 30
0.0
 40
3.625000000000009
 50
48.37478599819188
 51
224.9999999999956
  0
LINE
  5
2A6
  8
DEFAULT
 10
-2166.587312449977
 20
-300.5860424900535
 30
0.0
 11
-2156.539536915465
 21
-300.5860424900534
 31
0.0
  0
ARC
  5
2A7
  8
DEFAULT
 10
-2154.131611707157
 20
-303.2957511812606
 30
0.0
 40
3.625000000001453
 50
312.7342909154351
 51
131.6252140018499
  0
LINE
  5
2A8
  8
DEFAULT
 10
-2151.671688929405
 20
-305.9583448279718
 30
0.0
 11
-2151.670906969233
 21
-307.6125263218109
 31
0.0
  0
LINE
  5
2A9
  8
DEFAULT
 10
-2151.670906969233
 20
-307.6125263218109
 30
0.0
 11
-2151.568349625355
 21
-307.7130716402414
 31
0.0
  0
ARC
  5
2AA
  8
DEFAULT
 10
-2154.131611707156
 20
-310.2763337220425
 30
0.0
 40
3.624999999999889
 50
228.3747859981949
 51
44.99999999999619
  0
LINE
  5
2AB
  8
DEFAULT
 10
-2156.539536915461
 20
-312.9860424132505
 30
0.0
 11
-2166.587312449977
 21
-312.9860424132506
 31
0.0
  0
ARC
  5
2AC
  8
DEFAULT
 10
-2168.995237658282
 20
-310.2763337220425
 30
0.0
 40
3.624999999999724
 50
132.7342909154314
 51
311.6252140018111
  0
LINE
  5
2AD
  8
DEFAULT
 10
-2171.455160436032
 20
253.4356760450651
 30
0.0
 11
-2171.455942396204
 21
251.781494551225
 31
0.0
  0
LINE
  5
2AE
  8
DEFAULT
 10
-2171.455942396204
 20
251.781494551225
 30
0.0
 11
-2171.558499740083
 21
251.6809492327953
 31
0.0
  0
ARC
  5
2AF
  8
DEFAULT
 10
-2168.995237658281
 20
249.1176871509942
 30
0.0
 40
3.625000000000009
 50
135.0000000000045
 51
311.6252140018078
  0
LINE
  5
2B0
  8
DEFAULT
 10
-2166.587312449977
 20
246.4079784597862
 30
0.0
 11
-2156.539536915465
 21
246.4079784597861
 31
0.0
  0
ARC
  5
2B1
  8
DEFAULT
 10
-2154.131611707157
 20
249.1176871509933
 30
0.0
 40
3.625000000001453
 50
228.3747859981501
 51
47.26570908456495
  0
LINE
  5
2B2
  8
DEFAULT
 10
-2151.671688929405
 20
251.7802807977046
 30
0.0
 11
-2151.670906969233
 21
253.4344622915437
 31
0.0
  0
LINE
  5
2B3
  8
DEFAULT
 10
-2151.670906969233
 20
253.4344622915437
 30
0.0
 11
-2151.568349625355
 21
253.5350076099742
 31
0.0
  0
ARC
  5
2B4
  8
DEFAULT
 10
-2154.131611707156
 20
256.0982696917753
 30
0.0
 40
3.624999999999889
 50
315.0000000000038
 51
131.6252140018051
  0
LINE
  5
2B5
  8
DEFAULT
 10
-2156.539536915461
 20
258.8079783829833
 30
0.0
 11
-2166.587312449977
 21
258.8079783829834
 31
0.0
  0
ARC
  5
2B6
  8
DEFAULT
 10
-2168.995237658282
 20
256.0982696917753
 30
0.0
 40
3.624999999999724
 50
48.3747859981889
 51
227.2657090845689
  0
LINE
  5
2B7
  8
DEFAULT
 10
-2407.896660695949
 20
253.435676045065
 30
0.0
 11
-2407.897442656121
 21
251.7814945512249
 31
0.0
  0
LINE
  5
2B8
  8
DEFAULT
 10
-2407.897442656121
 20
251.7814945512249
 30
0.0
 11
-2408.0
 21
251.6809492327952
 31
0.0
  0
ARC
  5
2B9
  8
DEFAULT
 10
-2405.436737918199
 20
249.1176871509941
 30
0.0
 40
3.625000000000009
 50
135.0000000000045
 51
311.6252140018078
  0
LINE
  5
2BA
  8
DEFAULT
 10
-2403.028812709894
 20
246.4079784597861
 30
0.0
 11
-2392.981037175382
 21
246.407978459786
 31
0.0
  0
ARC
  5
2BB
  8
DEFAULT
 10
-2390.573111967074
 20
249.1176871509932
 30
0.0
 40
3.625000000001453
 50
228.3747859981501
 51
47.26570908456495
  0
LINE
  5
2BC
  8
DEFAULT
 10
-2388.113189189322
 20
251.7802807977044
 30
0.0
 11
-2388.11240722915
 21
253.4344622915436
 31
0.0
  0
LINE
  5
2BD
  8
DEFAULT
 10
-2388.11240722915
 20
253.4344622915436
 30
0.0
 11
-2388.009849885272
 21
253.5350076099741
 31
0.0
  0
ARC
  5
2BE
  8
DEFAULT
 10
-2390.573111967073
 20
256.0982696917752
 30
0.0
 40
3.624999999999889
 50
315.0000000000038
 51
131.6252140018051
  0
LINE
  5
2BF
  8
DEFAULT
 10
-2392.981037175378
 20
258.8079783829832
 30
0.0
 11
-2403.028812709894
 21
258.8079783829833
 31
0.0
  0
ARC
  5
2C0
  8
DEFAULT
 10
-2405.436737918199
 20
256.0982696917752
 30
0.0
 40
3.624999999999724
 50
48.3747859981889
 51
227.2657090845689
  0
LINE
  5
2C1
  8
DEFAULT
 10
-2644.338160955866
 20
253.435676045065
 30
0.0
 11
-2644.338942916037
 21
251.7814945512249
 31
0.0
  0
LINE
  5
2C2
  8
DEFAULT
 10
-2644.338942916037
 20
251.7814945512249
 30
0.0
 11
-2644.441500259916
 21
251.6809492327952
 31
0.0
  0
ARC
  5
2C3
  8
DEFAULT
 10
-2641.878238178114
 20
249.1176871509941
 30
0.0
 40
3.625000000000009
 50
135.0000000000045
 51
311.6252140018078
  0
LINE
  5
2C4
  8
DEFAULT
 10
-2639.470312969809
 20
246.4079784597861
 30
0.0
 11
-2629.422537435298
 21
246.407978459786
 31
0.0
  0
ARC
  5
2C5
  8
DEFAULT
 10
-2627.01461222699
 20
249.1176871509932
 30
0.0
 40
3.625000000001453
 50
228.3747859981501
 51
47.26570908457023
  0
LINE
  5
2C6
  8
DEFAULT
 10
-2624.554689449238
 20
251.7802807977044
 30
0.0
 11
-2624.553907489067
 21
253.4344622915436
 31
0.0
  0
LINE
  5
2C7
  8
DEFAULT
 10
-2624.553907489067
 20
253.4344622915436
 30
0.0
 11
-2624.451350145187
 21
253.5350076099741
 31
0.0
  0
ARC
  5
2C8
  8
DEFAULT
 10
-2627.014612226989
 20
256.0982696917752
 30
0.0
 40
3.624999999999889
 50
315.0000000000038
 51
131.6252140018051
  0
LINE
  5
2C9
  8
DEFAULT
 10
-2629.422537435294
 20
258.8079783829832
 30
0.0
 11
-2639.47031296981
 21
258.8079783829833
 31
0.0
  0
ARC
  5
2CA
  8
DEFAULT
 10
-2641.878238178115
 20
256.0982696917752
 30
0.0
 40
3.624999999999724
 50
48.37478599819426
 51
227.2657090845689
  0
ENDSEC
  0
EOF
