  0
SECTION
  2
HEADER
  9
$ACADVER
  1
AC1014
  9
$HANDSEED
  5
FFFF
  9
$MEASUREMENT
 70
     1
  0
ENDSEC
  0
SECTION
  2
TABLES
  0
TABLE
  2
VPORT
  5
8
330
0
100
AcDbSymbolTable
 70
     4
  0
VPORT
  5
2E
330
8
100
AcDbSymbolTableRecord
100
AcDbViewportTableRecord
  2
*ACTIVE
 70
     0
 10
0.0
 20
0.0
 11
1.0
 21
1.0
 12
210.0
 22
148.5
 13
0.0
 23
0.0
 14
10.0
 24
10.0
 15
10.0
 25
10.0
 16
0.0
 26
0.0
 36
1.0
 17
0.0
 27
0.0
 37
0.0
 40
341.0
 41
1.24
 42
50.0
 43
0.0
 44
0.0
 50
0.0
 51
0.0
 71
     0
 72
   100
 73
     1
 74
     3
 75
     0
 76
     0
 77
     0
 78
     0
  0
ENDTAB
  0
TABLE
  2
LTYPE
  5
5
330
0
100
AcDbSymbolTable
 70
     1
  0
LTYPE
  5
14
330
5
100
AcDbSymbolTableRecord
100
AcDbLinetypeTableRecord
  2
BYBLOCK
 70
     0
  3

 72
    65
 73
     0
 40
0.0
  0
LTYPE
  5
15
330
5
100
AcDbSymbolTableRecord
100
AcDbLinetypeTableRecord
  2
BYLAYER
 70
     0
  3

 72
    65
 73
     0
 40
0.0
  0
LTYPE
  5
16
330
5
100
AcDbSymbolTableRecord
100
AcDbLinetypeTableRecord
  2
CONTINUOUS
 70
     0
  3
Solid line
 72
    65
 73
     0
 40
0.0
  0
ENDTAB
  0
TABLE
  2
LAYER
  5
2
100
AcDbSymbolTable
 70
2
  0
LAYER
  5
50
100
AcDbSymbolTableRecord
100
AcDbLayerTableRecord
  2
0
 70
0
  6
CONTINUOUS
  0
LAYER
  5
51
100
AcDbSymbolTableRecord
100
AcDbLayerTableRecord
  2
Livello_1
 70
0
  6
CONTINUOUS
  0
ENDTAB
  0
TABLE
  2
STYLE
  5
3
330
0
100
AcDbSymbolTable
 70
     1
  0
STYLE
  5
11
330
3
100
AcDbSymbolTableRecord
100
AcDbTextStyleTableRecord
  2
STANDARD
 70
     0
 40
0.0
 41
1.0
 50
0.0
 71
     0
 42
2.5
  3
txt
  4

  0
ENDTAB
  0
TABLE
  2
VIEW
  5
6
330
0
100
AcDbSymbolTable
 70
     0
  0
ENDTAB
  0
TABLE
  2
UCS
  5
7
330
0
100
AcDbSymbolTable
 70
     0
  0
ENDTAB
  0
TABLE
  2
APPID
  5
9
330
0
100
AcDbSymbolTable
 70
     2
  0
APPID
  5
12
330
9
100
AcDbSymbolTableRecord
100
AcDbRegAppTableRecord
  2
ACAD
 70
     0
  0
ENDTAB
  0
TABLE
  2
DIMSTYLE
  5
A
330
0
100
AcDbSymbolTable
 70
     1
  0
DIMSTYLE
105
27
330
A
100
AcDbSymbolTableRecord
100
AcDbDimStyleTableRecord
  2
ISO-25
 70
     0
  3

  4

  5

  6

  7

 40
1.0
 41
2.5
 42
0.625
 43
3.75
 44
1.25
 45
0.0
 46
0.0
 47
0.0
 48
0.0
140
2.5
141
2.5
142
0.0
143
0.03937007874016
144
1.0
145
0.0
146
1.0
147
0.625
 71
     0
 72
     0
 73
     0
 74
     0
 75
     0
 76
     0
 77
     1
 78
     8
170
     0
171
     3
172
     1
173
     0
174
     0
175
     0
176
     0
177
     0
178
     0
270
     2
271
     2
272
     2
273
     2
274
     3
340
11
275
     0
280
     0
281
     0
282
     0
283
     0
284
     8
285
     0
286
     0
287
     3
288
     0
  0
ENDTAB
  0
TABLE
  2
BLOCK_RECORD
  5
1
330
0
100
AcDbSymbolTable
 70
     1
  0
BLOCK_RECORD
  5
1F
330
1
100
AcDbSymbolTableRecord
100
AcDbBlockTableRecord
  2
*MODEL_SPACE
  0
BLOCK_RECORD
  5
1B
330
1
100
AcDbSymbolTableRecord
100
AcDbBlockTableRecord
  2
*PAPER_SPACE
  0
ENDTAB
  0
ENDSEC
  0
SECTION
  2
BLOCKS
  0
BLOCK
  5
20
330
1F
100
AcDbEntity
  8
0
100
AcDbBlockBegin
  2
*MODEL_SPACE
 70
     0
 10
0.0
 20
0.0
 30
0.0
  3
*MODEL_SPACE
  1

  0
ENDBLK
  5
21
330
1F
100
AcDbEntity
  8
0
100
AcDbBlockEnd
  0
BLOCK
  5
1C
330
1B
100
AcDbEntity
 67
     1
  8
0
100
AcDbBlockBegin
  2
*PAPER_SPACE
  1

  0
ENDBLK
  5
1D
330
1B
100
AcDbEntity
 67
     1
  8
0
100
AcDbBlockEnd
  0
ENDSEC
  0
SECTION
  2
ENTITIES
  0
SPLINE
  5
100
100
AcDbEntity
  8
Livello_1
 62
7
100
AcDbSpline
 70
8
 71
3
 72
8
 73
4
 74
0
 40
0
 40
0
 40
0
 40
0
 40
1
 40
1
 40
1
 40
1
 10
16.943255
 20
694.148920
 30
0.0
 10
-62.555405
 20
694.149007
 30
0.0
 10
-138.798039
 20
662.568363
 30
0.0
 10
-195.012133
 20
606.354374
 30
0.0
  0
SPLINE
  5
101
100
AcDbEntity
  8
Livello_1
 62
7
100
AcDbSpline
 70
8
 71
3
 72
8
 73
4
 74
0
 40
0
 40
0
 40
0
 40
0
 40
1
 40
1
 40
1
 40
1
 10
-195.012133
 20
606.354374
 30
0.0
 10
-251.226226
 20
550.140385
 30
0.0
 10
-282.807011
 20
473.897808
 30
0.0
 10
-282.807071
 20
394.399149
 30
0.0
  0
SPLINE
  5
102
100
AcDbEntity
  8
Livello_1
 62
7
100
AcDbSpline
 70
8
 71
3
 72
8
 73
4
 74
0
 40
0
 40
0
 40
0
 40
0
 40
1
 40
1
 40
1
 40
1
 10
-282.807071
 20
394.399149
 30
0.0
 10
-282.807155
 20
314.900394
 30
0.0
 10
-251.226434
 20
238.657678
 30
0.0
 10
-195.012325
 20
182.443571
 30
0.0
  0
SPLINE
  5
103
100
AcDbEntity
  8
Livello_1
 62
7
100
AcDbSpline
 70
8
 71
3
 72
8
 73
4
 74
0
 40
0
 40
0
 40
0
 40
0
 40
1
 40
1
 40
1
 40
1
 10
-195.012325
 20
182.443571
 30
0.0
 10
-138.798216
 20
126.229464
 30
0.0
 10
-62.555499
 20
94.648746
 30
0.0
 10
16.943255
 20
94.648832
 30
0.0
  0
SPLINE
  5
104
100
AcDbEntity
  8
Livello_1
 62
7
100
AcDbSpline
 70
8
 71
3
 72
8
 73
4
 74
0
 40
0
 40
0
 40
0
 40
0
 40
1
 40
1
 40
1
 40
1
 10
16.943255
 20
94.648832
 30
0.0
 10
96.441911
 20
94.648896
 30
0.0
 10
172.684482
 20
126.229681
 30
0.0
 10
228.898469
 20
182.443772
 30
0.0
  0
SPLINE
  5
105
100
AcDbEntity
  8
Livello_1
 62
7
100
AcDbSpline
 70
8
 71
3
 72
8
 73
4
 74
0
 40
0
 40
0
 40
0
 40
0
 40
1
 40
1
 40
1
 40
1
 10
228.898469
 20
182.443772
 30
0.0
 10
285.112455
 20
238.657863
 30
0.0
 10
316.693098
 20
314.900493
 30
0.0
 10
316.693014
 20
394.399149
 30
0.0
  0
SPLINE
  5
106
100
AcDbEntity
  8
Livello_1
 62
7
100
AcDbSpline
 70
8
 71
3
 72
8
 73
4
 74
0
 40
0
 40
0
 40
0
 40
0
 40
1
 40
1
 40
1
 40
1
 10
316.693014
 20
394.399149
 30
0.0
 10
316.692888
 20
559.946319
 30
0.0
 10
182.490425
 20
694.148787
 30
0.0
 10
16.943255
 20
694.148920
 30
0.0
  0
LWPOLYLINE
  5
107
100
AcDbEntity
  8
Livello_1
 62
7
100
AcDbPolyline
 90
2
 70
0
 10
16.943255
 20
694.148920
 30
0.0
 10
16.943255
 20
694.148920
 30
0.0
  0
SPLINE
  5
108
100
AcDbEntity
  8
Livello_1
 62
7
100
AcDbSpline
 70
8
 71
3
 72
8
 73
4
 74
0
 40
0
 40
0
 40
0
 40
0
 40
1
 40
1
 40
1
 40
1
 10
24.943594
 20
669.384456
 30
0.0
 10
26.672092
 20
669.318416
 30
0.0
 10
28.225818
 20
669.026062
 30
0.0
 10
29.408436
 20
668.577498
 30
0.0
  0
SPLINE
  5
109
100
AcDbEntity
  8
Livello_1
 62
7
100
AcDbSpline
 70
8
 71
3
 72
8
 73
4
 74
0
 40
0
 40
0
 40
0
 40
0
 40
1
 40
1
 40
1
 40
1
 10
29.408436
 20
668.577498
 30
0.0
 10
30.084169
 20
668.321184
 30
0.0
 10
30.640028
 20
668.014550
 30
0.0
 10
31.040586
 20
667.655309
 30
0.0
  0
SPLINE
  5
10a
100
AcDbEntity
  8
Livello_1
 62
7
100
AcDbSpline
 70
8
 71
3
 72
8
 73
4
 74
0
 40
0
 40
0
 40
0
 40
0
 40
1
 40
1
 40
1
 40
1
 10
31.040586
 20
667.655309
 30
0.0
 10
31.441173
 20
667.296068
 30
0.0
 10
31.693254
 20
666.867853
 30
0.0
 10
31.693225
 20
666.399082
 30
0.0
  0
SPLINE
  5
10b
100
AcDbEntity
  8
Livello_1
 62
7
100
AcDbSpline
 70
8
 71
3
 72
8
 73
4
 74
0
 40
0
 40
0
 40
0
 40
0
 40
1
 40
1
 40
1
 40
1
 10
31.693225
 20
666.399082
 30
0.0
 10
31.693254
 20
665.930339
 30
0.0
 10
31.441173
 20
665.501558
 30
0.0
 10
31.040586
 20
665.142318
 30
0.0
  0
SPLINE
  5
10c
100
AcDbEntity
  8
Livello_1
 62
7
100
AcDbSpline
 70
8
 71
3
 72
8
 73
4
 74
0
 40
0
 40
0
 40
0
 40
0
 40
1
 40
1
 40
1
 40
1
 10
31.040586
 20
665.142318
 30
0.0
 10
30.640028
 20
664.783077
 30
0.0
 10
30.084166
 20
664.477007
 30
0.0
 10
29.408436
 20
664.220693
 30
0.0
  0
SPLINE
  5
10d
100
AcDbEntity
  8
Livello_1
 62
7
100
AcDbSpline
 70
8
 71
3
 72
8
 73
4
 74
0
 40
0
 40
0
 40
0
 40
0
 40
1
 40
1
 40
1
 40
1
 10
29.408436
 20
664.220693
 30
0.0
 10
28.225818
 20
663.772101
 30
0.0
 10
26.672092
 20
663.479295
 30
0.0
 10
24.943594
 20
663.413142
 30
0.0
  0
LWPOLYLINE
  5
10e
100
AcDbEntity
  8
Livello_1
 62
7
100
AcDbPolyline
 90
7
 70
0
 10
9.192617
 20
669.398793
 30
0.0
 10
9.195924
 20
669.398793
 30
0.0
 10
9.442318
 20
669.398793
 30
0.0
 10
24.190634
 20
669.398793
 30
0.0
 10
24.193390
 20
669.398793
 30
0.0
 10
24.943594
 20
669.398793
 30
0.0
 10
24.943594
 20
669.384456
 30
0.0
  0
SPLINE
  5
10f
100
AcDbEntity
  8
Livello_1
 62
7
100
AcDbSpline
 70
8
 71
3
 72
8
 73
4
 74
0
 40
0
 40
0
 40
0
 40
0
 40
1
 40
1
 40
1
 40
1
 10
24.943594
 20
575.393986
 30
0.0
 10
26.871030
 20
575.369489
 30
0.0
 10
28.613244
 20
575.068330
 30
0.0
 10
29.908390
 20
574.577094
 30
0.0
  0
SPLINE
  5
110
100
AcDbEntity
  8
Livello_1
 62
7
100
AcDbSpline
 70
8
 71
3
 72
8
 73
4
 74
0
 40
0
 40
0
 40
0
 40
0
 40
1
 40
1
 40
1
 40
1
 10
29.908390
 20
574.577094
 30
0.0
 10
30.584115
 20
574.320780
 30
0.0
 10
31.139979
 20
574.014710
 30
0.0
 10
31.540537
 20
573.655469
 30
0.0
  0
SPLINE
  5
111
100
AcDbEntity
  8
Livello_1
 62
7
100
AcDbSpline
 70
8
 71
3
 72
8
 73
4
 74
0
 40
0
 40
0
 40
0
 40
0
 40
1
 40
1
 40
1
 40
1
 10
31.540537
 20
573.655469
 30
0.0
 10
31.941124
 20
573.296228
 30
0.0
 10
32.193205
 20
572.867984
 30
0.0
 10
32.193176
 20
572.399241
 30
0.0
  0
SPLINE
  5
112
100
AcDbEntity
  8
Livello_1
 62
7
100
AcDbSpline
 70
8
 71
3
 72
8
 73
4
 74
0
 40
0
 40
0
 40
0
 40
0
 40
1
 40
1
 40
1
 40
1
 10
32.193176
 20
572.399241
 30
0.0
 10
32.193205
 20
571.930498
 30
0.0
 10
31.941124
 20
571.501690
 30
0.0
 10
31.540537
 20
571.142478
 30
0.0
  0
SPLINE
  5
113
100
AcDbEntity
  8
Livello_1
 62
7
100
AcDbSpline
 70
8
 71
3
 72
8
 73
4
 74
0
 40
0
 40
0
 40
0
 40
0
 40
1
 40
1
 40
1
 40
1
 10
31.540537
 20
571.142478
 30
0.0
 10
31.139979
 20
570.783237
 30
0.0
 10
30.584115
 20
570.477167
 30
0.0
 10
29.908390
 20
570.220824
 30
0.0
  0
SPLINE
  5
114
100
AcDbEntity
  8
Livello_1
 62
7
100
AcDbSpline
 70
8
 71
3
 72
8
 73
4
 74
0
 40
0
 40
0
 40
0
 40
0
 40
1
 40
1
 40
1
 40
1
 10
29.908390
 20
570.220824
 30
0.0
 10
28.613272
 20
569.729617
 30
0.0
 10
26.871003
 20
569.428486
 30
0.0
 10
24.943594
 20
569.403932
 30
0.0
  0
LWPOLYLINE
  5
115
100
AcDbEntity
  8
Livello_1
 62
7
100
AcDbPolyline
 90
2
 70
0
 10
24.943594
 20
663.413142
 30
0.0
 10
24.943594
 20
575.393986
 30
0.0
  0
SPLINE
  5
116
100
AcDbEntity
  8
Livello_1
 62
7
100
AcDbSpline
 70
8
 71
3
 72
8
 73
4
 74
0
 40
0
 40
0
 40
0
 40
0
 40
1
 40
1
 40
1
 40
1
 10
9.443971
 20
569.403932
 30
0.0
 10
7.516507
 20
569.428457
 30
0.0
 10
5.773219
 20
569.729617
 30
0.0
 10
4.478073
 20
570.220824
 30
0.0
  0
SPLINE
  5
117
100
AcDbEntity
  8
Livello_1
 62
7
100
AcDbSpline
 70
8
 71
3
 72
8
 73
4
 74
0
 40
0
 40
0
 40
0
 40
0
 40
1
 40
1
 40
1
 40
1
 10
4.478073
 20
570.220824
 30
0.0
 10
3.802348
 20
570.477167
 30
0.0
 10
3.247585
 20
570.783237
 30
0.0
 10
2.847027
 20
571.142478
 30
0.0
  0
SPLINE
  5
118
100
AcDbEntity
  8
Livello_1
 62
7
100
AcDbSpline
 70
8
 71
3
 72
8
 73
4
 74
0
 40
0
 40
0
 40
0
 40
0
 40
1
 40
1
 40
1
 40
1
 10
2.847027
 20
571.142478
 30
0.0
 10
2.446440
 20
571.501690
 30
0.0
 10
2.193257
 20
571.930498
 30
0.0
 10
2.193286
 20
572.399241
 30
0.0
  0
SPLINE
  5
119
100
AcDbEntity
  8
Livello_1
 62
7
100
AcDbSpline
 70
8
 71
3
 72
8
 73
4
 74
0
 40
0
 40
0
 40
0
 40
0
 40
1
 40
1
 40
1
 40
1
 10
2.193286
 20
572.399241
 30
0.0
 10
2.193257
 20
572.867984
 30
0.0
 10
2.446440
 20
573.296228
 30
0.0
 10
2.847027
 20
573.655469
 30
0.0
  0
SPLINE
  5
11a
100
AcDbEntity
  8
Livello_1
 62
7
100
AcDbSpline
 70
8
 71
3
 72
8
 73
4
 74
0
 40
0
 40
0
 40
0
 40
0
 40
1
 40
1
 40
1
 40
1
 10
2.847027
 20
573.655469
 30
0.0
 10
3.247585
 20
574.014710
 30
0.0
 10
3.802348
 20
574.320780
 30
0.0
 10
4.478073
 20
574.577094
 30
0.0
  0
SPLINE
  5
11b
100
AcDbEntity
  8
Livello_1
 62
7
100
AcDbSpline
 70
8
 71
3
 72
8
 73
4
 74
0
 40
0
 40
0
 40
0
 40
0
 40
1
 40
1
 40
1
 40
1
 10
4.478073
 20
574.577094
 30
0.0
 10
5.773218
 20
575.068330
 30
0.0
 10
7.516507
 20
575.369433
 30
0.0
 10
9.443971
 20
575.393986
 30
0.0
  0
LWPOLYLINE
  5
11c
100
AcDbEntity
  8
Livello_1
 62
7
100
AcDbPolyline
 90
6
 70
0
 10
24.943594
 20
569.403932
 30
0.0
 10
24.943594
 20
569.398965
 30
0.0
 10
24.693342
 20
569.398965
 30
0.0
 10
9.693121
 20
569.398965
 30
0.0
 10
9.443971
 20
569.398965
 30
0.0
 10
9.443971
 20
569.403932
 30
0.0
  0
SPLINE
  5
11d
100
AcDbEntity
  8
Livello_1
 62
7
100
AcDbSpline
 70
8
 71
3
 72
8
 73
4
 74
0
 40
0
 40
0
 40
0
 40
0
 40
1
 40
1
 40
1
 40
1
 10
9.192617
 20
663.398805
 30
0.0
 10
7.165161
 20
663.399088
 30
0.0
 10
5.328906
 20
663.708121
 30
0.0
 10
3.977569
 20
664.220693
 30
0.0
  0
SPLINE
  5
11e
100
AcDbEntity
  8
Livello_1
 62
7
100
AcDbSpline
 70
8
 71
3
 72
8
 73
4
 74
0
 40
0
 40
0
 40
0
 40
0
 40
1
 40
1
 40
1
 40
1
 10
3.977569
 20
664.220693
 30
0.0
 10
3.301845
 20
664.477007
 30
0.0
 10
2.746530
 20
664.783077
 30
0.0
 10
2.345972
 20
665.142318
 30
0.0
  0
SPLINE
  5
11f
100
AcDbEntity
  8
Livello_1
 62
7
100
AcDbSpline
 70
8
 71
3
 72
8
 73
4
 74
0
 40
0
 40
0
 40
0
 40
0
 40
1
 40
1
 40
1
 40
1
 10
2.345972
 20
665.142318
 30
0.0
 10
1.945386
 20
665.501558
 30
0.0
 10
1.692754
 20
665.930339
 30
0.0
 10
1.692782
 20
666.399082
 30
0.0
  0
SPLINE
  5
120
100
AcDbEntity
  8
Livello_1
 62
7
100
AcDbSpline
 70
8
 71
3
 72
8
 73
4
 74
0
 40
0
 40
0
 40
0
 40
0
 40
1
 40
1
 40
1
 40
1
 10
1.692782
 20
666.399082
 30
0.0
 10
1.692754
 20
666.867853
 30
0.0
 10
1.945386
 20
667.296068
 30
0.0
 10
2.345972
 20
667.655309
 30
0.0
  0
SPLINE
  5
121
100
AcDbEntity
  8
Livello_1
 62
7
100
AcDbSpline
 70
8
 71
3
 72
8
 73
4
 74
0
 40
0
 40
0
 40
0
 40
0
 40
1
 40
1
 40
1
 40
1
 10
2.345972
 20
667.655309
 30
0.0
 10
2.746530
 20
668.014550
 30
0.0
 10
3.301845
 20
668.321184
 30
0.0
 10
3.977569
 20
668.577498
 30
0.0
  0
SPLINE
  5
122
100
AcDbEntity
  8
Livello_1
 62
7
100
AcDbSpline
 70
8
 71
3
 72
8
 73
4
 74
0
 40
0
 40
0
 40
0
 40
0
 40
1
 40
1
 40
1
 40
1
 10
3.977569
 20
668.577498
 30
0.0
 10
5.328906
 20
669.090042
 30
0.0
 10
7.165161
 20
669.398765
 30
0.0
 10
9.192617
 20
669.398793
 30
0.0
  0
LWPOLYLINE
  5
123
100
AcDbEntity
  8
Livello_1
 62
7
100
AcDbPolyline
 90
4
 70
0
 10
9.443971
 20
575.393986
 30
0.0
 10
9.443971
 20
663.398805
 30
0.0
 10
9.195373
 20
663.398805
 30
0.0
 10
9.192617
 20
663.398805
 30
0.0
  0
SPLINE
  5
124
100
AcDbEntity
  8
Livello_1
 62
7
100
AcDbSpline
 70
8
 71
3
 72
8
 73
4
 74
0
 40
0
 40
0
 40
0
 40
0
 40
1
 40
1
 40
1
 40
1
 10
199.644110
 20
597.945856
 30
0.0
 10
199.709340
 20
597.947098
 30
0.0
 10
199.775939
 20
597.945658
 30
0.0
 10
199.843099
 20
597.942018
 30
0.0
  0
SPLINE
  5
125
100
AcDbEntity
  8
Livello_1
 62
7
100
AcDbSpline
 70
8
 71
3
 72
8
 73
4
 74
0
 40
0
 40
0
 40
0
 40
0
 40
1
 40
1
 40
1
 40
1
 10
199.843099
 20
597.942018
 30
0.0
 10
200.380357
 20
597.912779
 30
0.0
 10
200.989830
 20
597.736955
 30
0.0
 10
201.648881
 20
597.440396
 30
0.0
  0
SPLINE
  5
126
100
AcDbEntity
  8
Livello_1
 62
7
100
AcDbSpline
 70
8
 71
3
 72
8
 73
4
 74
0
 40
0
 40
0
 40
0
 40
0
 40
1
 40
1
 40
1
 40
1
 10
201.648881
 20
597.440396
 30
0.0
 10
201.813626
 20
597.366256
 30
0.0
 10
201.981184
 20
597.284750
 30
0.0
 10
202.151590
 20
597.195653
 30
0.0
  0
SPLINE
  5
127
100
AcDbEntity
  8
Livello_1
 62
7
100
AcDbSpline
 70
8
 71
3
 72
8
 73
4
 74
0
 40
0
 40
0
 40
0
 40
0
 40
1
 40
1
 40
1
 40
1
 10
202.151590
 20
597.195653
 30
0.0
 10
202.151739
 20
597.195568
 30
0.0
 10
202.151988
 20
597.195737
 30
0.0
 10
202.152140
 20
597.195653
 30
0.0
  0
SPLINE
  5
128
100
AcDbEntity
  8
Livello_1
 62
7
100
AcDbSpline
 70
8
 71
3
 72
8
 73
4
 74
0
 40
0
 40
0
 40
0
 40
0
 40
1
 40
1
 40
1
 40
1
 10
202.152140
 20
597.195653
 30
0.0
 10
202.663233
 20
596.928416
 30
0.0
 10
203.197437
 20
596.594802
 30
0.0
 10
203.739640
 20
596.202372
 30
0.0
  0
SPLINE
  5
129
100
AcDbEntity
  8
Livello_1
 62
7
100
AcDbSpline
 70
8
 71
3
 72
8
 73
4
 74
0
 40
0
 40
0
 40
0
 40
0
 40
1
 40
1
 40
1
 40
1
 10
203.739640
 20
596.202372
 30
0.0
 10
204.010805
 20
596.006114
 30
0.0
 10
204.283716
 20
595.790101
 30
0.0
 10
204.557091
 20
595.565170
 30
0.0
  0
SPLINE
  5
12a
100
AcDbEntity
  8
Livello_1
 62
7
100
AcDbSpline
 70
8
 71
3
 72
8
 73
4
 74
0
 40
0
 40
0
 40
0
 40
0
 40
1
 40
1
 40
1
 40
1
 10
204.557091
 20
595.565170
 30
0.0
 10
204.830463
 20
595.340239
 30
0.0
 10
205.104323
 20
595.106503
 30
0.0
 10
205.376199
 20
594.854648
 30
0.0
  0
SPLINE
  5
12b
100
AcDbEntity
  8
Livello_1
 62
7
100
AcDbSpline
 70
8
 71
3
 72
8
 73
4
 74
0
 40
0
 40
0
 40
0
 40
0
 40
1
 40
1
 40
1
 40
1
 10
205.376199
 20
594.854648
 30
0.0
 10
205.557450
 20
594.686754
 30
0.0
 10
205.737734
 20
594.512961
 30
0.0
 10
205.916939
 20
594.333750
 30
0.0
  0
LWPOLYLINE
  5
12c
100
AcDbEntity
  8
Livello_1
 62
7
100
AcDbPolyline
 90
2
 70
0
 10
9.192617
 20
669.398793
 30
0.0
 10
9.192617
 20
669.398793
 30
0.0
  0
SPLINE
  5
12d
100
AcDbEntity
  8
Livello_1
 62
7
100
AcDbSpline
 70
8
 71
3
 72
8
 73
4
 74
0
 40
0
 40
0
 40
0
 40
0
 40
1
 40
1
 40
1
 40
1
 10
217.044874
 20
583.184872
 30
0.0
 10
217.191816
 20
583.026263
 30
0.0
 10
217.334160
 20
582.867456
 30
0.0
 10
217.472065
 20
582.708057
 30
0.0
  0
SPLINE
  5
12e
100
AcDbEntity
  8
Livello_1
 62
7
100
AcDbSpline
 70
8
 71
3
 72
8
 73
4
 74
0
 40
0
 40
0
 40
0
 40
0
 40
1
 40
1
 40
1
 40
1
 10
217.472065
 20
582.708057
 30
0.0
 10
217.472156
 20
582.707972
 30
0.0
 10
217.471978
 20
582.707606
 30
0.0
 10
217.472065
 20
582.707521
 30
0.0
  0
SPLINE
  5
12f
100
AcDbEntity
  8
Livello_1
 62
7
100
AcDbSpline
 70
8
 71
3
 72
8
 73
4
 74
0
 40
0
 40
0
 40
0
 40
0
 40
1
 40
1
 40
1
 40
1
 10
217.472065
 20
582.707521
 30
0.0
 10
217.747768
 20
582.388864
 30
0.0
 10
218.005177
 20
582.069586
 30
0.0
 10
218.242665
 20
581.752255
 30
0.0
  0
SPLINE
  5
130
100
AcDbEntity
  8
Livello_1
 62
7
100
AcDbSpline
 70
8
 71
3
 72
8
 73
4
 74
0
 40
0
 40
0
 40
0
 40
0
 40
1
 40
1
 40
1
 40
1
 10
218.242665
 20
581.752255
 30
0.0
 10
218.480208
 20
581.434868
 30
0.0
 10
218.698239
 20
581.119315
 30
0.0
 10
218.894753
 20
580.809125
 30
0.0
  0
SPLINE
  5
131
100
AcDbEntity
  8
Livello_1
 62
7
100
AcDbSpline
 70
8
 71
3
 72
8
 73
4
 74
0
 40
0
 40
0
 40
0
 40
0
 40
1
 40
1
 40
1
 40
1
 10
218.894753
 20
580.809125
 30
0.0
 10
219.052634
 20
580.559923
 30
0.0
 10
219.192715
 20
580.315490
 30
0.0
 10
219.322495
 20
580.074359
 30
0.0
  0
SPLINE
  5
132
100
AcDbEntity
  8
Livello_1
 62
7
100
AcDbSpline
 70
8
 71
3
 72
8
 73
4
 74
0
 40
0
 40
0
 40
0
 40
0
 40
1
 40
1
 40
1
 40
1
 10
219.322495
 20
580.074359
 30
0.0
 10
219.435079
 20
579.865204
 30
0.0
 10
219.540751
 20
579.658477
 30
0.0
 10
219.631175
 20
579.457563
 30
0.0
  0
SPLINE
  5
133
100
AcDbEntity
  8
Livello_1
 62
7
100
AcDbSpline
 70
8
 71
3
 72
8
 73
4
 74
0
 40
0
 40
0
 40
0
 40
0
 40
1
 40
1
 40
1
 40
1
 10
219.631175
 20
579.457563
 30
0.0
 10
219.705318
 20
579.292773
 30
0.0
 10
219.772018
 20
579.131314
 30
0.0
 10
219.830715
 20
578.973044
 30
0.0
  0
SPLINE
  5
134
100
AcDbEntity
  8
Livello_1
 62
7
100
AcDbSpline
 70
8
 71
3
 72
8
 73
4
 74
0
 40
0
 40
0
 40
0
 40
0
 40
1
 40
1
 40
1
 40
1
 10
219.830715
 20
578.973044
 30
0.0
 10
219.830774
 20
578.972874
 30
0.0
 10
219.830658
 20
578.972648
 30
0.0
 10
219.830715
 20
578.972479
 30
0.0
  0
SPLINE
  5
135
100
AcDbEntity
  8
Livello_1
 62
7
100
AcDbSpline
 70
8
 71
3
 72
8
 73
4
 74
0
 40
0
 40
0
 40
0
 40
0
 40
1
 40
1
 40
1
 40
1
 10
219.830715
 20
578.972479
 30
0.0
 10
219.889332
 20
578.814406
 30
0.0
 10
219.939938
 20
578.659777
 30
0.0
 10
219.982299
 20
578.508901
 30
0.0
  0
SPLINE
  5
136
100
AcDbEntity
  8
Livello_1
 62
7
100
AcDbSpline
 70
8
 71
3
 72
8
 73
4
 74
0
 40
0
 40
0
 40
0
 40
0
 40
1
 40
1
 40
1
 40
1
 10
219.982299
 20
578.508901
 30
0.0
 10
220.067164
 20
578.206726
 30
0.0
 10
220.118717
 20
577.919988
 30
0.0
 10
220.133333
 20
577.651228
 30
0.0
  0
SPLINE
  5
137
100
AcDbEntity
  8
Livello_1
 62
7
100
AcDbSpline
 70
8
 71
3
 72
8
 73
4
 74
0
 40
0
 40
0
 40
0
 40
0
 40
1
 40
1
 40
1
 40
1
 10
220.133333
 20
577.651228
 30
0.0
 10
220.140643
 20
577.516890
 30
0.0
 10
220.138396
 20
577.386249
 30
0.0
 10
220.125617
 20
577.260406
 30
0.0
  0
SPLINE
  5
138
100
AcDbEntity
  8
Livello_1
 62
7
100
AcDbSpline
 70
8
 71
3
 72
8
 73
4
 74
0
 40
0
 40
0
 40
0
 40
0
 40
1
 40
1
 40
1
 40
1
 10
220.125617
 20
577.260406
 30
0.0
 10
220.112872
 20
577.134563
 30
0.0
 10
220.089521
 20
577.013236
 30
0.0
 10
220.055062
 20
576.898823
 30
0.0
  0
SPLINE
  5
139
100
AcDbEntity
  8
Livello_1
 62
7
100
AcDbSpline
 70
8
 71
3
 72
8
 73
4
 74
0
 40
0
 40
0
 40
0
 40
0
 40
1
 40
1
 40
1
 40
1
 10
220.055062
 20
576.898823
 30
0.0
 10
219.986143
 20
576.669969
 30
0.0
 10
219.871888
 20
576.467023
 30
0.0
 10
219.706142
 20
576.301302
 30
0.0
  0
SPLINE
  5
13a
100
AcDbEntity
  8
Livello_1
 62
7
100
AcDbSpline
 70
8
 71
3
 72
8
 73
4
 74
0
 40
0
 40
0
 40
0
 40
0
 40
1
 40
1
 40
1
 40
1
 10
219.706142
 20
576.301302
 30
0.0
 10
219.664712
 20
576.259872
 30
0.0
 10
219.620880
 20
576.221716
 30
0.0
 10
219.574951
 20
576.186635
 30
0.0
  0
SPLINE
  5
13b
100
AcDbEntity
  8
Livello_1
 62
7
100
AcDbSpline
 70
8
 71
3
 72
8
 73
4
 74
0
 40
0
 40
0
 40
0
 40
0
 40
1
 40
1
 40
1
 40
1
 10
219.574951
 20
576.186635
 30
0.0
 10
219.437241
 20
576.081536
 30
0.0
 10
219.280184
 20
576.004094
 30
0.0
 10
219.108624
 20
575.952363
 30
0.0
  0
SPLINE
  5
13c
100
AcDbEntity
  8
Livello_1
 62
7
100
AcDbSpline
 70
8
 71
3
 72
8
 73
4
 74
0
 40
0
 40
0
 40
0
 40
0
 40
1
 40
1
 40
1
 40
1
 10
219.108624
 20
575.952363
 30
0.0
 10
218.994177
 20
575.917875
 30
0.0
 10
218.872875
 20
575.894592
 30
0.0
 10
218.747027
 20
575.881807
 30
0.0
  0
SPLINE
  5
13d
100
AcDbEntity
  8
Livello_1
 62
7
100
AcDbSpline
 70
8
 71
3
 72
8
 73
4
 74
0
 40
0
 40
0
 40
0
 40
0
 40
1
 40
1
 40
1
 40
1
 10
218.747027
 20
575.881807
 30
0.0
 10
218.621178
 20
575.869022
 30
0.0
 10
218.490535
 20
575.866793
 30
0.0
 10
218.356214
 20
575.874102
 30
0.0
  0
SPLINE
  5
13e
100
AcDbEntity
  8
Livello_1
 62
7
100
AcDbSpline
 70
8
 71
3
 72
8
 73
4
 74
0
 40
0
 40
0
 40
0
 40
0
 40
1
 40
1
 40
1
 40
1
 10
218.356214
 20
575.874102
 30
0.0
 10
217.818959
 20
575.903312
 30
0.0
 10
217.209486
 20
576.080238
 30
0.0
 10
216.550435
 20
576.376797
 30
0.0
  0
SPLINE
  5
13f
100
AcDbEntity
  8
Livello_1
 62
7
100
AcDbSpline
 70
8
 71
3
 72
8
 73
4
 74
0
 40
0
 40
0
 40
0
 40
0
 40
1
 40
1
 40
1
 40
1
 10
216.550435
 20
576.376797
 30
0.0
 10
216.118019
 20
576.571389
 30
0.0
 10
215.664110
 20
576.818616
 30
0.0
 10
215.198853
 20
577.113227
 30
0.0
  0
SPLINE
  5
140
100
AcDbEntity
  8
Livello_1
 62
7
100
AcDbSpline
 70
8
 71
3
 72
8
 73
4
 74
0
 40
0
 40
0
 40
0
 40
0
 40
1
 40
1
 40
1
 40
1
 10
215.198853
 20
577.113227
 30
0.0
 10
215.198729
 20
577.113312
 30
0.0
 10
215.198429
 20
577.113143
 30
0.0
 10
215.198302
 20
577.113227
 30
0.0
  0
SPLINE
  5
141
100
AcDbEntity
  8
Livello_1
 62
7
100
AcDbSpline
 70
8
 71
3
 72
8
 73
4
 74
0
 40
0
 40
0
 40
0
 40
0
 40
1
 40
1
 40
1
 40
1
 10
215.198302
 20
577.113227
 30
0.0
 10
214.733017
 20
577.407896
 30
0.0
 10
214.256586
 20
577.750344
 30
0.0
 10
213.778372
 20
578.135747
 30
0.0
  0
SPLINE
  5
142
100
AcDbEntity
  8
Livello_1
 62
7
100
AcDbSpline
 70
8
 71
3
 72
8
 73
4
 74
0
 40
0
 40
0
 40
0
 40
0
 40
1
 40
1
 40
1
 40
1
 10
213.778372
 20
578.135747
 30
0.0
 10
213.778265
 20
578.135831
 30
0.0
 10
213.777929
 20
578.135662
 30
0.0
 10
213.777822
 20
578.135747
 30
0.0
  0
SPLINE
  5
143
100
AcDbEntity
  8
Livello_1
 62
7
100
AcDbSpline
 70
8
 71
3
 72
8
 73
4
 74
0
 40
0
 40
0
 40
0
 40
0
 40
1
 40
1
 40
1
 40
1
 10
213.777822
 20
578.135747
 30
0.0
 10
213.618487
 20
578.264158
 30
0.0
 10
213.459212
 20
578.397592
 30
0.0
 10
213.299918
 20
578.535373
 30
0.0
  0
SPLINE
  5
144
100
AcDbEntity
  8
Livello_1
 62
7
100
AcDbSpline
 70
8
 71
3
 72
8
 73
4
 74
0
 40
0
 40
0
 40
0
 40
0
 40
1
 40
1
 40
1
 40
1
 10
213.299918
 20
578.535373
 30
0.0
 10
213.299816
 20
578.535458
 30
0.0
 10
213.299469
 20
578.535289
 30
0.0
 10
213.299367
 20
578.535373
 30
0.0
  0
SPLINE
  5
145
100
AcDbEntity
  8
Livello_1
 62
7
100
AcDbSpline
 70
8
 71
3
 72
8
 73
4
 74
0
 40
0
 40
0
 40
0
 40
0
 40
1
 40
1
 40
1
 40
1
 10
213.299367
 20
578.535373
 30
0.0
 10
213.139963
 20
578.673267
 30
0.0
 10
212.981190
 20
578.815620
 30
0.0
 10
212.822564
 20
578.962573
 30
0.0
  0
LWPOLYLINE
  5
146
100
AcDbEntity
  8
Livello_1
 62
7
100
AcDbPolyline
 90
7
 70
0
 10
205.916939
 20
594.333750
 30
0.0
 10
205.919697
 20
594.331549
 30
0.0
 10
206.093881
 20
594.157361
 30
0.0
 10
216.522323
 20
583.728375
 30
0.0
 10
216.524527
 20
583.725609
 30
0.0
 10
217.054797
 20
583.195342
 30
0.0
 10
217.044874
 20
583.184872
 30
0.0
  0
SPLINE
  5
147
100
AcDbEntity
  8
Livello_1
 62
7
100
AcDbSpline
 70
8
 71
3
 72
8
 73
4
 74
0
 40
0
 40
0
 40
0
 40
0
 40
1
 40
1
 40
1
 40
1
 10
150.583194
 20
516.723740
 30
0.0
 10
151.424183
 20
515.861099
 30
0.0
 10
152.137672
 20
514.973369
 30
0.0
 10
152.693246
 20
514.120352
 30
0.0
  0
SPLINE
  5
148
100
AcDbEntity
  8
Livello_1
 62
7
100
AcDbSpline
 70
8
 71
3
 72
8
 73
4
 74
0
 40
0
 40
0
 40
0
 40
0
 40
1
 40
1
 40
1
 40
1
 10
152.693246
 20
514.120352
 30
0.0
 10
152.804362
 20
513.949749
 30
0.0
 10
152.909194
 20
513.780557
 30
0.0
 10
153.007438
 20
513.613227
 30
0.0
  0
SPLINE
  5
149
100
AcDbEntity
  8
Livello_1
 62
7
100
AcDbSpline
 70
8
 71
3
 72
8
 73
4
 74
0
 40
0
 40
0
 40
0
 40
0
 40
1
 40
1
 40
1
 40
1
 10
153.007438
 20
513.613227
 30
0.0
 10
153.203933
 20
513.278568
 30
0.0
 10
153.374098
 20
512.951162
 30
0.0
 10
153.516211
 20
512.635384
 30
0.0
  0
SPLINE
  5
14a
100
AcDbEntity
  8
Livello_1
 62
7
100
AcDbSpline
 70
8
 71
3
 72
8
 73
4
 74
0
 40
0
 40
0
 40
0
 40
0
 40
1
 40
1
 40
1
 40
1
 10
153.516211
 20
512.635384
 30
0.0
 10
153.812779
 20
511.976338
 30
0.0
 10
153.989704
 20
511.366851
 30
0.0
 10
154.018920
 20
510.829585
 30
0.0
  0
SPLINE
  5
14b
100
AcDbEntity
  8
Livello_1
 62
7
100
AcDbSpline
 70
8
 71
3
 72
8
 73
4
 74
0
 40
0
 40
0
 40
0
 40
0
 40
1
 40
1
 40
1
 40
1
 10
154.018920
 20
510.829585
 30
0.0
 10
154.026229
 20
510.695275
 30
0.0
 10
154.023986
 20
510.564635
 30
0.0
 10
154.011201
 20
510.438792
 30
0.0
  0
SPLINE
  5
14c
100
AcDbEntity
  8
Livello_1
 62
7
100
AcDbSpline
 70
8
 71
3
 72
8
 73
4
 74
0
 40
0
 40
0
 40
0
 40
0
 40
1
 40
1
 40
1
 40
1
 10
154.011201
 20
510.438792
 30
0.0
 10
154.004828
 20
510.375856
 30
0.0
 10
153.995890
 20
510.314388
 30
0.0
 10
153.984192
 20
510.254134
 30
0.0
  0
SPLINE
  5
14d
100
AcDbEntity
  8
Livello_1
 62
7
100
AcDbSpline
 70
8
 71
3
 72
8
 73
4
 74
0
 40
0
 40
0
 40
0
 40
0
 40
1
 40
1
 40
1
 40
1
 10
153.984192
 20
510.254134
 30
0.0
 10
153.984158
 20
510.253964
 30
0.0
 10
153.984226
 20
510.253739
 30
0.0
 10
153.984192
 20
510.253569
 30
0.0
  0
SPLINE
  5
14e
100
AcDbEntity
  8
Livello_1
 62
7
100
AcDbSpline
 70
8
 71
3
 72
8
 73
4
 74
0
 40
0
 40
0
 40
0
 40
0
 40
1
 40
1
 40
1
 40
1
 10
153.984192
 20
510.253569
 30
0.0
 10
153.972514
 20
510.193512
 30
0.0
 10
153.957827
 20
510.134782
 30
0.0
 10
153.940645
 20
510.077745
 30
0.0
  0
SPLINE
  5
14f
100
AcDbEntity
  8
Livello_1
 62
7
100
AcDbSpline
 70
8
 71
3
 72
8
 73
4
 74
0
 40
0
 40
0
 40
0
 40
0
 40
1
 40
1
 40
1
 40
1
 10
153.940645
 20
510.077745
 30
0.0
 10
153.940595
 20
510.077576
 30
0.0
 10
153.940696
 20
510.077350
 30
0.0
 10
153.940645
 20
510.077180
 30
0.0
  0
SPLINE
  5
150
100
AcDbEntity
  8
Livello_1
 62
7
100
AcDbSpline
 70
8
 71
3
 72
8
 73
4
 74
0
 40
0
 40
0
 40
0
 40
0
 40
1
 40
1
 40
1
 40
1
 10
153.940645
 20
510.077180
 30
0.0
 10
153.936090
 20
510.062082
 30
0.0
 10
153.929613
 20
510.047970
 30
0.0
 10
153.924660
 20
510.033097
 30
0.0
  0
SPLINE
  5
151
100
AcDbEntity
  8
Livello_1
 62
7
100
AcDbSpline
 70
8
 71
3
 72
8
 73
4
 74
0
 40
0
 40
0
 40
0
 40
0
 40
1
 40
1
 40
1
 40
1
 10
153.924660
 20
510.033097
 30
0.0
 10
153.892182
 20
509.935448
 30
0.0
 10
153.852951
 20
509.842005
 30
0.0
 10
153.802842
 20
509.755278
 30
0.0
  0
SPLINE
  5
152
100
AcDbEntity
  8
Livello_1
 62
7
100
AcDbSpline
 70
8
 71
3
 72
8
 73
4
 74
0
 40
0
 40
0
 40
0
 40
0
 40
1
 40
1
 40
1
 40
1
 10
153.802842
 20
509.755278
 30
0.0
 10
153.802721
 20
509.755052
 30
0.0
 10
153.802413
 20
509.754939
 30
0.0
 10
153.802292
 20
509.754713
 30
0.0
  0
SPLINE
  5
153
100
AcDbEntity
  8
Livello_1
 62
7
100
AcDbSpline
 70
8
 71
3
 72
8
 73
4
 74
0
 40
0
 40
0
 40
0
 40
0
 40
1
 40
1
 40
1
 40
1
 10
153.802292
 20
509.754713
 30
0.0
 10
153.744532
 20
509.654891
 30
0.0
 10
153.674414
 20
509.562351
 30
0.0
 10
153.591728
 20
509.479660
 30
0.0
  0
SPLINE
  5
154
100
AcDbEntity
  8
Livello_1
 62
7
100
AcDbSpline
 70
8
 71
3
 72
8
 73
4
 74
0
 40
0
 40
0
 40
0
 40
0
 40
1
 40
1
 40
1
 40
1
 10
153.591728
 20
509.479660
 30
0.0
 10
153.550298
 20
509.438229
 30
0.0
 10
153.506466
 20
509.400101
 30
0.0
 10
153.460537
 20
509.365021
 30
0.0
  0
SPLINE
  5
155
100
AcDbEntity
  8
Livello_1
 62
7
100
AcDbSpline
 70
8
 71
3
 72
8
 73
4
 74
0
 40
0
 40
0
 40
0
 40
0
 40
1
 40
1
 40
1
 40
1
 10
153.460537
 20
509.365021
 30
0.0
 10
153.368770
 20
509.294973
 30
0.0
 10
153.268212
 20
509.237315
 30
0.0
 10
153.160676
 20
509.191398
 30
0.0
  0
SPLINE
  5
156
100
AcDbEntity
  8
Livello_1
 62
7
100
AcDbSpline
 70
8
 71
3
 72
8
 73
4
 74
0
 40
0
 40
0
 40
0
 40
0
 40
1
 40
1
 40
1
 40
1
 10
153.160676
 20
509.191398
 30
0.0
 10
152.891552
 20
509.076420
 30
0.0
 10
152.577588
 20
509.034200
 30
0.0
 10
152.241800
 20
509.052488
 30
0.0
  0
SPLINE
  5
157
100
AcDbEntity
  8
Livello_1
 62
7
100
AcDbSpline
 70
8
 71
3
 72
8
 73
4
 74
0
 40
0
 40
0
 40
0
 40
0
 40
1
 40
1
 40
1
 40
1
 10
152.241800
 20
509.052488
 30
0.0
 10
151.973173
 20
509.067079
 30
0.0
 10
151.686565
 20
509.118556
 30
0.0
 10
151.384660
 20
509.203505
 30
0.0
  0
SPLINE
  5
158
100
AcDbEntity
  8
Livello_1
 62
7
100
AcDbSpline
 70
8
 71
3
 72
8
 73
4
 74
0
 40
0
 40
0
 40
0
 40
0
 40
1
 40
1
 40
1
 40
1
 10
151.384660
 20
509.203505
 30
0.0
 10
151.082750
 20
509.288398
 30
0.0
 10
150.765555
 20
509.406903
 30
0.0
 10
150.436021
 20
509.555182
 30
0.0
  0
SPLINE
  5
159
100
AcDbEntity
  8
Livello_1
 62
7
100
AcDbSpline
 70
8
 71
3
 72
8
 73
4
 74
0
 40
0
 40
0
 40
0
 40
0
 40
1
 40
1
 40
1
 40
1
 10
150.436021
 20
509.555182
 30
0.0
 10
150.120116
 20
509.697366
 30
0.0
 10
149.792955
 20
509.867376
 30
0.0
 10
149.458164
 20
510.063972
 30
0.0
  0
SPLINE
  5
15a
100
AcDbEntity
  8
Livello_1
 62
7
100
AcDbSpline
 70
8
 71
3
 72
8
 73
4
 74
0
 40
0
 40
0
 40
0
 40
0
 40
1
 40
1
 40
1
 40
1
 10
149.458164
 20
510.063972
 30
0.0
 10
149.290964
 20
510.162129
 30
0.0
 10
149.122068
 20
510.267144
 30
0.0
 10
148.951597
 20
510.378142
 30
0.0
  0
SPLINE
  5
15b
100
AcDbEntity
  8
Livello_1
 62
7
100
AcDbSpline
 70
8
 71
3
 72
8
 73
4
 74
0
 40
0
 40
0
 40
0
 40
0
 40
1
 40
1
 40
1
 40
1
 10
148.951597
 20
510.378142
 30
0.0
 10
148.951473
 20
510.378227
 30
0.0
 10
148.951171
 20
510.378058
 30
0.0
 10
148.951047
 20
510.378142
 30
0.0
  0
SPLINE
  5
15c
100
AcDbEntity
  8
Livello_1
 62
7
100
AcDbSpline
 70
8
 71
3
 72
8
 73
4
 74
0
 40
0
 40
0
 40
0
 40
0
 40
1
 40
1
 40
1
 40
1
 10
148.951047
 20
510.378142
 30
0.0
 10
148.780441
 20
510.489281
 30
0.0
 10
148.608579
 20
510.606883
 30
0.0
 10
148.435658
 20
510.730384
 30
0.0
  0
SPLINE
  5
15d
100
AcDbEntity
  8
Livello_1
 62
7
100
AcDbSpline
 70
8
 71
3
 72
8
 73
4
 74
0
 40
0
 40
0
 40
0
 40
0
 40
1
 40
1
 40
1
 40
1
 10
148.435658
 20
510.730384
 30
0.0
 10
147.744013
 20
511.224386
 30
0.0
 10
147.037778
 20
511.815444
 30
0.0
 10
146.347657
 20
512.488205
 30
0.0
  0
LWPOLYLINE
  5
15e
100
AcDbEntity
  8
Livello_1
 62
7
100
AcDbPolyline
 90
2
 70
0
 10
212.822564
 20
578.962573
 30
0.0
 10
150.583194
 20
516.723740
 30
0.0
  0
SPLINE
  5
15f
100
AcDbEntity
  8
Livello_1
 62
7
100
AcDbSpline
 70
8
 71
3
 72
8
 73
4
 74
0
 40
0
 40
0
 40
0
 40
0
 40
1
 40
1
 40
1
 40
1
 10
135.387292
 20
523.448559
 30
0.0
 10
135.218994
 20
523.621194
 30
0.0
 10
135.056211
 20
523.794733
 30
0.0
 10
134.898364
 20
523.968920
 30
0.0
  0
SPLINE
  5
160
100
AcDbEntity
  8
Livello_1
 62
7
100
AcDbSpline
 70
8
 71
3
 72
8
 73
4
 74
0
 40
0
 40
0
 40
0
 40
0
 40
1
 40
1
 40
1
 40
1
 10
134.898364
 20
523.968920
 30
0.0
 10
134.740613
 20
524.142995
 30
0.0
 10
134.588222
 20
524.317380
 30
0.0
 10
134.441407
 20
524.492019
 30
0.0
  0
SPLINE
  5
161
100
AcDbEntity
  8
Livello_1
 62
7
100
AcDbSpline
 70
8
 71
3
 72
8
 73
4
 74
0
 40
0
 40
0
 40
0
 40
0
 40
1
 40
1
 40
1
 40
1
 10
134.441407
 20
524.492019
 30
0.0
 10
134.001008
 20
525.015880
 30
0.0
 10
133.610601
 20
525.540221
 30
0.0
 10
133.277240
 20
526.051946
 30
0.0
  0
SPLINE
  5
162
100
AcDbEntity
  8
Livello_1
 62
7
100
AcDbSpline
 70
8
 71
3
 72
8
 73
4
 74
0
 40
0
 40
0
 40
0
 40
0
 40
1
 40
1
 40
1
 40
1
 10
133.277240
 20
526.051946
 30
0.0
 10
133.277153
 20
526.052087
 30
0.0
 10
133.277328
 20
526.052369
 30
0.0
 10
133.277240
 20
526.052510
 30
0.0
  0
SPLINE
  5
163
100
AcDbEntity
  8
Livello_1
 62
7
100
AcDbSpline
 70
8
 71
3
 72
8
 73
4
 74
0
 40
0
 40
0
 40
0
 40
0
 40
1
 40
1
 40
1
 40
1
 10
133.277240
 20
526.052510
 30
0.0
 10
133.166189
 20
526.223001
 30
0.0
 10
133.061244
 20
526.391854
 30
0.0
 10
132.963048
 20
526.559071
 30
0.0
  0
SPLINE
  5
164
100
AcDbEntity
  8
Livello_1
 62
7
100
AcDbSpline
 70
8
 71
3
 72
8
 73
4
 74
0
 40
0
 40
0
 40
0
 40
0
 40
1
 40
1
 40
1
 40
1
 10
132.963048
 20
526.559071
 30
0.0
 10
132.962963
 20
526.559212
 30
0.0
 10
132.963130
 20
526.559494
 30
0.0
 10
132.963048
 20
526.559636
 30
0.0
  0
SPLINE
  5
165
100
AcDbEntity
  8
Livello_1
 62
7
100
AcDbSpline
 70
8
 71
3
 72
8
 73
4
 74
0
 40
0
 40
0
 40
0
 40
0
 40
1
 40
1
 40
1
 40
1
 10
132.963048
 20
526.559636
 30
0.0
 10
132.928052
 20
526.619213
 30
0.0
 10
132.898253
 20
526.676927
 30
0.0
 10
132.864931
 20
526.736024
 30
0.0
  0
SPLINE
  5
166
100
AcDbEntity
  8
Livello_1
 62
7
100
AcDbSpline
 70
8
 71
3
 72
8
 73
4
 74
0
 40
0
 40
0
 40
0
 40
0
 40
1
 40
1
 40
1
 40
1
 10
132.864931
 20
526.736024
 30
0.0
 10
132.711125
 20
527.008792
 30
0.0
 10
132.571086
 20
527.277383
 30
0.0
 10
132.454275
 20
527.536943
 30
0.0
  0
SPLINE
  5
167
100
AcDbEntity
  8
Livello_1
 62
7
100
AcDbSpline
 70
8
 71
3
 72
8
 73
4
 74
0
 40
0
 40
0
 40
0
 40
0
 40
1
 40
1
 40
1
 40
1
 10
132.454275
 20
527.536943
 30
0.0
 10
132.380138
 20
527.701704
 30
0.0
 10
132.313415
 20
527.863276
 30
0.0
 10
132.254735
 20
528.021462
 30
0.0
  0
SPLINE
  5
168
100
AcDbEntity
  8
Livello_1
 62
7
100
AcDbSpline
 70
8
 71
3
 72
8
 73
4
 74
0
 40
0
 40
0
 40
0
 40
0
 40
1
 40
1
 40
1
 40
1
 10
132.254735
 20
528.021462
 30
0.0
 10
132.137373
 20
528.337805
 30
0.0
 10
132.051704
 20
528.640629
 30
0.0
 10
132.001175
 20
528.926549
 30
0.0
  0
SPLINE
  5
169
100
AcDbEntity
  8
Livello_1
 62
7
100
AcDbSpline
 70
8
 71
3
 72
8
 73
4
 74
0
 40
0
 40
0
 40
0
 40
0
 40
1
 40
1
 40
1
 40
1
 10
132.001175
 20
528.926549
 30
0.0
 10
131.975914
 20
529.069494
 30
0.0
 10
131.959423
 20
529.208404
 30
0.0
 10
131.952119
 20
529.342714
 30
0.0
  0
SPLINE
  5
16a
100
AcDbEntity
  8
Livello_1
 62
7
100
AcDbSpline
 70
8
 71
3
 72
8
 73
4
 74
0
 40
0
 40
0
 40
0
 40
0
 40
1
 40
1
 40
1
 40
1
 10
131.952119
 20
529.342714
 30
0.0
 10
131.933823
 20
529.678699
 30
0.0
 10
131.975476
 20
529.992728
 30
0.0
 10
132.090473
 20
530.262137
 30
0.0
  0
SPLINE
  5
16b
100
AcDbEntity
  8
Livello_1
 62
7
100
AcDbSpline
 70
8
 71
3
 72
8
 73
4
 74
0
 40
0
 40
0
 40
0
 40
0
 40
1
 40
1
 40
1
 40
1
 10
132.090473
 20
530.262137
 30
0.0
 10
132.113370
 20
530.315844
 30
0.0
 10
132.139382
 20
530.367632
 30
0.0
 10
132.168194
 20
530.417585
 30
0.0
  0
SPLINE
  5
16c
100
AcDbEntity
  8
Livello_1
 62
7
100
AcDbSpline
 70
8
 71
3
 72
8
 73
4
 74
0
 40
0
 40
0
 40
0
 40
0
 40
1
 40
1
 40
1
 40
1
 10
132.168194
 20
530.417585
 30
0.0
 10
132.168271
 20
530.417726
 30
0.0
 10
132.168118
 20
530.418008
 30
0.0
 10
132.168194
 20
530.418121
 30
0.0
  0
SPLINE
  5
16d
100
AcDbEntity
  8
Livello_1
 62
7
100
AcDbSpline
 70
8
 71
3
 72
8
 73
4
 74
0
 40
0
 40
0
 40
0
 40
0
 40
1
 40
1
 40
1
 40
1
 10
132.168194
 20
530.418121
 30
0.0
 10
132.197105
 20
530.468216
 30
0.0
 10
132.229039
 20
530.516052
 30
0.0
 10
132.264105
 20
530.561998
 30
0.0
  0
SPLINE
  5
16e
100
AcDbEntity
  8
Livello_1
 62
7
100
AcDbSpline
 70
8
 71
3
 72
8
 73
4
 74
0
 40
0
 40
0
 40
0
 40
0
 40
1
 40
1
 40
1
 40
1
 10
132.264105
 20
530.561998
 30
0.0
 10
132.299177
 20
530.607944
 30
0.0
 10
132.337325
 20
530.651773
 30
0.0
 10
132.378758
 20
530.693203
 30
0.0
  0
SPLINE
  5
16f
100
AcDbEntity
  8
Livello_1
 62
7
100
AcDbSpline
 70
8
 71
3
 72
8
 73
4
 74
0
 40
0
 40
0
 40
0
 40
0
 40
1
 40
1
 40
1
 40
1
 10
132.378758
 20
530.693203
 30
0.0
 10
132.461505
 20
530.775951
 30
0.0
 10
132.553829
 20
530.845998
 30
0.0
 10
132.653814
 20
530.903741
 30
0.0
  0
SPLINE
  5
170
100
AcDbEntity
  8
Livello_1
 62
7
100
AcDbSpline
 70
8
 71
3
 72
8
 73
4
 74
0
 40
0
 40
0
 40
0
 40
0
 40
1
 40
1
 40
1
 40
1
 10
132.653814
 20
530.903741
 30
0.0
 10
132.703900
 20
530.932641
 30
0.0
 10
132.755953
 20
530.958549
 30
0.0
 10
132.809810
 20
530.981465
 30
0.0
  0
SPLINE
  5
171
100
AcDbEntity
  8
Livello_1
 62
7
100
AcDbSpline
 70
8
 71
3
 72
8
 73
4
 74
0
 40
0
 40
0
 40
0
 40
0
 40
1
 40
1
 40
1
 40
1
 10
132.809810
 20
530.981465
 30
0.0
 10
133.078999
 20
531.096217
 30
0.0
 10
133.393437
 20
531.137562
 30
0.0
 10
133.729236
 20
531.119274
 30
0.0
  0
SPLINE
  5
172
100
AcDbEntity
  8
Livello_1
 62
7
100
AcDbSpline
 70
8
 71
3
 72
8
 73
4
 74
0
 40
0
 40
0
 40
0
 40
0
 40
1
 40
1
 40
1
 40
1
 10
133.729236
 20
531.119274
 30
0.0
 10
133.863551
 20
531.111965
 30
0.0
 10
134.001902
 20
531.095483
 30
0.0
 10
134.144853
 20
531.070224
 30
0.0
  0
SPLINE
  5
173
100
AcDbEntity
  8
Livello_1
 62
7
100
AcDbSpline
 70
8
 71
3
 72
8
 73
4
 74
0
 40
0
 40
0
 40
0
 40
0
 40
1
 40
1
 40
1
 40
1
 10
134.144853
 20
531.070224
 30
0.0
 10
134.145040
 20
531.070196
 30
0.0
 10
134.145218
 20
531.070252
 30
0.0
 10
134.145404
 20
531.070224
 30
0.0
  0
SPLINE
  5
174
100
AcDbEntity
  8
Livello_1
 62
7
100
AcDbSpline
 70
8
 71
3
 72
8
 73
4
 74
0
 40
0
 40
0
 40
0
 40
0
 40
1
 40
1
 40
1
 40
1
 10
134.145404
 20
531.070224
 30
0.0
 10
134.288194
 20
531.044965
 30
0.0
 10
134.435099
 20
531.011127
 30
0.0
 10
134.585826
 20
530.968793
 30
0.0
  0
SPLINE
  5
175
100
AcDbEntity
  8
Livello_1
 62
7
100
AcDbSpline
 70
8
 71
3
 72
8
 73
4
 74
0
 40
0
 40
0
 40
0
 40
0
 40
1
 40
1
 40
1
 40
1
 10
134.585826
 20
530.968793
 30
0.0
 10
134.586004
 20
530.968737
 30
0.0
 10
134.586195
 20
530.968850
 30
0.0
 10
134.586376
 20
530.968793
 30
0.0
  0
SPLINE
  5
176
100
AcDbEntity
  8
Livello_1
 62
7
100
AcDbSpline
 70
8
 71
3
 72
8
 73
4
 74
0
 40
0
 40
0
 40
0
 40
0
 40
1
 40
1
 40
1
 40
1
 10
134.586376
 20
530.968793
 30
0.0
 10
134.888145
 20
530.884127
 30
0.0
 10
135.204939
 20
530.765960
 30
0.0
 10
135.534465
 20
530.617681
 30
0.0
  0
SPLINE
  5
177
100
AcDbEntity
  8
Livello_1
 62
7
100
AcDbSpline
 70
8
 71
3
 72
8
 73
4
 74
0
 40
0
 40
0
 40
0
 40
0
 40
1
 40
1
 40
1
 40
1
 10
135.534465
 20
530.617681
 30
0.0
 10
135.692363
 20
530.546617
 30
0.0
 10
135.853125
 20
530.468300
 30
0.0
 10
136.016230
 20
530.383408
 30
0.0
  0
SPLINE
  5
178
100
AcDbEntity
  8
Livello_1
 62
7
100
AcDbSpline
 70
8
 71
3
 72
8
 73
4
 74
0
 40
0
 40
0
 40
0
 40
0
 40
1
 40
1
 40
1
 40
1
 10
136.016230
 20
530.383408
 30
0.0
 10
136.831668
 20
529.958918
 30
0.0
 10
137.706108
 20
529.364078
 30
0.0
 10
138.579380
 20
528.629990
 30
0.0
  0
SPLINE
  5
179
100
AcDbEntity
  8
Livello_1
 62
7
100
AcDbSpline
 70
8
 71
3
 72
8
 73
4
 74
0
 40
0
 40
0
 40
0
 40
0
 40
1
 40
1
 40
1
 40
1
 10
138.579380
 20
528.629990
 30
0.0
 10
138.579490
 20
528.629905
 30
0.0
 10
138.579820
 20
528.630074
 30
0.0
 10
138.579931
 20
528.629990
 30
0.0
  0
SPLINE
  5
17a
100
AcDbEntity
  8
Livello_1
 62
7
100
AcDbSpline
 70
8
 71
3
 72
8
 73
4
 74
0
 40
0
 40
0
 40
0
 40
0
 40
1
 40
1
 40
1
 40
1
 10
138.579931
 20
528.629990
 30
0.0
 10
138.929155
 20
528.336394
 30
0.0
 10
139.278414
 20
528.020390
 30
0.0
 10
139.623382
 20
527.684094
 30
0.0
  0
LWPOLYLINE
  5
17b
100
AcDbEntity
  8
Livello_1
 62
7
100
AcDbPolyline
 90
6
 70
0
 10
146.347657
 20
512.488205
 30
0.0
 10
146.344349
 20
512.484338
 30
0.0
 10
146.167410
 20
512.661292
 30
0.0
 10
135.560373
 20
523.268332
 30
0.0
 10
135.383984
 20
523.444721
 30
0.0
 10
135.387292
 20
523.448559
 30
0.0
  0
SPLINE
  5
17c
100
AcDbEntity
  8
Livello_1
 62
7
100
AcDbSpline
 70
8
 71
3
 72
8
 73
4
 74
0
 40
0
 40
0
 40
0
 40
0
 40
1
 40
1
 40
1
 40
1
 10
201.674786
 20
590.091047
 30
0.0
 10
201.316387
 20
590.449441
 30
0.0
 10
200.979811
 20
590.813056
 30
0.0
 10
200.667716
 20
591.177490
 30
0.0
  0
SPLINE
  5
17d
100
AcDbEntity
  8
Livello_1
 62
7
100
AcDbSpline
 70
8
 71
3
 72
8
 73
4
 74
0
 40
0
 40
0
 40
0
 40
0
 40
1
 40
1
 40
1
 40
1
 10
200.667716
 20
591.177490
 30
0.0
 10
200.355623
 20
591.541923
 30
0.0
 10
200.067805
 20
591.907288
 30
0.0
 10
199.806168
 20
592.268899
 30
0.0
  0
SPLINE
  5
17e
100
AcDbEntity
  8
Livello_1
 62
7
100
AcDbSpline
 70
8
 71
3
 72
8
 73
4
 74
0
 40
0
 40
0
 40
0
 40
0
 40
1
 40
1
 40
1
 40
1
 10
199.806168
 20
592.268899
 30
0.0
 10
199.413817
 20
592.811161
 30
0.0
 10
199.080097
 20
593.345267
 30
0.0
 10
198.812878
 20
593.856399
 30
0.0
  0
SPLINE
  5
17f
100
AcDbEntity
  8
Livello_1
 62
7
100
AcDbSpline
 70
8
 71
3
 72
8
 73
4
 74
0
 40
0
 40
0
 40
0
 40
0
 40
1
 40
1
 40
1
 40
1
 10
198.812878
 20
593.856399
 30
0.0
 10
198.812799
 20
593.856540
 30
0.0
 10
198.812957
 20
593.856794
 30
0.0
 10
198.812878
 20
593.856936
 30
0.0
  0
SPLINE
  5
180
100
AcDbEntity
  8
Livello_1
 62
7
100
AcDbSpline
 70
8
 71
3
 72
8
 73
4
 74
0
 40
0
 40
0
 40
0
 40
0
 40
1
 40
1
 40
1
 40
1
 10
198.812878
 20
593.856936
 30
0.0
 10
198.723792
 20
594.027370
 30
0.0
 10
198.642275
 20
594.194897
 30
0.0
 10
198.568138
 20
594.359658
 30
0.0
  0
SPLINE
  5
181
100
AcDbEntity
  8
Livello_1
 62
7
100
AcDbSpline
 70
8
 71
3
 72
8
 73
4
 74
0
 40
0
 40
0
 40
0
 40
0
 40
1
 40
1
 40
1
 40
1
 10
198.568138
 20
594.359658
 30
0.0
 10
198.271567
 20
595.018703
 30
0.0
 10
198.095195
 20
595.628162
 30
0.0
 10
198.065980
 20
596.165429
 30
0.0
  0
SPLINE
  5
182
100
AcDbEntity
  8
Livello_1
 62
7
100
AcDbSpline
 70
8
 71
3
 72
8
 73
4
 74
0
 40
0
 40
0
 40
0
 40
0
 40
1
 40
1
 40
1
 40
1
 10
198.065980
 20
596.165429
 30
0.0
 10
198.058673
 20
596.299766
 30
0.0
 10
198.060968
 20
596.430351
 30
0.0
 10
198.073699
 20
596.556250
 30
0.0
  0
SPLINE
  5
183
100
AcDbEntity
  8
Livello_1
 62
7
100
AcDbSpline
 70
8
 71
3
 72
8
 73
4
 74
0
 40
0
 40
0
 40
0
 40
0
 40
1
 40
1
 40
1
 40
1
 10
198.073699
 20
596.556250
 30
0.0
 10
198.092833
 20
596.745282
 30
0.0
 10
198.135313
 20
596.923167
 30
0.0
 10
198.204336
 20
597.084852
 30
0.0
  0
SPLINE
  5
184
100
AcDbEntity
  8
Livello_1
 62
7
100
AcDbSpline
 70
8
 71
3
 72
8
 73
4
 74
0
 40
0
 40
0
 40
0
 40
0
 40
1
 40
1
 40
1
 40
1
 10
198.204336
 20
597.084852
 30
0.0
 10
198.227230
 20
597.138559
 30
0.0
 10
198.253246
 20
597.190347
 30
0.0
 10
198.282058
 20
597.240300
 30
0.0
  0
SPLINE
  5
185
100
AcDbEntity
  8
Livello_1
 62
7
100
AcDbSpline
 70
8
 71
3
 72
8
 73
4
 74
0
 40
0
 40
0
 40
0
 40
0
 40
1
 40
1
 40
1
 40
1
 10
198.282058
 20
597.240300
 30
0.0
 10
198.282134
 20
597.240441
 30
0.0
 10
198.281981
 20
597.240724
 30
0.0
 10
198.282058
 20
597.240865
 30
0.0
  0
SPLINE
  5
186
100
AcDbEntity
  8
Livello_1
 62
7
100
AcDbSpline
 70
8
 71
3
 72
8
 73
4
 74
0
 40
0
 40
0
 40
0
 40
0
 40
1
 40
1
 40
1
 40
1
 10
198.282058
 20
597.240865
 30
0.0
 10
198.310966
 20
597.290931
 30
0.0
 10
198.342902
 20
597.338796
 30
0.0
 10
198.377968
 20
597.384713
 30
0.0
  0
SPLINE
  5
187
100
AcDbEntity
  8
Livello_1
 62
7
100
AcDbSpline
 70
8
 71
3
 72
8
 73
4
 74
0
 40
0
 40
0
 40
0
 40
0
 40
1
 40
1
 40
1
 40
1
 10
198.377968
 20
597.384713
 30
0.0
 10
198.413040
 20
597.430659
 30
0.0
 10
198.451188
 20
597.474488
 30
0.0
 10
198.492621
 20
597.515918
 30
0.0
  0
SPLINE
  5
188
100
AcDbEntity
  8
Livello_1
 62
7
100
AcDbSpline
 70
8
 71
3
 72
8
 73
4
 74
0
 40
0
 40
0
 40
0
 40
0
 40
1
 40
1
 40
1
 40
1
 10
198.492621
 20
597.515918
 30
0.0
 10
198.531802
 20
597.555091
 30
0.0
 10
198.573430
 20
597.591018
 30
0.0
 10
198.616646
 20
597.624518
 30
0.0
  0
SPLINE
  5
189
100
AcDbEntity
  8
Livello_1
 62
7
100
AcDbSpline
 70
8
 71
3
 72
8
 73
4
 74
0
 40
0
 40
0
 40
0
 40
0
 40
1
 40
1
 40
1
 40
1
 10
198.616646
 20
597.624518
 30
0.0
 10
198.629383
 20
597.634367
 30
0.0
 10
198.643260
 20
597.642693
 30
0.0
 10
198.656332
 20
597.652062
 30
0.0
  0
SPLINE
  5
18a
100
AcDbEntity
  8
Livello_1
 62
7
100
AcDbSpline
 70
8
 71
3
 72
8
 73
4
 74
0
 40
0
 40
0
 40
0
 40
0
 40
1
 40
1
 40
1
 40
1
 10
198.656332
 20
597.652062
 30
0.0
 10
198.688300
 20
597.675007
 30
0.0
 10
198.720572
 20
597.697585
 30
0.0
 10
198.754450
 20
597.717651
 30
0.0
  0
SPLINE
  5
18b
100
AcDbEntity
  8
Livello_1
 62
7
100
AcDbSpline
 70
8
 71
3
 72
8
 73
4
 74
0
 40
0
 40
0
 40
0
 40
0
 40
1
 40
1
 40
1
 40
1
 10
198.754450
 20
597.717651
 30
0.0
 10
198.770034
 20
597.726908
 30
0.0
 10
198.786434
 20
597.734923
 30
0.0
 10
198.802405
 20
597.743559
 30
0.0
  0
SPLINE
  5
18c
100
AcDbEntity
  8
Livello_1
 62
7
100
AcDbSpline
 70
8
 71
3
 72
8
 73
4
 74
0
 40
0
 40
0
 40
0
 40
0
 40
1
 40
1
 40
1
 40
1
 10
198.802405
 20
597.743559
 30
0.0
 10
198.834290
 20
597.760831
 30
0.0
 10
198.866613
 20
597.777143
 30
0.0
 10
198.899969
 20
597.792073
 30
0.0
  0
SPLINE
  5
18d
100
AcDbEntity
  8
Livello_1
 62
7
100
AcDbSpline
 70
8
 71
3
 72
8
 73
4
 74
0
 40
0
 40
0
 40
0
 40
0
 40
1
 40
1
 40
1
 40
1
 10
198.899969
 20
597.792073
 30
0.0
 10
198.919756
 20
597.800935
 30
0.0
 10
198.939774
 20
597.809373
 30
0.0
 10
198.960051
 20
597.817416
 30
0.0
  0
SPLINE
  5
18e
100
AcDbEntity
  8
Livello_1
 62
7
100
AcDbSpline
 70
8
 71
3
 72
8
 73
4
 74
0
 40
0
 40
0
 40
0
 40
0
 40
1
 40
1
 40
1
 40
1
 10
198.960051
 20
597.817416
 30
0.0
 10
198.990898
 20
597.829665
 30
0.0
 10
199.022380
 20
597.840643
 30
0.0
 10
199.054311
 20
597.851057
 30
0.0
  0
SPLINE
  5
18f
100
AcDbEntity
  8
Livello_1
 62
7
100
AcDbSpline
 70
8
 71
3
 72
8
 73
4
 74
0
 40
0
 40
0
 40
0
 40
0
 40
1
 40
1
 40
1
 40
1
 10
199.054311
 20
597.851057
 30
0.0
 10
199.076039
 20
597.858141
 30
0.0
 10
199.097700
 20
597.865197
 30
0.0
 10
199.119905
 20
597.871462
 30
0.0
  0
SPLINE
  5
190
100
AcDbEntity
  8
Livello_1
 62
7
100
AcDbSpline
 70
8
 71
3
 72
8
 73
4
 74
0
 40
0
 40
0
 40
0
 40
0
 40
1
 40
1
 40
1
 40
1
 10
199.119905
 20
597.871462
 30
0.0
 10
199.155135
 20
597.881368
 30
0.0
 10
199.191028
 20
597.890060
 30
0.0
 10
199.227392
 20
597.897906
 30
0.0
  0
SPLINE
  5
191
100
AcDbEntity
  8
Livello_1
 62
7
100
AcDbSpline
 70
8
 71
3
 72
8
 73
4
 74
0
 40
0
 40
0
 40
0
 40
0
 40
1
 40
1
 40
1
 40
1
 10
199.227392
 20
597.897906
 30
0.0
 10
199.247165
 20
597.902196
 30
0.0
 10
199.266835
 20
597.906345
 30
0.0
 10
199.286924
 20
597.910042
 30
0.0
  0
SPLINE
  5
192
100
AcDbEntity
  8
Livello_1
 62
7
100
AcDbSpline
 70
8
 71
3
 72
8
 73
4
 74
0
 40
0
 40
0
 40
0
 40
0
 40
1
 40
1
 40
1
 40
1
 10
199.286924
 20
597.910042
 30
0.0
 10
199.305378
 20
597.913400
 30
0.0
 10
199.324437
 20
597.915432
 30
0.0
 10
199.343145
 20
597.918311
 30
0.0
  0
SPLINE
  5
193
100
AcDbEntity
  8
Livello_1
 62
7
100
AcDbSpline
 70
8
 71
3
 72
8
 73
4
 74
0
 40
0
 40
0
 40
0
 40
0
 40
1
 40
1
 40
1
 40
1
 10
199.343145
 20
597.918311
 30
0.0
 10
199.440746
 20
597.933353
 30
0.0
 10
199.540436
 20
597.943880
 30
0.0
 10
199.644110
 20
597.945856
 30
0.0
  0
LWPOLYLINE
  5
194
100
AcDbEntity
  8
Livello_1
 62
7
100
AcDbPolyline
 90
4
 70
0
 10
139.623382
 20
527.684094
 30
0.0
 10
201.851728
 20
589.912993
 30
0.0
 10
201.676440
 20
590.088281
 30
0.0
 10
201.674786
 20
590.091047
 30
0.0
  0
SPLINE
  5
195
100
AcDbEntity
  8
Livello_1
 62
7
100
AcDbSpline
 70
8
 71
3
 72
8
 73
4
 74
0
 40
0
 40
0
 40
0
 40
0
 40
1
 40
1
 40
1
 40
1
 10
-166.110928
 20
597.592542
 30
0.0
 10
-165.654389
 20
597.583765
 30
0.0
 10
-165.250010
 20
597.452108
 30
0.0
 10
-164.959992
 20
597.162040
 30
0.0
  0
SPLINE
  5
196
100
AcDbEntity
  8
Livello_1
 62
7
100
AcDbSpline
 70
8
 71
3
 72
8
 73
4
 74
0
 40
0
 40
0
 40
0
 40
0
 40
1
 40
1
 40
1
 40
1
 10
-164.959992
 20
597.162040
 30
0.0
 10
-164.628520
 20
596.830626
 30
0.0
 10
-164.503563
 20
596.349409
 30
0.0
 10
-164.532798
 20
595.812115
 30
0.0
  0
SPLINE
  5
197
100
AcDbEntity
  8
Livello_1
 62
7
100
AcDbSpline
 70
8
 71
3
 72
8
 73
4
 74
0
 40
0
 40
0
 40
0
 40
0
 40
1
 40
1
 40
1
 40
1
 10
-164.532798
 20
595.812115
 30
0.0
 10
-164.562014
 20
595.274876
 30
0.0
 10
-164.738939
 20
594.665361
 30
0.0
 10
-165.035507
 20
594.006316
 30
0.0
  0
SPLINE
  5
198
100
AcDbEntity
  8
Livello_1
 62
7
100
AcDbSpline
 70
8
 71
3
 72
8
 73
4
 74
0
 40
0
 40
0
 40
0
 40
0
 40
1
 40
1
 40
1
 40
1
 10
-165.035507
 20
594.006316
 30
0.0
 10
-165.554547
 20
592.852874
 30
0.0
 10
-166.445802
 20
591.546918
 30
0.0
 10
-167.621258
 20
590.277906
 30
0.0
  0
LWPOLYLINE
  5
199
100
AcDbEntity
  8
Livello_1
 62
7
100
AcDbPolyline
 90
2
 70
0
 10
199.644110
 20
597.945856
 30
0.0
 10
199.644110
 20
597.945856
 30
0.0
  0
SPLINE
  5
19a
100
AcDbEntity
  8
Livello_1
 62
7
100
AcDbSpline
 70
8
 71
3
 72
8
 73
4
 74
0
 40
0
 40
0
 40
0
 40
0
 40
1
 40
1
 40
1
 40
1
 10
-105.382438
 20
528.039101
 30
0.0
 10
-104.002211
 20
529.384680
 30
0.0
 10
-102.557241
 20
530.403643
 30
0.0
 10
-101.294077
 20
530.972095
 30
0.0
  0
SPLINE
  5
19b
100
AcDbEntity
  8
Livello_1
 62
7
100
AcDbSpline
 70
8
 71
3
 72
8
 73
4
 74
0
 40
0
 40
0
 40
0
 40
0
 40
1
 40
1
 40
1
 40
1
 10
-101.294077
 20
530.972095
 30
0.0
 10
-100.635026
 20
531.268683
 30
0.0
 10
-100.025553
 20
531.445608
 30
0.0
 10
-99.488295
 20
531.474818
 30
0.0
  0
SPLINE
  5
19c
100
AcDbEntity
  8
Livello_1
 62
7
100
AcDbSpline
 70
8
 71
3
 72
8
 73
4
 74
0
 40
0
 40
0
 40
0
 40
0
 40
1
 40
1
 40
1
 40
1
 10
-99.488295
 20
531.474818
 30
0.0
 10
-98.951014
 20
531.504056
 30
0.0
 10
-98.469797
 20
531.379088
 30
0.0
 10
-98.138369
 20
531.047618
 30
0.0
  0
SPLINE
  5
19d
100
AcDbEntity
  8
Livello_1
 62
7
100
AcDbSpline
 70
8
 71
3
 72
8
 73
4
 74
0
 40
0
 40
0
 40
0
 40
0
 40
1
 40
1
 40
1
 40
1
 10
-98.138369
 20
531.047618
 30
0.0
 10
-97.806897
 20
530.716204
 30
0.0
 10
-97.681920
 20
530.234959
 30
0.0
 10
-97.711175
 20
529.697693
 30
0.0
  0
SPLINE
  5
19e
100
AcDbEntity
  8
Livello_1
 62
7
100
AcDbSpline
 70
8
 71
3
 72
8
 73
4
 74
0
 40
0
 40
0
 40
0
 40
0
 40
1
 40
1
 40
1
 40
1
 10
-97.711175
 20
529.697693
 30
0.0
 10
-97.740391
 20
529.160426
 30
0.0
 10
-97.917336
 20
528.550996
 30
0.0
 10
-98.213884
 20
527.891922
 30
0.0
  0
SPLINE
  5
19f
100
AcDbEntity
  8
Livello_1
 62
7
100
AcDbSpline
 70
8
 71
3
 72
8
 73
4
 74
0
 40
0
 40
0
 40
0
 40
0
 40
1
 40
1
 40
1
 40
1
 10
-98.213884
 20
527.891922
 30
0.0
 10
-98.782333
 20
526.628780
 30
0.0
 10
-99.801378
 20
525.183802
 30
0.0
 10
-101.146901
 20
523.803538
 30
0.0
  0
LWPOLYLINE
  5
1a0
100
AcDbEntity
  8
Livello_1
 62
7
100
AcDbPolyline
 90
2
 70
0
 10
-167.621258
 20
590.277906
 30
0.0
 10
-105.382438
 20
528.039101
 30
0.0
  0
SPLINE
  5
1a1
100
AcDbEntity
  8
Livello_1
 62
7
100
AcDbSpline
 70
8
 71
3
 72
8
 73
4
 74
0
 40
0
 40
0
 40
0
 40
0
 40
1
 40
1
 40
1
 40
1
 10
-112.107266
 20
512.843184
 30
0.0
 10
-113.487530
 20
511.497605
 30
0.0
 10
-114.932488
 20
510.478642
 30
0.0
 10
-116.195630
 20
509.910161
 30
0.0
  0
SPLINE
  5
1a2
100
AcDbEntity
  8
Livello_1
 62
7
100
AcDbSpline
 70
8
 71
3
 72
8
 73
4
 74
0
 40
0
 40
0
 40
0
 40
0
 40
1
 40
1
 40
1
 40
1
 10
-116.195630
 20
509.910161
 30
0.0
 10
-116.854701
 20
509.613630
 30
0.0
 10
-117.464149
 20
509.437242
 30
0.0
 10
-118.001409
 20
509.408003
 30
0.0
  0
SPLINE
  5
1a3
100
AcDbEntity
  8
Livello_1
 62
7
100
AcDbSpline
 70
8
 71
3
 72
8
 73
4
 74
0
 40
0
 40
0
 40
0
 40
0
 40
1
 40
1
 40
1
 40
1
 10
-118.001409
 20
509.408003
 30
0.0
 10
-118.538667
 20
509.378765
 30
0.0
 10
-119.020457
 20
509.503197
 30
0.0
 10
-119.351888
 20
509.834639
 30
0.0
  0
SPLINE
  5
1a4
100
AcDbEntity
  8
Livello_1
 62
7
100
AcDbSpline
 70
8
 71
3
 72
8
 73
4
 74
0
 40
0
 40
0
 40
0
 40
0
 40
1
 40
1
 40
1
 40
1
 10
-119.351888
 20
509.834639
 30
0.0
 10
-119.683361
 20
510.166165
 30
0.0
 10
-119.807214
 20
510.647862
 30
0.0
 10
-119.777978
 20
511.185128
 30
0.0
  0
SPLINE
  5
1a5
100
AcDbEntity
  8
Livello_1
 62
7
100
AcDbSpline
 70
8
 71
3
 72
8
 73
4
 74
0
 40
0
 40
0
 40
0
 40
0
 40
1
 40
1
 40
1
 40
1
 10
-119.777978
 20
511.185128
 30
0.0
 10
-119.748763
 20
511.722395
 30
0.0
 10
-119.572388
 20
512.331318
 30
0.0
 10
-119.275820
 20
512.990363
 30
0.0
  0
SPLINE
  5
1a6
100
AcDbEntity
  8
Livello_1
 62
7
100
AcDbSpline
 70
8
 71
3
 72
8
 73
4
 74
0
 40
0
 40
0
 40
0
 40
0
 40
1
 40
1
 40
1
 40
1
 10
-119.275820
 20
512.990363
 30
0.0
 10
-118.707371
 20
514.253533
 30
0.0
 10
-117.688366
 20
515.698426
 30
0.0
 10
-116.342803
 20
517.078719
 30
0.0
  0
LWPOLYLINE
  5
1a7
100
AcDbEntity
  8
Livello_1
 62
7
100
AcDbPolyline
 90
6
 70
0
 10
-101.146901
 20
523.803538
 30
0.0
 10
-101.143043
 20
523.800236
 30
0.0
 10
-101.319982
 20
523.623311
 30
0.0
 10
-111.927019
 20
513.016271
 30
0.0
 10
-112.103408
 20
512.839882
 30
0.0
 10
-112.107266
 20
512.843184
 30
0.0
  0
SPLINE
  5
1a8
100
AcDbEntity
  8
Livello_1
 62
7
100
AcDbSpline
 70
8
 71
3
 72
8
 73
4
 74
0
 40
0
 40
0
 40
0
 40
0
 40
1
 40
1
 40
1
 40
1
 10
-178.748642
 20
579.130128
 30
0.0
 10
-180.182289
 20
577.696524
 30
0.0
 10
-181.699820
 20
576.617137
 30
0.0
 10
-183.017803
 20
576.024019
 30
0.0
  0
SPLINE
  5
1a9
100
AcDbEntity
  8
Livello_1
 62
7
100
AcDbSpline
 70
8
 71
3
 72
8
 73
4
 74
0
 40
0
 40
0
 40
0
 40
0
 40
1
 40
1
 40
1
 40
1
 10
-183.017803
 20
576.024019
 30
0.0
 10
-183.676854
 20
575.727460
 30
0.0
 10
-184.285777
 20
575.551099
 30
0.0
 10
-184.823035
 20
575.521861
 30
0.0
  0
SPLINE
  5
1aa
100
AcDbEntity
  8
Livello_1
 62
7
100
AcDbSpline
 70
8
 71
3
 72
8
 73
4
 74
0
 40
0
 40
0
 40
0
 40
0
 40
1
 40
1
 40
1
 40
1
 10
-184.823035
 20
575.521861
 30
0.0
 10
-185.360313
 20
575.492736
 30
0.0
 10
-185.842077
 20
575.617054
 30
0.0
 10
-186.173511
 20
575.948524
 30
0.0
  0
SPLINE
  5
1ab
100
AcDbEntity
  8
Livello_1
 62
7
100
AcDbSpline
 70
8
 71
3
 72
8
 73
4
 74
0
 40
0
 40
0
 40
0
 40
0
 40
1
 40
1
 40
1
 40
1
 10
-186.173511
 20
575.948524
 30
0.0
 10
-186.505001
 20
576.279966
 30
0.0
 10
-186.629387
 20
576.761720
 30
0.0
 10
-186.600152
 20
577.298986
 30
0.0
  0
SPLINE
  5
1ac
100
AcDbEntity
  8
Livello_1
 62
7
100
AcDbSpline
 70
8
 71
3
 72
8
 73
4
 74
0
 40
0
 40
0
 40
0
 40
0
 40
1
 40
1
 40
1
 40
1
 10
-186.600152
 20
577.298986
 30
0.0
 10
-186.570936
 20
577.836252
 30
0.0
 10
-186.395114
 20
578.445711
 30
0.0
 10
-186.098547
 20
579.104785
 30
0.0
  0
SPLINE
  5
1ad
100
AcDbEntity
  8
Livello_1
 62
7
100
AcDbSpline
 70
8
 71
3
 72
8
 73
4
 74
0
 40
0
 40
0
 40
0
 40
0
 40
1
 40
1
 40
1
 40
1
 10
-186.098547
 20
579.104785
 30
0.0
 10
-185.505431
 20
580.422763
 30
0.0
 10
-184.424952
 20
581.939199
 30
0.0
 10
-182.991345
 20
583.372832
 30
0.0
  0
LWPOLYLINE
  5
1ae
100
AcDbEntity
  8
Livello_1
 62
7
100
AcDbPolyline
 90
4
 70
0
 10
-116.342803
 20
517.078719
 30
0.0
 10
-178.571703
 20
579.307618
 30
0.0
 10
-178.746988
 20
579.132330
 30
0.0
 10
-178.748642
 20
579.130128
 30
0.0
  0
SPLINE
  5
1af
100
AcDbEntity
  8
Livello_1
 62
7
100
AcDbSpline
 70
8
 71
3
 72
8
 73
4
 74
0
 40
0
 40
0
 40
0
 40
0
 40
1
 40
1
 40
1
 40
1
 10
-171.843567
 20
594.500769
 30
0.0
 10
-170.574637
 20
595.676309
 30
0.0
 10
-169.269672
 20
596.568019
 30
0.0
 10
-168.116250
 20
597.087082
 30
0.0
  0
SPLINE
  5
1b0
100
AcDbEntity
  8
Livello_1
 62
7
100
AcDbSpline
 70
8
 71
3
 72
8
 73
4
 74
0
 40
0
 40
0
 40
0
 40
0
 40
1
 40
1
 40
1
 40
1
 10
-168.116250
 20
597.087082
 30
0.0
 10
-167.457199
 20
597.383669
 30
0.0
 10
-166.847179
 20
597.560030
 30
0.0
 10
-166.309918
 20
597.589240
 30
0.0
  0
SPLINE
  5
1b1
100
AcDbEntity
  8
Livello_1
 62
7
100
AcDbSpline
 70
8
 71
3
 72
8
 73
4
 74
0
 40
0
 40
0
 40
0
 40
0
 40
1
 40
1
 40
1
 40
1
 10
-166.309918
 20
597.589240
 30
0.0
 10
-166.242757
 20
597.592880
 30
0.0
 10
-166.176150
 20
597.593784
 30
0.0
 10
-166.110928
 20
597.592542
 30
0.0
  0
LWPOLYLINE
  5
1b2
100
AcDbEntity
  8
Livello_1
 62
7
100
AcDbPolyline
 90
7
 70
0
 10
-182.991345
 20
583.372832
 30
0.0
 10
-182.989141
 20
583.374497
 30
0.0
 10
-182.814956
 20
583.548684
 30
0.0
 10
-172.386515
 20
593.977106
 30
0.0
 10
-172.384311
 20
593.980408
 30
0.0
 10
-171.854041
 20
594.510703
 30
0.0
 10
-171.843567
 20
594.500769
 30
0.0
  0
SPLINE
  5
1b3
100
AcDbEntity
  8
Livello_1
 62
7
100
AcDbSpline
 70
8
 71
3
 72
8
 73
4
 74
0
 40
0
 40
0
 40
0
 40
0
 40
1
 40
1
 40
1
 40
1
 10
-161.056836
 20
409.649072
 30
0.0
 10
-160.588065
 20
409.649100
 30
0.0
 10
-160.159858
 20
409.396469
 30
0.0
 10
-159.800617
 20
408.995882
 30
0.0
  0
SPLINE
  5
1b4
100
AcDbEntity
  8
Livello_1
 62
7
100
AcDbSpline
 70
8
 71
3
 72
8
 73
4
 74
0
 40
0
 40
0
 40
0
 40
0
 40
1
 40
1
 40
1
 40
1
 10
-159.800617
 20
408.995882
 30
0.0
 10
-159.441377
 20
408.595324
 30
0.0
 10
-159.134195
 20
408.040010
 30
0.0
 10
-158.877881
 20
407.364285
 30
0.0
  0
SPLINE
  5
1b5
100
AcDbEntity
  8
Livello_1
 62
7
100
AcDbSpline
 70
8
 71
3
 72
8
 73
4
 74
0
 40
0
 40
0
 40
0
 40
0
 40
1
 40
1
 40
1
 40
1
 10
-158.877881
 20
407.364285
 30
0.0
 10
-158.365340
 20
406.012949
 30
0.0
 10
-158.057150
 20
404.176692
 30
0.0
 10
-158.057122
 20
402.149236
 30
0.0
  0
LWPOLYLINE
  5
1b6
100
AcDbEntity
  8
Livello_1
 62
7
100
AcDbPolyline
 90
2
 70
0
 10
-166.110928
 20
597.592542
 30
0.0
 10
-166.110928
 20
597.592542
 30
0.0
  0
SPLINE
  5
1b7
100
AcDbEntity
  8
Livello_1
 62
7
100
AcDbSpline
 70
8
 71
3
 72
8
 73
4
 74
0
 40
0
 40
0
 40
0
 40
0
 40
1
 40
1
 40
1
 40
1
 10
-158.071453
 20
386.398259
 30
0.0
 10
-158.137493
 20
384.669760
 30
0.0
 10
-158.429325
 20
383.116040
 30
0.0
 10
-158.877881
 20
381.933416
 30
0.0
  0
SPLINE
  5
1b8
100
AcDbEntity
  8
Livello_1
 62
7
100
AcDbSpline
 70
8
 71
3
 72
8
 73
4
 74
0
 40
0
 40
0
 40
0
 40
0
 40
1
 40
1
 40
1
 40
1
 10
-158.877881
 20
381.933416
 30
0.0
 10
-159.134195
 20
381.257691
 30
0.0
 10
-159.441377
 20
380.701826
 30
0.0
 10
-159.800617
 20
380.301268
 30
0.0
  0
SPLINE
  5
1b9
100
AcDbEntity
  8
Livello_1
 62
7
100
AcDbSpline
 70
8
 71
3
 72
8
 73
4
 74
0
 40
0
 40
0
 40
0
 40
0
 40
1
 40
1
 40
1
 40
1
 10
-159.800617
 20
380.301268
 30
0.0
 10
-160.159858
 20
379.900682
 30
0.0
 10
-160.588065
 20
379.648601
 30
0.0
 10
-161.056836
 20
379.648629
 30
0.0
  0
SPLINE
  5
1ba
100
AcDbEntity
  8
Livello_1
 62
7
100
AcDbSpline
 70
8
 71
3
 72
8
 73
4
 74
0
 40
0
 40
0
 40
0
 40
0
 40
1
 40
1
 40
1
 40
1
 10
-161.056836
 20
379.648629
 30
0.0
 10
-161.525579
 20
379.648601
 30
0.0
 10
-161.954365
 20
379.900682
 30
0.0
 10
-162.313606
 20
380.301268
 30
0.0
  0
SPLINE
  5
1bb
100
AcDbEntity
  8
Livello_1
 62
7
100
AcDbSpline
 70
8
 71
3
 72
8
 73
4
 74
0
 40
0
 40
0
 40
0
 40
0
 40
1
 40
1
 40
1
 40
1
 10
-162.313606
 20
380.301268
 30
0.0
 10
-162.672847
 20
380.701826
 30
0.0
 10
-162.978380
 20
381.257691
 30
0.0
 10
-163.234686
 20
381.933416
 30
0.0
  0
SPLINE
  5
1bc
100
AcDbEntity
  8
Livello_1
 62
7
100
AcDbSpline
 70
8
 71
3
 72
8
 73
4
 74
0
 40
0
 40
0
 40
0
 40
0
 40
1
 40
1
 40
1
 40
1
 10
-163.234686
 20
381.933416
 30
0.0
 10
-163.683284
 20
383.116040
 30
0.0
 10
-163.976617
 20
384.669760
 30
0.0
 10
-164.042770
 20
386.398259
 30
0.0
  0
LWPOLYLINE
  5
1bd
100
AcDbEntity
  8
Livello_1
 62
7
100
AcDbPolyline
 90
7
 70
0
 10
-158.057122
 20
402.149236
 30
0.0
 10
-158.056572
 20
402.145928
 30
0.0
 10
-158.056572
 20
401.899534
 30
0.0
 10
-158.056572
 20
387.151219
 30
0.0
 10
-158.056572
 20
387.148465
 30
0.0
 10
-158.056572
 20
386.398259
 30
0.0
 10
-158.071453
 20
386.398259
 30
0.0
  0
SPLINE
  5
1be
100
AcDbEntity
  8
Livello_1
 62
7
100
AcDbSpline
 70
8
 71
3
 72
8
 73
4
 74
0
 40
0
 40
0
 40
0
 40
0
 40
1
 40
1
 40
1
 40
1
 10
-252.061926
 20
386.398259
 30
0.0
 10
-252.086423
 20
384.470822
 30
0.0
 10
-252.387591
 20
382.728611
 30
0.0
 10
-252.878827
 20
381.433465
 30
0.0
  0
SPLINE
  5
1bf
100
AcDbEntity
  8
Livello_1
 62
7
100
AcDbSpline
 70
8
 71
3
 72
8
 73
4
 74
0
 40
0
 40
0
 40
0
 40
0
 40
1
 40
1
 40
1
 40
1
 10
-252.878827
 20
381.433465
 30
0.0
 10
-253.135141
 20
380.757740
 30
0.0
 10
-253.441220
 20
380.201872
 30
0.0
 10
-253.800460
 20
379.801314
 30
0.0
  0
SPLINE
  5
1c0
100
AcDbEntity
  8
Livello_1
 62
7
100
AcDbSpline
 70
8
 71
3
 72
8
 73
4
 74
0
 40
0
 40
0
 40
0
 40
0
 40
1
 40
1
 40
1
 40
1
 10
-253.800460
 20
379.801314
 30
0.0
 10
-254.159701
 20
379.400728
 30
0.0
 10
-254.587937
 20
379.148647
 30
0.0
 10
-255.056680
 20
379.148675
 30
0.0
  0
SPLINE
  5
1c1
100
AcDbEntity
  8
Livello_1
 62
7
100
AcDbSpline
 70
8
 71
3
 72
8
 73
4
 74
0
 40
0
 40
0
 40
0
 40
0
 40
1
 40
1
 40
1
 40
1
 10
-255.056680
 20
379.148675
 30
0.0
 10
-255.525422
 20
379.148647
 30
0.0
 10
-255.954239
 20
379.400728
 30
0.0
 10
-256.313452
 20
379.801314
 30
0.0
  0
SPLINE
  5
1c2
100
AcDbEntity
  8
Livello_1
 62
7
100
AcDbSpline
 70
8
 71
3
 72
8
 73
4
 74
0
 40
0
 40
0
 40
0
 40
0
 40
1
 40
1
 40
1
 40
1
 10
-256.313452
 20
379.801314
 30
0.0
 10
-256.672692
 20
380.201872
 30
0.0
 10
-256.978740
 20
380.757740
 30
0.0
 10
-257.235082
 20
381.433465
 30
0.0
  0
SPLINE
  5
1c3
100
AcDbEntity
  8
Livello_1
 62
7
100
AcDbSpline
 70
8
 71
3
 72
8
 73
4
 74
0
 40
0
 40
0
 40
0
 40
0
 40
1
 40
1
 40
1
 40
1
 10
-257.235082
 20
381.433465
 30
0.0
 10
-257.726290
 20
382.728582
 30
0.0
 10
-258.027430
 20
384.470850
 30
0.0
 10
-258.051983
 20
386.398259
 30
0.0
  0
LWPOLYLINE
  5
1c4
100
AcDbEntity
  8
Livello_1
 62
7
100
AcDbPolyline
 90
2
 70
0
 10
-164.042770
 20
386.398259
 30
0.0
 10
-252.061926
 20
386.398259
 30
0.0
  0
SPLINE
  5
1c5
100
AcDbEntity
  8
Livello_1
 62
7
100
AcDbSpline
 70
8
 71
3
 72
8
 73
4
 74
0
 40
0
 40
0
 40
0
 40
0
 40
1
 40
1
 40
1
 40
1
 10
-258.051983
 20
401.898434
 30
0.0
 10
-258.027458
 20
403.825899
 30
0.0
 10
-257.726290
 20
405.568635
 30
0.0
 10
-257.235082
 20
406.863781
 30
0.0
  0
SPLINE
  5
1c6
100
AcDbEntity
  8
Livello_1
 62
7
100
AcDbSpline
 70
8
 71
3
 72
8
 73
4
 74
0
 40
0
 40
0
 40
0
 40
0
 40
1
 40
1
 40
1
 40
1
 10
-257.235082
 20
406.863781
 30
0.0
 10
-256.978740
 20
407.539506
 30
0.0
 10
-256.672692
 20
408.094820
 30
0.0
 10
-256.313452
 20
408.495378
 30
0.0
  0
SPLINE
  5
1c7
100
AcDbEntity
  8
Livello_1
 62
7
100
AcDbSpline
 70
8
 71
3
 72
8
 73
4
 74
0
 40
0
 40
0
 40
0
 40
0
 40
1
 40
1
 40
1
 40
1
 10
-256.313452
 20
408.495378
 30
0.0
 10
-255.954239
 20
408.895964
 30
0.0
 10
-255.525422
 20
409.148596
 30
0.0
 10
-255.056680
 20
409.148567
 30
0.0
  0
SPLINE
  5
1c8
100
AcDbEntity
  8
Livello_1
 62
7
100
AcDbSpline
 70
8
 71
3
 72
8
 73
4
 74
0
 40
0
 40
0
 40
0
 40
0
 40
1
 40
1
 40
1
 40
1
 10
-255.056680
 20
409.148567
 30
0.0
 10
-254.587937
 20
409.148596
 30
0.0
 10
-254.159701
 20
408.895964
 30
0.0
 10
-253.800460
 20
408.495378
 30
0.0
  0
SPLINE
  5
1c9
100
AcDbEntity
  8
Livello_1
 62
7
100
AcDbSpline
 70
8
 71
3
 72
8
 73
4
 74
0
 40
0
 40
0
 40
0
 40
0
 40
1
 40
1
 40
1
 40
1
 10
-253.800460
 20
408.495378
 30
0.0
 10
-253.441220
 20
408.094820
 30
0.0
 10
-253.135141
 20
407.539506
 30
0.0
 10
-252.878827
 20
406.863781
 30
0.0
  0
SPLINE
  5
1ca
100
AcDbEntity
  8
Livello_1
 62
7
100
AcDbSpline
 70
8
 71
3
 72
8
 73
4
 74
0
 40
0
 40
0
 40
0
 40
0
 40
1
 40
1
 40
1
 40
1
 10
-252.878827
 20
406.863781
 30
0.0
 10
-252.387591
 20
405.568635
 30
0.0
 10
-252.086480
 20
403.825899
 30
0.0
 10
-252.061926
 20
401.898434
 30
0.0
  0
LWPOLYLINE
  5
1cb
100
AcDbEntity
  8
Livello_1
 62
7
100
AcDbPolyline
 90
6
 70
0
 10
-258.051983
 20
386.398259
 30
0.0
 10
-258.056944
 20
386.398259
 30
0.0
 10
-258.056944
 20
386.648511
 30
0.0
 10
-258.056944
 20
401.648732
 30
0.0
 10
-258.056944
 20
401.898434
 30
0.0
 10
-258.051983
 20
401.898434
 30
0.0
  0
SPLINE
  5
1cc
100
AcDbEntity
  8
Livello_1
 62
7
100
AcDbSpline
 70
8
 71
3
 72
8
 73
4
 74
0
 40
0
 40
0
 40
0
 40
0
 40
1
 40
1
 40
1
 40
1
 10
-164.056548
 20
402.149236
 30
0.0
 10
-164.056520
 20
404.176692
 30
0.0
 10
-163.747272
 20
406.012949
 30
0.0
 10
-163.234686
 20
407.364285
 30
0.0
  0
SPLINE
  5
1cd
100
AcDbEntity
  8
Livello_1
 62
7
100
AcDbSpline
 70
8
 71
3
 72
8
 73
4
 74
0
 40
0
 40
0
 40
0
 40
0
 40
1
 40
1
 40
1
 40
1
 10
-163.234686
 20
407.364285
 30
0.0
 10
-162.978378
 20
408.040010
 30
0.0
 10
-162.672847
 20
408.595324
 30
0.0
 10
-162.313606
 20
408.995882
 30
0.0
  0
SPLINE
  5
1ce
100
AcDbEntity
  8
Livello_1
 62
7
100
AcDbSpline
 70
8
 71
3
 72
8
 73
4
 74
0
 40
0
 40
0
 40
0
 40
0
 40
1
 40
1
 40
1
 40
1
 10
-162.313606
 20
408.995882
 30
0.0
 10
-161.954365
 20
409.396469
 30
0.0
 10
-161.525579
 20
409.649100
 30
0.0
 10
-161.056836
 20
409.649072
 30
0.0
  0
LWPOLYLINE
  5
1cf
100
AcDbEntity
  8
Livello_1
 62
7
100
AcDbPolyline
 90
4
 70
0
 10
-252.061926
 20
401.898434
 30
0.0
 10
-164.056548
 20
401.898434
 30
0.0
 10
-164.056548
 20
402.146479
 30
0.0
 10
-164.056548
 20
402.149236
 30
0.0
  0
SPLINE
  5
1d0
100
AcDbEntity
  8
Livello_1
 62
7
100
AcDbSpline
 70
8
 71
3
 72
8
 73
4
 74
0
 40
0
 40
0
 40
0
 40
0
 40
1
 40
1
 40
1
 40
1
 10
288.943203
 20
409.649072
 30
0.0
 10
289.411974
 20
409.649100
 30
0.0
 10
289.840162
 20
409.396469
 30
0.0
 10
290.199403
 20
408.995882
 30
0.0
  0
SPLINE
  5
1d1
100
AcDbEntity
  8
Livello_1
 62
7
100
AcDbSpline
 70
8
 71
3
 72
8
 73
4
 74
0
 40
0
 40
0
 40
0
 40
0
 40
1
 40
1
 40
1
 40
1
 10
290.199403
 20
408.995882
 30
0.0
 10
290.558643
 20
408.595324
 30
0.0
 10
290.865278
 20
408.040010
 30
0.0
 10
291.121592
 20
407.364285
 30
0.0
  0
SPLINE
  5
1d2
100
AcDbEntity
  8
Livello_1
 62
7
100
AcDbSpline
 70
8
 71
3
 72
8
 73
4
 74
0
 40
0
 40
0
 40
0
 40
0
 40
1
 40
1
 40
1
 40
1
 10
291.121592
 20
407.364285
 30
0.0
 10
291.634136
 20
406.012949
 30
0.0
 10
291.942887
 20
404.176692
 30
0.0
 10
291.942915
 20
402.149236
 30
0.0
  0
LWPOLYLINE
  5
1d3
100
AcDbEntity
  8
Livello_1
 62
7
100
AcDbPolyline
 90
2
 70
0
 10
-161.056836
 20
409.649072
 30
0.0
 10
-161.056836
 20
409.649072
 30
0.0
  0
SPLINE
  5
1d4
100
AcDbEntity
  8
Livello_1
 62
7
100
AcDbSpline
 70
8
 71
3
 72
8
 73
4
 74
0
 40
0
 40
0
 40
0
 40
0
 40
1
 40
1
 40
1
 40
1
 10
291.928578
 20
386.398259
 30
0.0
 10
291.862538
 20
384.669760
 30
0.0
 10
291.570156
 20
383.116040
 30
0.0
 10
291.121592
 20
381.933416
 30
0.0
  0
SPLINE
  5
1d5
100
AcDbEntity
  8
Livello_1
 62
7
100
AcDbSpline
 70
8
 71
3
 72
8
 73
4
 74
0
 40
0
 40
0
 40
0
 40
0
 40
1
 40
1
 40
1
 40
1
 10
291.121592
 20
381.933416
 30
0.0
 10
290.865278
 20
381.257691
 30
0.0
 10
290.558643
 20
380.701826
 30
0.0
 10
290.199403
 20
380.301268
 30
0.0
  0
SPLINE
  5
1d6
100
AcDbEntity
  8
Livello_1
 62
7
100
AcDbSpline
 70
8
 71
3
 72
8
 73
4
 74
0
 40
0
 40
0
 40
0
 40
0
 40
1
 40
1
 40
1
 40
1
 10
290.199403
 20
380.301268
 30
0.0
 10
289.840162
 20
379.900682
 30
0.0
 10
289.411974
 20
379.648601
 30
0.0
 10
288.943203
 20
379.648629
 30
0.0
  0
SPLINE
  5
1d7
100
AcDbEntity
  8
Livello_1
 62
7
100
AcDbSpline
 70
8
 71
3
 72
8
 73
4
 74
0
 40
0
 40
0
 40
0
 40
0
 40
1
 40
1
 40
1
 40
1
 10
288.943203
 20
379.648629
 30
0.0
 10
288.474460
 20
379.648601
 30
0.0
 10
288.045652
 20
379.900682
 30
0.0
 10
287.686411
 20
380.301268
 30
0.0
  0
SPLINE
  5
1d8
100
AcDbEntity
  8
Livello_1
 62
7
100
AcDbSpline
 70
8
 71
3
 72
8
 73
4
 74
0
 40
0
 40
0
 40
0
 40
0
 40
1
 40
1
 40
1
 40
1
 10
287.686411
 20
380.301268
 30
0.0
 10
287.327171
 20
380.701826
 30
0.0
 10
287.021101
 20
381.257691
 30
0.0
 10
286.764786
 20
381.933416
 30
0.0
  0
SPLINE
  5
1d9
100
AcDbEntity
  8
Livello_1
 62
7
100
AcDbSpline
 70
8
 71
3
 72
8
 73
4
 74
0
 40
0
 40
0
 40
0
 40
0
 40
1
 40
1
 40
1
 40
1
 10
286.764786
 20
381.933416
 30
0.0
 10
286.316194
 20
383.116040
 30
0.0
 10
286.023417
 20
384.669760
 30
0.0
 10
285.957264
 20
386.398259
 30
0.0
  0
LWPOLYLINE
  5
1da
100
AcDbEntity
  8
Livello_1
 62
7
100
AcDbPolyline
 90
7
 70
0
 10
291.942915
 20
402.149236
 30
0.0
 10
291.943451
 20
402.145928
 30
0.0
 10
291.943451
 20
401.899534
 30
0.0
 10
291.943451
 20
387.151219
 30
0.0
 10
291.943451
 20
387.148465
 30
0.0
 10
291.943451
 20
386.398259
 30
0.0
 10
291.928578
 20
386.398259
 30
0.0
  0
SPLINE
  5
1db
100
AcDbEntity
  8
Livello_1
 62
7
100
AcDbSpline
 70
8
 71
3
 72
8
 73
4
 74
0
 40
0
 40
0
 40
0
 40
0
 40
1
 40
1
 40
1
 40
1
 10
197.938099
 20
386.398259
 30
0.0
 10
197.913602
 20
384.470822
 30
0.0
 10
197.612435
 20
382.728611
 30
0.0
 10
197.121199
 20
381.433465
 30
0.0
  0
SPLINE
  5
1dc
100
AcDbEntity
  8
Livello_1
 62
7
100
AcDbSpline
 70
8
 71
3
 72
8
 73
4
 74
0
 40
0
 40
0
 40
0
 40
0
 40
1
 40
1
 40
1
 40
1
 10
197.121199
 20
381.433465
 30
0.0
 10
196.864884
 20
380.757740
 30
0.0
 10
196.558806
 20
380.201872
 30
0.0
 10
196.199565
 20
379.801314
 30
0.0
  0
SPLINE
  5
1dd
100
AcDbEntity
  8
Livello_1
 62
7
100
AcDbSpline
 70
8
 71
3
 72
8
 73
4
 74
0
 40
0
 40
0
 40
0
 40
0
 40
1
 40
1
 40
1
 40
1
 10
196.199565
 20
379.801314
 30
0.0
 10
195.840325
 20
379.400728
 30
0.0
 10
195.412089
 20
379.148647
 30
0.0
 10
194.943346
 20
379.148675
 30
0.0
  0
SPLINE
  5
1de
100
AcDbEntity
  8
Livello_1
 62
7
100
AcDbSpline
 70
8
 71
3
 72
8
 73
4
 74
0
 40
0
 40
0
 40
0
 40
0
 40
1
 40
1
 40
1
 40
1
 10
194.943346
 20
379.148675
 30
0.0
 10
194.474603
 20
379.148647
 30
0.0
 10
194.045789
 20
379.400728
 30
0.0
 10
193.686577
 20
379.801314
 30
0.0
  0
SPLINE
  5
1df
100
AcDbEntity
  8
Livello_1
 62
7
100
AcDbSpline
 70
8
 71
3
 72
8
 73
4
 74
0
 40
0
 40
0
 40
0
 40
0
 40
1
 40
1
 40
1
 40
1
 10
193.686577
 20
379.801314
 30
0.0
 10
193.327336
 20
380.201872
 30
0.0
 10
193.021286
 20
380.757740
 30
0.0
 10
192.764943
 20
381.433465
 30
0.0
  0
SPLINE
  5
1e0
100
AcDbEntity
  8
Livello_1
 62
7
100
AcDbSpline
 70
8
 71
3
 72
8
 73
4
 74
0
 40
0
 40
0
 40
0
 40
0
 40
1
 40
1
 40
1
 40
1
 10
192.764943
 20
381.433465
 30
0.0
 10
192.273736
 20
382.728582
 30
0.0
 10
191.972596
 20
384.470850
 30
0.0
 10
191.948043
 20
386.398259
 30
0.0
  0
LWPOLYLINE
  5
1e1
100
AcDbEntity
  8
Livello_1
 62
7
100
AcDbPolyline
 90
2
 70
0
 10
285.957264
 20
386.398259
 30
0.0
 10
197.938099
 20
386.398259
 30
0.0
  0
SPLINE
  5
1e2
100
AcDbEntity
  8
Livello_1
 62
7
100
AcDbSpline
 70
8
 71
3
 72
8
 73
4
 74
0
 40
0
 40
0
 40
0
 40
0
 40
1
 40
1
 40
1
 40
1
 10
191.948043
 20
401.898434
 30
0.0
 10
191.972568
 20
403.825899
 30
0.0
 10
192.273736
 20
405.568635
 30
0.0
 10
192.764943
 20
406.863781
 30
0.0
  0
SPLINE
  5
1e3
100
AcDbEntity
  8
Livello_1
 62
7
100
AcDbSpline
 70
8
 71
3
 72
8
 73
4
 74
0
 40
0
 40
0
 40
0
 40
0
 40
1
 40
1
 40
1
 40
1
 10
192.764943
 20
406.863781
 30
0.0
 10
193.021286
 20
407.539506
 30
0.0
 10
193.327336
 20
408.094820
 30
0.0
 10
193.686577
 20
408.495378
 30
0.0
  0
SPLINE
  5
1e4
100
AcDbEntity
  8
Livello_1
 62
7
100
AcDbSpline
 70
8
 71
3
 72
8
 73
4
 74
0
 40
0
 40
0
 40
0
 40
0
 40
1
 40
1
 40
1
 40
1
 10
193.686577
 20
408.495378
 30
0.0
 10
194.045789
 20
408.895964
 30
0.0
 10
194.474603
 20
409.148596
 30
0.0
 10
194.943346
 20
409.148567
 30
0.0
  0
SPLINE
  5
1e5
100
AcDbEntity
  8
Livello_1
 62
7
100
AcDbSpline
 70
8
 71
3
 72
8
 73
4
 74
0
 40
0
 40
0
 40
0
 40
0
 40
1
 40
1
 40
1
 40
1
 10
194.943346
 20
409.148567
 30
0.0
 10
195.412089
 20
409.148596
 30
0.0
 10
195.840325
 20
408.895964
 30
0.0
 10
196.199565
 20
408.495378
 30
0.0
  0
SPLINE
  5
1e6
100
AcDbEntity
  8
Livello_1
 62
7
100
AcDbSpline
 70
8
 71
3
 72
8
 73
4
 74
0
 40
0
 40
0
 40
0
 40
0
 40
1
 40
1
 40
1
 40
1
 10
196.199565
 20
408.495378
 30
0.0
 10
196.558806
 20
408.094820
 30
0.0
 10
196.864884
 20
407.539506
 30
0.0
 10
197.121199
 20
406.863781
 30
0.0
  0
SPLINE
  5
1e7
100
AcDbEntity
  8
Livello_1
 62
7
100
AcDbSpline
 70
8
 71
3
 72
8
 73
4
 74
0
 40
0
 40
0
 40
0
 40
0
 40
1
 40
1
 40
1
 40
1
 10
197.121199
 20
406.863781
 30
0.0
 10
197.612435
 20
405.568635
 30
0.0
 10
197.913546
 20
403.825899
 30
0.0
 10
197.938099
 20
401.898434
 30
0.0
  0
LWPOLYLINE
  5
1e8
100
AcDbEntity
  8
Livello_1
 62
7
100
AcDbPolyline
 90
6
 70
0
 10
191.948043
 20
386.398259
 30
0.0
 10
191.943081
 20
386.398259
 30
0.0
 10
191.943081
 20
386.648511
 30
0.0
 10
191.943081
 20
401.648732
 30
0.0
 10
191.943081
 20
401.898434
 30
0.0
 10
191.948043
 20
401.898434
 30
0.0
  0
SPLINE
  5
1e9
100
AcDbEntity
  8
Livello_1
 62
7
100
AcDbSpline
 70
8
 71
3
 72
8
 73
4
 74
0
 40
0
 40
0
 40
0
 40
0
 40
1
 40
1
 40
1
 40
1
 10
285.942927
 20
402.149236
 30
0.0
 10
285.942955
 20
404.176692
 30
0.0
 10
286.252214
 20
406.012949
 30
0.0
 10
286.764786
 20
407.364285
 30
0.0
  0
SPLINE
  5
1ea
100
AcDbEntity
  8
Livello_1
 62
7
100
AcDbSpline
 70
8
 71
3
 72
8
 73
4
 74
0
 40
0
 40
0
 40
0
 40
0
 40
1
 40
1
 40
1
 40
1
 10
286.764786
 20
407.364285
 30
0.0
 10
287.021101
 20
408.040010
 30
0.0
 10
287.327171
 20
408.595324
 30
0.0
 10
287.686411
 20
408.995882
 30
0.0
  0
SPLINE
  5
1eb
100
AcDbEntity
  8
Livello_1
 62
7
100
AcDbSpline
 70
8
 71
3
 72
8
 73
4
 74
0
 40
0
 40
0
 40
0
 40
0
 40
1
 40
1
 40
1
 40
1
 10
287.686411
 20
408.995882
 30
0.0
 10
288.045652
 20
409.396469
 30
0.0
 10
288.474460
 20
409.649100
 30
0.0
 10
288.943203
 20
409.649072
 30
0.0
  0
LWPOLYLINE
  5
1ec
100
AcDbEntity
  8
Livello_1
 62
7
100
AcDbPolyline
 90
4
 70
0
 10
197.938099
 20
401.898434
 30
0.0
 10
285.942927
 20
401.898434
 30
0.0
 10
285.942927
 20
402.146479
 30
0.0
 10
285.942927
 20
402.149236
 30
0.0
  0
SPLINE
  5
1ed
100
AcDbEntity
  8
Livello_1
 62
7
100
AcDbSpline
 70
8
 71
3
 72
8
 73
4
 74
0
 40
0
 40
0
 40
0
 40
0
 40
1
 40
1
 40
1
 40
1
 10
-118.553730
 20
279.748025
 30
0.0
 10
-118.488497
 20
279.749269
 30
0.0
 10
-118.421901
 20
279.747821
 30
0.0
 10
-118.354740
 20
279.744167
 30
0.0
  0
SPLINE
  5
1ee
100
AcDbEntity
  8
Livello_1
 62
7
100
AcDbSpline
 70
8
 71
3
 72
8
 73
4
 74
0
 40
0
 40
0
 40
0
 40
0
 40
1
 40
1
 40
1
 40
1
 10
-118.354740
 20
279.744167
 30
0.0
 10
-117.817482
 20
279.714951
 30
0.0
 10
-117.208009
 20
279.539129
 30
0.0
 10
-116.548958
 20
279.242562
 30
0.0
  0
SPLINE
  5
1ef
100
AcDbEntity
  8
Livello_1
 62
7
100
AcDbSpline
 70
8
 71
3
 72
8
 73
4
 74
0
 40
0
 40
0
 40
0
 40
0
 40
1
 40
1
 40
1
 40
1
 10
-116.548958
 20
279.242562
 30
0.0
 10
-115.230997
 20
278.649444
 30
0.0
 10
-113.714544
 20
277.568967
 30
0.0
 10
-112.280898
 20
276.135360
 30
0.0
  0
LWPOLYLINE
  5
1f0
100
AcDbEntity
  8
Livello_1
 62
7
100
AcDbPolyline
 90
2
 70
0
 10
288.943203
 20
409.649072
 30
0.0
 10
288.943203
 20
409.649072
 30
0.0
  0
SPLINE
  5
1f1
100
AcDbEntity
  8
Livello_1
 62
7
100
AcDbSpline
 70
8
 71
3
 72
8
 73
4
 74
0
 40
0
 40
0
 40
0
 40
0
 40
1
 40
1
 40
1
 40
1
 10
-101.153516
 20
264.987582
 30
0.0
 10
-99.977981
 20
263.718652
 30
0.0
 10
-99.085722
 20
262.413690
 30
0.0
 10
-98.566661
 20
261.260265
 30
0.0
  0
SPLINE
  5
1f2
100
AcDbEntity
  8
Livello_1
 62
7
100
AcDbSpline
 70
8
 71
3
 72
8
 73
4
 74
0
 40
0
 40
0
 40
0
 40
0
 40
1
 40
1
 40
1
 40
1
 10
-98.566661
 20
261.260265
 30
0.0
 10
-98.270094
 20
260.601214
 30
0.0
 10
-98.094272
 20
259.991193
 30
0.0
 10
-98.065057
 20
259.453933
 30
0.0
  0
SPLINE
  5
1f3
100
AcDbEntity
  8
Livello_1
 62
7
100
AcDbSpline
 70
8
 71
3
 72
8
 73
4
 74
0
 40
0
 40
0
 40
0
 40
0
 40
1
 40
1
 40
1
 40
1
 10
-98.065057
 20
259.453933
 30
0.0
 10
-98.035821
 20
258.916655
 30
0.0
 10
-98.160208
 20
258.435460
 30
0.0
 10
-98.491698
 20
258.104007
 30
0.0
  0
SPLINE
  5
1f4
100
AcDbEntity
  8
Livello_1
 62
7
100
AcDbSpline
 70
8
 71
3
 72
8
 73
4
 74
0
 40
0
 40
0
 40
0
 40
0
 40
1
 40
1
 40
1
 40
1
 10
-98.491698
 20
258.104007
 30
0.0
 10
-98.823131
 20
257.772537
 30
0.0
 10
-99.304345
 20
257.647578
 30
0.0
 10
-99.841623
 20
257.676813
 30
0.0
  0
SPLINE
  5
1f5
100
AcDbEntity
  8
Livello_1
 62
7
100
AcDbSpline
 70
8
 71
3
 72
8
 73
4
 74
0
 40
0
 40
0
 40
0
 40
0
 40
1
 40
1
 40
1
 40
1
 10
-99.841623
 20
257.676813
 30
0.0
 10
-100.378884
 20
257.706029
 30
0.0
 10
-100.988354
 20
257.882954
 30
0.0
 10
-101.647405
 20
258.179522
 30
0.0
  0
SPLINE
  5
1f6
100
AcDbEntity
  8
Livello_1
 62
7
100
AcDbSpline
 70
8
 71
3
 72
8
 73
4
 74
0
 40
0
 40
0
 40
0
 40
0
 40
1
 40
1
 40
1
 40
1
 10
-101.647405
 20
258.179522
 30
0.0
 10
-102.800850
 20
258.698562
 30
0.0
 10
-104.106816
 20
259.589817
 30
0.0
 10
-105.375826
 20
260.765273
 30
0.0
  0
LWPOLYLINE
  5
1f7
100
AcDbEntity
  8
Livello_1
 62
7
100
AcDbPolyline
 90
7
 70
0
 10
-112.280898
 20
276.135360
 30
0.0
 10
-112.278693
 20
276.133156
 30
0.0
 10
-112.104509
 20
275.958971
 30
0.0
 10
-101.675517
 20
265.530530
 30
0.0
 10
-101.673863
 20
265.528326
 30
0.0
 10
-101.143043
 20
264.998056
 30
0.0
 10
-101.153516
 20
264.987582
 30
0.0
  0
SPLINE
  5
1f8
100
AcDbEntity
  8
Livello_1
 62
7
100
AcDbSpline
 70
8
 71
3
 72
8
 73
4
 74
0
 40
0
 40
0
 40
0
 40
0
 40
1
 40
1
 40
1
 40
1
 10
-167.614645
 20
198.526454
 30
0.0
 10
-166.269063
 20
197.146229
 30
0.0
 10
-165.250080
 20
195.701255
 30
0.0
 10
-164.681628
 20
194.438090
 30
0.0
  0
SPLINE
  5
1f9
100
AcDbEntity
  8
Livello_1
 62
7
100
AcDbSpline
 70
8
 71
3
 72
8
 73
4
 74
0
 40
0
 40
0
 40
0
 40
0
 40
1
 40
1
 40
1
 40
1
 10
-164.681628
 20
194.438090
 30
0.0
 10
-164.385061
 20
193.779039
 30
0.0
 10
-164.208686
 20
193.169570
 30
0.0
 10
-164.179470
 20
192.632309
 30
0.0
  0
SPLINE
  5
1fa
100
AcDbEntity
  8
Livello_1
 62
7
100
AcDbSpline
 70
8
 71
3
 72
8
 73
4
 74
0
 40
0
 40
0
 40
0
 40
0
 40
1
 40
1
 40
1
 40
1
 10
-164.179470
 20
192.632309
 30
0.0
 10
-164.150235
 20
192.095031
 30
0.0
 10
-164.274641
 20
191.614364
 30
0.0
 10
-164.606111
 20
191.282934
 30
0.0
  0
SPLINE
  5
1fb
100
AcDbEntity
  8
Livello_1
 62
7
100
AcDbSpline
 70
8
 71
3
 72
8
 73
4
 74
0
 40
0
 40
0
 40
0
 40
0
 40
1
 40
1
 40
1
 40
1
 10
-164.606111
 20
191.282934
 30
0.0
 10
-164.937542
 20
190.951461
 30
0.0
 10
-165.418778
 20
190.826487
 30
0.0
 10
-165.956036
 20
190.855742
 30
0.0
  0
SPLINE
  5
1fc
100
AcDbEntity
  8
Livello_1
 62
7
100
AcDbSpline
 70
8
 71
3
 72
8
 73
4
 74
0
 40
0
 40
0
 40
0
 40
0
 40
1
 40
1
 40
1
 40
1
 10
-165.956036
 20
190.855742
 30
0.0
 10
-166.493297
 20
190.884958
 30
0.0
 10
-167.102748
 20
191.061351
 30
0.0
 10
-167.761818
 20
191.357899
 30
0.0
  0
SPLINE
  5
1fd
100
AcDbEntity
  8
Livello_1
 62
7
100
AcDbSpline
 70
8
 71
3
 72
8
 73
4
 74
0
 40
0
 40
0
 40
0
 40
0
 40
1
 40
1
 40
1
 40
1
 10
-167.761818
 20
191.357899
 30
0.0
 10
-169.024941
 20
191.926351
 30
0.0
 10
-170.469938
 20
192.945393
 30
0.0
 10
-171.850183
 20
194.290916
 30
0.0
  0
LWPOLYLINE
  5
1fe
100
AcDbEntity
  8
Livello_1
 62
7
100
AcDbPolyline
 90
2
 70
0
 10
-105.375826
 20
260.765273
 30
0.0
 10
-167.614645
 20
198.526454
 30
0.0
  0
SPLINE
  5
1ff
100
AcDbEntity
  8
Livello_1
 62
7
100
AcDbSpline
 70
8
 71
3
 72
8
 73
4
 74
0
 40
0
 40
0
 40
0
 40
0
 40
1
 40
1
 40
1
 40
1
 10
-182.810548
 20
205.251280
 30
0.0
 10
-184.156130
 20
206.631547
 30
0.0
 10
-185.175644
 20
208.076502
 30
0.0
 10
-185.744115
 20
209.339644
 30
0.0
  0
SPLINE
  5
200
100
AcDbEntity
  8
Livello_1
 62
7
100
AcDbSpline
 70
8
 71
3
 72
8
 73
4
 74
0
 40
0
 40
0
 40
0
 40
0
 40
1
 40
1
 40
1
 40
1
 10
-185.744115
 20
209.339644
 30
0.0
 10
-186.040663
 20
209.998715
 30
0.0
 10
-186.216504
 20
210.608167
 30
0.0
 10
-186.245720
 20
211.145425
 30
0.0
  0
SPLINE
  5
201
100
AcDbEntity
  8
Livello_1
 62
7
100
AcDbSpline
 70
8
 71
3
 72
8
 73
4
 74
0
 40
0
 40
0
 40
0
 40
0
 40
1
 40
1
 40
1
 40
1
 10
-186.245720
 20
211.145425
 30
0.0
 10
-186.274975
 20
211.682686
 30
0.0
 10
-186.150552
 20
212.164472
 30
0.0
 10
-185.819079
 20
212.495903
 30
0.0
  0
SPLINE
  5
202
100
AcDbEntity
  8
Livello_1
 62
7
100
AcDbSpline
 70
8
 71
3
 72
8
 73
4
 74
0
 40
0
 40
0
 40
0
 40
0
 40
1
 40
1
 40
1
 40
1
 10
-185.819079
 20
212.495903
 30
0.0
 10
-185.487649
 20
212.827373
 30
0.0
 10
-185.006434
 20
212.951228
 30
0.0
 10
-184.469154
 20
212.921992
 30
0.0
  0
SPLINE
  5
203
100
AcDbEntity
  8
Livello_1
 62
7
100
AcDbSpline
 70
8
 71
3
 72
8
 73
4
 74
0
 40
0
 40
0
 40
0
 40
0
 40
1
 40
1
 40
1
 40
1
 10
-184.469154
 20
212.921992
 30
0.0
 10
-183.931896
 20
212.892777
 30
0.0
 10
-183.322423
 20
212.716954
 30
0.0
 10
-182.663372
 20
212.420386
 30
0.0
  0
SPLINE
  5
204
100
AcDbEntity
  8
Livello_1
 62
7
100
AcDbSpline
 70
8
 71
3
 72
8
 73
4
 74
0
 40
0
 40
0
 40
0
 40
0
 40
1
 40
1
 40
1
 40
1
 10
-182.663372
 20
212.420386
 30
0.0
 10
-181.400207
 20
211.851934
 30
0.0
 10
-179.955294
 20
210.832381
 30
0.0
 10
-178.575008
 20
209.486819
 30
0.0
  0
LWPOLYLINE
  5
205
100
AcDbEntity
  8
Livello_1
 62
7
100
AcDbPolyline
 90
6
 70
0
 10
-171.850183
 20
194.290916
 30
0.0
 10
-171.854041
 20
194.287057
 30
0.0
 10
-172.030980
 20
194.463997
 30
0.0
 10
-182.637464
 20
205.071033
 30
0.0
 10
-182.814406
 20
205.247422
 30
0.0
 10
-182.810548
 20
205.251280
 30
0.0
  0
SPLINE
  5
206
100
AcDbEntity
  8
Livello_1
 62
7
100
AcDbSpline
 70
8
 71
3
 72
8
 73
4
 74
0
 40
0
 40
0
 40
0
 40
0
 40
1
 40
1
 40
1
 40
1
 10
-116.523603
 20
271.893207
 30
0.0
 10
-117.957213
 20
273.326857
 30
0.0
 10
-119.036606
 20
274.843835
 30
0.0
 10
-119.629702
 20
276.161818
 30
0.0
  0
SPLINE
  5
207
100
AcDbEntity
  8
Livello_1
 62
7
100
AcDbSpline
 70
8
 71
3
 72
8
 73
4
 74
0
 40
0
 40
0
 40
0
 40
0
 40
1
 40
1
 40
1
 40
1
 10
-119.629702
 20
276.161818
 30
0.0
 10
-119.926269
 20
276.820869
 30
0.0
 10
-120.102641
 20
277.429792
 30
0.0
 10
-120.131857
 20
277.967047
 30
0.0
  0
SPLINE
  5
208
100
AcDbEntity
  8
Livello_1
 62
7
100
AcDbSpline
 70
8
 71
3
 72
8
 73
4
 74
0
 40
0
 40
0
 40
0
 40
0
 40
1
 40
1
 40
1
 40
1
 10
-120.131857
 20
277.967047
 30
0.0
 10
-120.161092
 20
278.504328
 30
0.0
 10
-120.036689
 20
278.986095
 30
0.0
 10
-119.705216
 20
279.317526
 30
0.0
  0
SPLINE
  5
209
100
AcDbEntity
  8
Livello_1
 62
7
100
AcDbSpline
 70
8
 71
3
 72
8
 73
4
 74
0
 40
0
 40
0
 40
0
 40
0
 40
1
 40
1
 40
1
 40
1
 10
-119.705216
 20
279.317526
 30
0.0
 10
-119.415199
 20
279.607580
 30
0.0
 10
-119.010345
 20
279.739315
 30
0.0
 10
-118.553730
 20
279.748025
 30
0.0
  0
LWPOLYLINE
  5
20a
100
AcDbEntity
  8
Livello_1
 62
7
100
AcDbPolyline
 90
4
 70
0
 10
-178.575008
 20
209.486819
 30
0.0
 10
-116.346111
 20
271.715715
 30
0.0
 10
-116.521397
 20
271.891003
 30
0.0
 10
-116.523603
 20
271.893207
 30
0.0
  0
SPLINE
  5
20b
100
AcDbEntity
  8
Livello_1
 62
7
100
AcDbSpline
 70
8
 71
3
 72
8
 73
4
 74
0
 40
0
 40
0
 40
0
 40
0
 40
1
 40
1
 40
1
 40
1
 10
152.086908
 20
279.394697
 30
0.0
 10
152.543451
 20
279.385911
 30
0.0
 10
152.947827
 20
279.254251
 30
0.0
 10
153.237847
 20
278.964198
 30
0.0
  0
SPLINE
  5
20c
100
AcDbEntity
  8
Livello_1
 62
7
100
AcDbSpline
 70
8
 71
3
 72
8
 73
4
 74
0
 40
0
 40
0
 40
0
 40
0
 40
1
 40
1
 40
1
 40
1
 10
153.237847
 20
278.964198
 30
0.0
 10
153.569320
 20
278.632767
 30
0.0
 10
153.694277
 20
278.151550
 30
0.0
 10
153.665039
 20
277.614269
 30
0.0
  0
SPLINE
  5
20d
100
AcDbEntity
  8
Livello_1
 62
7
100
AcDbSpline
 70
8
 71
3
 72
8
 73
4
 74
0
 40
0
 40
0
 40
0
 40
0
 40
1
 40
1
 40
1
 40
1
 10
153.665039
 20
277.614269
 30
0.0
 10
153.635823
 20
277.077011
 30
0.0
 10
153.459451
 20
276.467541
 30
0.0
 10
153.162881
 20
275.808490
 30
0.0
  0
SPLINE
  5
20e
100
AcDbEntity
  8
Livello_1
 62
7
100
AcDbSpline
 70
8
 71
3
 72
8
 73
4
 74
0
 40
0
 40
0
 40
0
 40
0
 40
1
 40
1
 40
1
 40
1
 10
153.162881
 20
275.808490
 30
0.0
 10
152.643846
 20
274.655045
 30
0.0
 10
151.752035
 20
273.349079
 30
0.0
 10
150.576579
 20
272.080069
 30
0.0
  0
LWPOLYLINE
  5
20f
100
AcDbEntity
  8
Livello_1
 62
7
100
AcDbPolyline
 90
2
 70
0
 10
-118.553730
 20
279.748025
 30
0.0
 10
-118.553730
 20
279.748025
 30
0.0
  0
SPLINE
  5
210
100
AcDbEntity
  8
Livello_1
 62
7
100
AcDbSpline
 70
8
 71
3
 72
8
 73
4
 74
0
 40
0
 40
0
 40
0
 40
0
 40
1
 40
1
 40
1
 40
1
 10
212.815399
 20
209.841250
 30
0.0
 10
214.195623
 20
211.186832
 30
0.0
 10
215.640601
 20
212.205814
 30
0.0
 10
216.903763
 20
212.774266
 30
0.0
  0
SPLINE
  5
211
100
AcDbEntity
  8
Livello_1
 62
7
100
AcDbSpline
 70
8
 71
3
 72
8
 73
4
 74
0
 40
0
 40
0
 40
0
 40
0
 40
1
 40
1
 40
1
 40
1
 10
216.903763
 20
212.774266
 30
0.0
 10
217.562814
 20
213.070834
 30
0.0
 10
218.172287
 20
213.247208
 30
0.0
 10
218.709545
 20
213.276424
 30
0.0
  0
SPLINE
  5
212
100
AcDbEntity
  8
Livello_1
 62
7
100
AcDbSpline
 70
8
 71
3
 72
8
 73
4
 74
0
 40
0
 40
0
 40
0
 40
0
 40
1
 40
1
 40
1
 40
1
 10
218.709545
 20
213.276424
 30
0.0
 10
219.246825
 20
213.305659
 30
0.0
 10
219.728040
 20
213.181256
 30
0.0
 10
220.059470
 20
212.849783
 30
0.0
  0
SPLINE
  5
213
100
AcDbEntity
  8
Livello_1
 62
7
100
AcDbSpline
 70
8
 71
3
 72
8
 73
4
 74
0
 40
0
 40
0
 40
0
 40
0
 40
1
 40
1
 40
1
 40
1
 10
220.059470
 20
212.849783
 30
0.0
 10
220.390940
 20
212.518353
 30
0.0
 10
220.515919
 20
212.037115
 30
0.0
 10
220.486661
 20
211.499857
 30
0.0
  0
SPLINE
  5
214
100
AcDbEntity
  8
Livello_1
 62
7
100
AcDbSpline
 70
8
 71
3
 72
8
 73
4
 74
0
 40
0
 40
0
 40
0
 40
0
 40
1
 40
1
 40
1
 40
1
 10
220.486661
 20
211.499857
 30
0.0
 10
220.457446
 20
210.962599
 30
0.0
 10
220.281054
 20
210.352595
 30
0.0
 10
219.984506
 20
209.693524
 30
0.0
  0
SPLINE
  5
215
100
AcDbEntity
  8
Livello_1
 62
7
100
AcDbSpline
 70
8
 71
3
 72
8
 73
4
 74
0
 40
0
 40
0
 40
0
 40
0
 40
1
 40
1
 40
1
 40
1
 10
219.984506
 20
209.693524
 30
0.0
 10
219.416057
 20
208.430402
 30
0.0
 10
218.397012
 20
206.985956
 30
0.0
 10
217.051489
 20
205.605712
 30
0.0
  0
LWPOLYLINE
  5
216
100
AcDbEntity
  8
Livello_1
 62
7
100
AcDbPolyline
 90
2
 70
0
 10
150.576579
 20
272.080069
 30
0.0
 10
212.815399
 20
209.841250
 30
0.0
  0
SPLINE
  5
217
100
AcDbEntity
  8
Livello_1
 62
7
100
AcDbSpline
 70
8
 71
3
 72
8
 73
4
 74
0
 40
0
 40
0
 40
0
 40
0
 40
1
 40
1
 40
1
 40
1
 10
206.091124
 20
194.645347
 30
0.0
 10
204.710860
 20
193.299765
 30
0.0
 10
203.265351
 20
192.280251
 30
0.0
 10
202.002209
 20
191.711780
 30
0.0
  0
SPLINE
  5
218
100
AcDbEntity
  8
Livello_1
 62
7
100
AcDbSpline
 70
8
 71
3
 72
8
 73
4
 74
0
 40
0
 40
0
 40
0
 40
0
 40
1
 40
1
 40
1
 40
1
 10
202.002209
 20
191.711780
 30
0.0
 10
201.343136
 20
191.415232
 30
0.0
 10
200.734239
 20
191.238838
 30
0.0
 10
200.196981
 20
191.209622
 30
0.0
  0
SPLINE
  5
219
100
AcDbEntity
  8
Livello_1
 62
7
100
AcDbSpline
 70
8
 71
3
 72
8
 73
4
 74
0
 40
0
 40
0
 40
0
 40
0
 40
1
 40
1
 40
1
 40
1
 10
200.196981
 20
191.209622
 30
0.0
 10
199.659717
 20
191.180364
 30
0.0
 10
199.177933
 20
191.305341
 30
0.0
 10
198.846502
 20
191.636814
 30
0.0
  0
SPLINE
  5
21a
100
AcDbEntity
  8
Livello_1
 62
7
100
AcDbSpline
 70
8
 71
3
 72
8
 73
4
 74
0
 40
0
 40
0
 40
0
 40
0
 40
1
 40
1
 40
1
 40
1
 10
198.846502
 20
191.636814
 30
0.0
 10
198.515029
 20
191.968245
 30
0.0
 10
198.390626
 20
192.449460
 30
0.0
 10
198.419861
 20
192.986740
 30
0.0
  0
SPLINE
  5
21b
100
AcDbEntity
  8
Livello_1
 62
7
100
AcDbSpline
 70
8
 71
3
 72
8
 73
4
 74
0
 40
0
 40
0
 40
0
 40
0
 40
1
 40
1
 40
1
 40
1
 10
198.419861
 20
192.986740
 30
0.0
 10
198.449077
 20
193.523998
 30
0.0
 10
198.625452
 20
194.132919
 30
0.0
 10
198.922019
 20
194.791970
 30
0.0
  0
SPLINE
  5
21c
100
AcDbEntity
  8
Livello_1
 62
7
100
AcDbSpline
 70
8
 71
3
 72
8
 73
4
 74
0
 40
0
 40
0
 40
0
 40
0
 40
1
 40
1
 40
1
 40
1
 10
198.922019
 20
194.791970
 30
0.0
 10
199.490468
 20
196.055135
 30
0.0
 10
200.510024
 20
197.500599
 30
0.0
 10
201.855586
 20
198.880885
 30
0.0
  0
LWPOLYLINE
  5
21d
100
AcDbEntity
  8
Livello_1
 62
7
100
AcDbPolyline
 90
6
 70
0
 10
217.051489
 20
205.605712
 30
0.0
 10
217.054797
 20
205.601853
 30
0.0
 10
216.877855
 20
205.424913
 30
0.0
 10
206.271371
 20
194.818429
 30
0.0
 10
206.094432
 20
194.641489
 30
0.0
 10
206.091124
 20
194.645347
 30
0.0
  0
SPLINE
  5
21e
100
AcDbEntity
  8
Livello_1
 62
7
100
AcDbSpline
 70
8
 71
3
 72
8
 73
4
 74
0
 40
0
 40
0
 40
0
 40
0
 40
1
 40
1
 40
1
 40
1
 10
139.449198
 20
260.932292
 30
0.0
 10
138.015548
 20
259.498682
 30
0.0
 10
136.498570
 20
258.418739
 30
0.0
 10
135.180586
 20
257.825643
 30
0.0
  0
SPLINE
  5
21f
100
AcDbEntity
  8
Livello_1
 62
7
100
AcDbSpline
 70
8
 71
3
 72
8
 73
4
 74
0
 40
0
 40
0
 40
0
 40
0
 40
1
 40
1
 40
1
 40
1
 10
135.180586
 20
257.825643
 30
0.0
 10
134.521535
 20
257.529075
 30
0.0
 10
133.912062
 20
257.353251
 30
0.0
 10
133.374805
 20
257.324035
 30
0.0
  0
SPLINE
  5
220
100
AcDbEntity
  8
Livello_1
 62
7
100
AcDbSpline
 70
8
 71
3
 72
8
 73
4
 74
0
 40
0
 40
0
 40
0
 40
0
 40
1
 40
1
 40
1
 40
1
 10
133.374805
 20
257.324035
 30
0.0
 10
132.837524
 20
257.294800
 30
0.0
 10
132.355757
 20
257.419204
 30
0.0
 10
132.024326
 20
257.750676
 30
0.0
  0
SPLINE
  5
221
100
AcDbEntity
  8
Livello_1
 62
7
100
AcDbSpline
 70
8
 71
3
 72
8
 73
4
 74
0
 40
0
 40
0
 40
0
 40
0
 40
1
 40
1
 40
1
 40
1
 10
132.024326
 20
257.750676
 30
0.0
 10
131.692836
 20
258.082127
 30
0.0
 10
131.569000
 20
258.563327
 30
0.0
 10
131.598238
 20
259.100605
 30
0.0
  0
SPLINE
  5
222
100
AcDbEntity
  8
Livello_1
 62
7
100
AcDbSpline
 70
8
 71
3
 72
8
 73
4
 74
0
 40
0
 40
0
 40
0
 40
0
 40
1
 40
1
 40
1
 40
1
 10
131.598238
 20
259.100605
 30
0.0
 10
131.627454
 20
259.637863
 30
0.0
 10
131.803275
 20
260.247333
 30
0.0
 10
132.099843
 20
260.906384
 30
0.0
  0
SPLINE
  5
223
100
AcDbEntity
  8
Livello_1
 62
7
100
AcDbSpline
 70
8
 71
3
 72
8
 73
4
 74
0
 40
0
 40
0
 40
0
 40
0
 40
1
 40
1
 40
1
 40
1
 10
132.099843
 20
260.906384
 30
0.0
 10
132.692958
 20
262.224345
 30
0.0
 10
133.772899
 20
263.741348
 30
0.0
 10
135.206492
 20
265.174995
 30
0.0
  0
LWPOLYLINE
  5
224
100
AcDbEntity
  8
Livello_1
 62
7
100
AcDbPolyline
 90
4
 70
0
 10
201.855586
 20
198.880885
 30
0.0
 10
139.626687
 20
261.109784
 30
0.0
 10
139.451402
 20
260.934496
 30
0.0
 10
139.449198
 20
260.932292
 30
0.0
  0
SPLINE
  5
225
100
AcDbEntity
  8
Livello_1
 62
7
100
AcDbSpline
 70
8
 71
3
 72
8
 73
4
 74
0
 40
0
 40
0
 40
0
 40
0
 40
1
 40
1
 40
1
 40
1
 10
146.354269
 20
276.302379
 30
0.0
 10
147.623203
 20
277.477914
 30
0.0
 10
148.928717
 20
278.370173
 30
0.0
 10
150.082140
 20
278.889231
 30
0.0
  0
SPLINE
  5
226
100
AcDbEntity
  8
Livello_1
 62
7
100
AcDbSpline
 70
8
 71
3
 72
8
 73
4
 74
0
 40
0
 40
0
 40
0
 40
0
 40
1
 40
1
 40
1
 40
1
 10
150.082140
 20
278.889231
 30
0.0
 10
150.741191
 20
279.185798
 30
0.0
 10
151.351214
 20
279.361623
 30
0.0
 10
151.888472
 20
279.390839
 30
0.0
  0
SPLINE
  5
227
100
AcDbEntity
  8
Livello_1
 62
7
100
AcDbSpline
 70
8
 71
3
 72
8
 73
4
 74
0
 40
0
 40
0
 40
0
 40
0
 40
1
 40
1
 40
1
 40
1
 10
151.888472
 20
279.390839
 30
0.0
 10
151.955633
 20
279.394493
 30
0.0
 10
152.021698
 20
279.395952
 30
0.0
 10
152.086908
 20
279.394697
 30
0.0
  0
LWPOLYLINE
  5
228
100
AcDbEntity
  8
Livello_1
 62
7
100
AcDbPolyline
 90
7
 70
0
 10
135.206492
 20
265.174995
 30
0.0
 10
135.208699
 20
265.177202
 30
0.0
 10
135.382881
 20
265.351384
 30
0.0
 10
145.811875
 20
275.780378
 30
0.0
 10
145.813529
 20
275.782032
 30
0.0
 10
146.344349
 20
276.312852
 30
0.0
 10
146.354269
 20
276.302379
 30
0.0
  0
LWPOLYLINE
  5
229
100
AcDbEntity
  8
Livello_1
 62
7
100
AcDbPolyline
 90
2
 70
0
 10
152.086908
 20
279.394697
 30
0.0
 10
152.086908
 20
279.394697
 30
0.0
  0
SPLINE
  5
22a
100
AcDbEntity
  8
Livello_1
 62
7
100
AcDbSpline
 70
8
 71
3
 72
8
 73
4
 74
0
 40
0
 40
0
 40
0
 40
0
 40
1
 40
1
 40
1
 40
1
 10
24.943594
 20
219.384440
 30
0.0
 10
26.672092
 20
219.318400
 30
0.0
 10
28.225818
 20
219.026025
 30
0.0
 10
29.408436
 20
218.577461
 30
0.0
  0
SPLINE
  5
22b
100
AcDbEntity
  8
Livello_1
 62
7
100
AcDbSpline
 70
8
 71
3
 72
8
 73
4
 74
0
 40
0
 40
0
 40
0
 40
0
 40
1
 40
1
 40
1
 40
1
 10
29.408436
 20
218.577461
 30
0.0
 10
30.084169
 20
218.321147
 30
0.0
 10
30.640028
 20
218.014518
 30
0.0
 10
31.040586
 20
217.655278
 30
0.0
  0
SPLINE
  5
22c
100
AcDbEntity
  8
Livello_1
 62
7
100
AcDbSpline
 70
8
 71
3
 72
8
 73
4
 74
0
 40
0
 40
0
 40
0
 40
0
 40
1
 40
1
 40
1
 40
1
 10
31.040586
 20
217.655278
 30
0.0
 10
31.441173
 20
217.296037
 30
0.0
 10
31.693254
 20
216.867829
 30
0.0
 10
31.693225
 20
216.399058
 30
0.0
  0
SPLINE
  5
22d
100
AcDbEntity
  8
Livello_1
 62
7
100
AcDbSpline
 70
8
 71
3
 72
8
 73
4
 74
0
 40
0
 40
0
 40
0
 40
0
 40
1
 40
1
 40
1
 40
1
 10
31.693225
 20
216.399058
 30
0.0
 10
31.693254
 20
215.930315
 30
0.0
 10
31.441173
 20
215.501528
 30
0.0
 10
31.040586
 20
215.142287
 30
0.0
  0
SPLINE
  5
22e
100
AcDbEntity
  8
Livello_1
 62
7
100
AcDbSpline
 70
8
 71
3
 72
8
 73
4
 74
0
 40
0
 40
0
 40
0
 40
0
 40
1
 40
1
 40
1
 40
1
 10
31.040586
 20
215.142287
 30
0.0
 10
30.640028
 20
214.783047
 30
0.0
 10
30.084166
 20
214.476970
 30
0.0
 10
29.408436
 20
214.220655
 30
0.0
  0
SPLINE
  5
22f
100
AcDbEntity
  8
Livello_1
 62
7
100
AcDbSpline
 70
8
 71
3
 72
8
 73
4
 74
0
 40
0
 40
0
 40
0
 40
0
 40
1
 40
1
 40
1
 40
1
 10
29.408436
 20
214.220655
 30
0.0
 10
28.225818
 20
213.772063
 30
0.0
 10
26.672092
 20
213.479278
 30
0.0
 10
24.943594
 20
213.413125
 30
0.0
  0
LWPOLYLINE
  5
230
100
AcDbEntity
  8
Livello_1
 62
7
100
AcDbPolyline
 90
7
 70
0
 10
9.192617
 20
219.398772
 30
0.0
 10
9.195924
 20
219.398772
 30
0.0
 10
9.442318
 20
219.398772
 30
0.0
 10
24.190634
 20
219.398772
 30
0.0
 10
24.193390
 20
219.398772
 30
0.0
 10
24.943594
 20
219.398772
 30
0.0
 10
24.943594
 20
219.384440
 30
0.0
  0
SPLINE
  5
231
100
AcDbEntity
  8
Livello_1
 62
7
100
AcDbSpline
 70
8
 71
3
 72
8
 73
4
 74
0
 40
0
 40
0
 40
0
 40
0
 40
1
 40
1
 40
1
 40
1
 10
24.943594
 20
125.393966
 30
0.0
 10
26.871030
 20
125.369469
 30
0.0
 10
28.613244
 20
125.068301
 30
0.0
 10
29.908390
 20
124.577065
 30
0.0
  0
SPLINE
  5
232
100
AcDbEntity
  8
Livello_1
 62
7
100
AcDbSpline
 70
8
 71
3
 72
8
 73
4
 74
0
 40
0
 40
0
 40
0
 40
0
 40
1
 40
1
 40
1
 40
1
 10
29.908390
 20
124.577065
 30
0.0
 10
30.584115
 20
124.320751
 30
0.0
 10
31.139979
 20
124.014675
 30
0.0
 10
31.540537
 20
123.655435
 30
0.0
  0
SPLINE
  5
233
100
AcDbEntity
  8
Livello_1
 62
7
100
AcDbSpline
 70
8
 71
3
 72
8
 73
4
 74
0
 40
0
 40
0
 40
0
 40
0
 40
1
 40
1
 40
1
 40
1
 10
31.540537
 20
123.655435
 30
0.0
 10
31.941124
 20
123.296194
 30
0.0
 10
32.193205
 20
122.867959
 30
0.0
 10
32.193176
 20
122.399216
 30
0.0
  0
SPLINE
  5
234
100
AcDbEntity
  8
Livello_1
 62
7
100
AcDbSpline
 70
8
 71
3
 72
8
 73
4
 74
0
 40
0
 40
0
 40
0
 40
0
 40
1
 40
1
 40
1
 40
1
 10
32.193176
 20
122.399216
 30
0.0
 10
32.193205
 20
121.930473
 30
0.0
 10
31.941124
 20
121.501656
 30
0.0
 10
31.540537
 20
121.142443
 30
0.0
  0
SPLINE
  5
235
100
AcDbEntity
  8
Livello_1
 62
7
100
AcDbSpline
 70
8
 71
3
 72
8
 73
4
 74
0
 40
0
 40
0
 40
0
 40
0
 40
1
 40
1
 40
1
 40
1
 10
31.540537
 20
121.142443
 30
0.0
 10
31.139979
 20
120.783203
 30
0.0
 10
30.584115
 20
120.477155
 30
0.0
 10
29.908390
 20
120.220813
 30
0.0
  0
SPLINE
  5
236
100
AcDbEntity
  8
Livello_1
 62
7
100
AcDbSpline
 70
8
 71
3
 72
8
 73
4
 74
0
 40
0
 40
0
 40
0
 40
0
 40
1
 40
1
 40
1
 40
1
 10
29.908390
 20
120.220813
 30
0.0
 10
28.613272
 20
119.729605
 30
0.0
 10
26.871003
 20
119.428463
 30
0.0
 10
24.943594
 20
119.403909
 30
0.0
  0
LWPOLYLINE
  5
237
100
AcDbEntity
  8
Livello_1
 62
7
100
AcDbPolyline
 90
2
 70
0
 10
24.943594
 20
213.413125
 30
0.0
 10
24.943594
 20
125.393966
 30
0.0
  0
SPLINE
  5
238
100
AcDbEntity
  8
Livello_1
 62
7
100
AcDbSpline
 70
8
 71
3
 72
8
 73
4
 74
0
 40
0
 40
0
 40
0
 40
0
 40
1
 40
1
 40
1
 40
1
 10
9.443971
 20
119.403909
 30
0.0
 10
7.516507
 20
119.428434
 30
0.0
 10
5.773219
 20
119.729605
 30
0.0
 10
4.478073
 20
120.220813
 30
0.0
  0
SPLINE
  5
239
100
AcDbEntity
  8
Livello_1
 62
7
100
AcDbSpline
 70
8
 71
3
 72
8
 73
4
 74
0
 40
0
 40
0
 40
0
 40
0
 40
1
 40
1
 40
1
 40
1
 10
4.478073
 20
120.220813
 30
0.0
 10
3.802348
 20
120.477155
 30
0.0
 10
3.247585
 20
120.783203
 30
0.0
 10
2.847027
 20
121.142443
 30
0.0
  0
SPLINE
  5
23a
100
AcDbEntity
  8
Livello_1
 62
7
100
AcDbSpline
 70
8
 71
3
 72
8
 73
4
 74
0
 40
0
 40
0
 40
0
 40
0
 40
1
 40
1
 40
1
 40
1
 10
2.847027
 20
121.142443
 30
0.0
 10
2.446440
 20
121.501656
 30
0.0
 10
2.193257
 20
121.930473
 30
0.0
 10
2.193286
 20
122.399216
 30
0.0
  0
SPLINE
  5
23b
100
AcDbEntity
  8
Livello_1
 62
7
100
AcDbSpline
 70
8
 71
3
 72
8
 73
4
 74
0
 40
0
 40
0
 40
0
 40
0
 40
1
 40
1
 40
1
 40
1
 10
2.193286
 20
122.399216
 30
0.0
 10
2.193257
 20
122.867959
 30
0.0
 10
2.446440
 20
123.296194
 30
0.0
 10
2.847027
 20
123.655435
 30
0.0
  0
SPLINE
  5
23c
100
AcDbEntity
  8
Livello_1
 62
7
100
AcDbSpline
 70
8
 71
3
 72
8
 73
4
 74
0
 40
0
 40
0
 40
0
 40
0
 40
1
 40
1
 40
1
 40
1
 10
2.847027
 20
123.655435
 30
0.0
 10
3.247585
 20
124.014675
 30
0.0
 10
3.802348
 20
124.320751
 30
0.0
 10
4.478073
 20
124.577065
 30
0.0
  0
SPLINE
  5
23d
100
AcDbEntity
  8
Livello_1
 62
7
100
AcDbSpline
 70
8
 71
3
 72
8
 73
4
 74
0
 40
0
 40
0
 40
0
 40
0
 40
1
 40
1
 40
1
 40
1
 10
4.478073
 20
124.577065
 30
0.0
 10
5.773218
 20
125.068301
 30
0.0
 10
7.516507
 20
125.369413
 30
0.0
 10
9.443971
 20
125.393966
 30
0.0
  0
LWPOLYLINE
  5
23e
100
AcDbEntity
  8
Livello_1
 62
7
100
AcDbPolyline
 90
6
 70
0
 10
24.943594
 20
119.403909
 30
0.0
 10
24.943594
 20
119.398951
 30
0.0
 10
24.693342
 20
119.398951
 30
0.0
 10
9.693121
 20
119.398951
 30
0.0
 10
9.443971
 20
119.398951
 30
0.0
 10
9.443971
 20
119.403909
 30
0.0
  0
SPLINE
  5
23f
100
AcDbEntity
  8
Livello_1
 62
7
100
AcDbSpline
 70
8
 71
3
 72
8
 73
4
 74
0
 40
0
 40
0
 40
0
 40
0
 40
1
 40
1
 40
1
 40
1
 10
9.192617
 20
213.398793
 30
0.0
 10
7.165161
 20
213.398822
 30
0.0
 10
5.328906
 20
213.708083
 30
0.0
 10
3.977569
 20
214.220655
 30
0.0
  0
SPLINE
  5
240
100
AcDbEntity
  8
Livello_1
 62
7
100
AcDbSpline
 70
8
 71
3
 72
8
 73
4
 74
0
 40
0
 40
0
 40
0
 40
0
 40
1
 40
1
 40
1
 40
1
 10
3.977569
 20
214.220655
 30
0.0
 10
3.301845
 20
214.476970
 30
0.0
 10
2.746530
 20
214.783047
 30
0.0
 10
2.345972
 20
215.142287
 30
0.0
  0
SPLINE
  5
241
100
AcDbEntity
  8
Livello_1
 62
7
100
AcDbSpline
 70
8
 71
3
 72
8
 73
4
 74
0
 40
0
 40
0
 40
0
 40
0
 40
1
 40
1
 40
1
 40
1
 10
2.345972
 20
215.142287
 30
0.0
 10
1.945386
 20
215.501528
 30
0.0
 10
1.692754
 20
215.930315
 30
0.0
 10
1.692782
 20
216.399058
 30
0.0
  0
SPLINE
  5
242
100
AcDbEntity
  8
Livello_1
 62
7
100
AcDbSpline
 70
8
 71
3
 72
8
 73
4
 74
0
 40
0
 40
0
 40
0
 40
0
 40
1
 40
1
 40
1
 40
1
 10
1.692782
 20
216.399058
 30
0.0
 10
1.692754
 20
216.867829
 30
0.0
 10
1.945386
 20
217.296037
 30
0.0
 10
2.345972
 20
217.655278
 30
0.0
  0
SPLINE
  5
243
100
AcDbEntity
  8
Livello_1
 62
7
100
AcDbSpline
 70
8
 71
3
 72
8
 73
4
 74
0
 40
0
 40
0
 40
0
 40
0
 40
1
 40
1
 40
1
 40
1
 10
2.345972
 20
217.655278
 30
0.0
 10
2.746530
 20
218.014518
 30
0.0
 10
3.301845
 20
218.321147
 30
0.0
 10
3.977569
 20
218.577461
 30
0.0
  0
SPLINE
  5
244
100
AcDbEntity
  8
Livello_1
 62
7
100
AcDbSpline
 70
8
 71
3
 72
8
 73
4
 74
0
 40
0
 40
0
 40
0
 40
0
 40
1
 40
1
 40
1
 40
1
 10
3.977569
 20
218.577461
 30
0.0
 10
5.328906
 20
219.090005
 30
0.0
 10
7.165161
 20
219.398743
 30
0.0
 10
9.192617
 20
219.398772
 30
0.0
  0
LWPOLYLINE
  5
245
100
AcDbEntity
  8
Livello_1
 62
7
100
AcDbPolyline
 90
4
 70
0
 10
9.443971
 20
125.393966
 30
0.0
 10
9.443971
 20
213.398793
 30
0.0
 10
9.195373
 20
213.398793
 30
0.0
 10
9.192617
 20
213.398793
 30
0.0
  0
SPLINE
  5
246
100
AcDbEntity
  8
Livello_1
 62
7
100
AcDbSpline
 70
8
 71
3
 72
8
 73
4
 74
0
 40
0
 40
0
 40
0
 40
0
 40
1
 40
1
 40
1
 40
1
 10
1135.018953
 20
740.279017
 30
0.0
 10
1135.018953
 20
740.279017
 30
0.0
 10
1135.018953
 20
714.266623
 30
0.0
 10
1135.018953
 20
714.266623
 30
0.0
  0
SPLINE
  5
247
100
AcDbEntity
  8
Livello_1
 62
7
100
AcDbSpline
 70
8
 71
3
 72
8
 73
4
 74
0
 40
0
 40
0
 40
0
 40
0
 40
1
 40
1
 40
1
 40
1
 10
1135.018953
 20
714.266623
 30
0.0
 10
1136.434392
 20
714.137285
 30
0.0
 10
1137.518057
 20
712.950629
 30
0.0
 10
1137.518708
 20
711.529294
 30
0.0
  0
SPLINE
  5
248
100
AcDbEntity
  8
Livello_1
 62
7
100
AcDbSpline
 70
8
 71
3
 72
8
 73
4
 74
0
 40
0
 40
0
 40
0
 40
0
 40
1
 40
1
 40
1
 40
1
 10
1137.518708
 20
711.529294
 30
0.0
 10
1137.518725
 20
710.010708
 30
0.0
 10
1136.287829
 20
708.779559
 30
0.0
 10
1134.769243
 20
708.779264
 30
0.0
  0
SPLINE
  5
249
100
AcDbEntity
  8
Livello_1
 62
7
100
AcDbSpline
 70
8
 71
3
 72
8
 73
4
 74
0
 40
0
 40
0
 40
0
 40
0
 40
1
 40
1
 40
1
 40
1
 10
1134.769243
 20
708.779264
 30
0.0
 10
1133.348311
 20
708.780182
 30
0.0
 10
1132.162057
 20
709.863471
 30
0.0
 10
1132.032478
 20
711.278483
 30
0.0
  0
LWPOLYLINE
  5
24a
100
AcDbEntity
  8
Livello_1
 62
7
100
AcDbPolyline
 90
2
 70
0
 10
9.192617
 20
219.398772
 30
0.0
 10
9.192617
 20
219.398772
 30
0.0
  0
SPLINE
  5
24b
100
AcDbEntity
  8
Livello_1
 62
7
100
AcDbSpline
 70
8
 71
3
 72
8
 73
4
 74
0
 40
0
 40
0
 40
0
 40
0
 40
1
 40
1
 40
1
 40
1
 10
983.019144
 20
26.278295
 30
0.0
 10
983.019144
 20
26.278295
 30
0.0
 10
1035.032361
 20
26.278295
 30
0.0
 10
1035.032361
 20
26.278295
 30
0.0
  0
SPLINE
  5
24c
100
AcDbEntity
  8
Livello_1
 62
7
100
AcDbSpline
 70
8
 71
3
 72
8
 73
4
 74
0
 40
0
 40
0
 40
0
 40
0
 40
1
 40
1
 40
1
 40
1
 10
1035.032361
 20
26.278295
 30
0.0
 10
1035.024165
 20
26.361284
 30
0.0
 10
1035.019749
 20
26.444603
 30
0.0
 10
1035.019125
 20
26.527994
 30
0.0
  0
SPLINE
  5
24d
100
AcDbEntity
  8
Livello_1
 62
7
100
AcDbSpline
 70
8
 71
3
 72
8
 73
4
 74
0
 40
0
 40
0
 40
0
 40
0
 40
1
 40
1
 40
1
 40
1
 10
1035.019125
 20
26.527994
 30
0.0
 10
1035.019122
 20
27.257346
 30
0.0
 10
1035.308855
 20
27.956828
 30
0.0
 10
1035.824587
 20
28.472556
 30
0.0
  0
SPLINE
  5
24e
100
AcDbEntity
  8
Livello_1
 62
7
100
AcDbSpline
 70
8
 71
3
 72
8
 73
4
 74
0
 40
0
 40
0
 40
0
 40
0
 40
1
 40
1
 40
1
 40
1
 10
1035.824587
 20
28.472556
 30
0.0
 10
1036.340319
 20
28.988285
 30
0.0
 10
1037.039802
 20
29.278014
 30
0.0
 10
1037.769155
 20
29.278007
 30
0.0
  0
SPLINE
  5
24f
100
AcDbEntity
  8
Livello_1
 62
7
100
AcDbSpline
 70
8
 71
3
 72
8
 73
4
 74
0
 40
0
 40
0
 40
0
 40
0
 40
1
 40
1
 40
1
 40
1
 10
1037.769155
 20
29.278007
 30
0.0
 10
1038.498503
 20
29.278007
 30
0.0
 10
1039.197978
 20
28.988274
 30
0.0
 10
1039.713704
 20
28.472546
 30
0.0
  0
SPLINE
  5
250
100
AcDbEntity
  8
Livello_1
 62
7
100
AcDbSpline
 70
8
 71
3
 72
8
 73
4
 74
0
 40
0
 40
0
 40
0
 40
0
 40
1
 40
1
 40
1
 40
1
 10
1039.713704
 20
28.472546
 30
0.0
 10
1040.229430
 20
27.956818
 30
0.0
 10
1040.519160
 20
27.257342
 30
0.0
 10
1040.519156
 20
26.527994
 30
0.0
  0
SPLINE
  5
251
100
AcDbEntity
  8
Livello_1
 62
7
100
AcDbSpline
 70
8
 71
3
 72
8
 73
4
 74
0
 40
0
 40
0
 40
0
 40
0
 40
1
 40
1
 40
1
 40
1
 10
1040.519156
 20
26.527994
 30
0.0
 10
1040.519160
 20
25.798646
 30
0.0
 10
1040.229430
 20
25.099169
 30
0.0
 10
1039.713704
 20
24.583441
 30
0.0
  0
SPLINE
  5
252
100
AcDbEntity
  8
Livello_1
 62
7
100
AcDbSpline
 70
8
 71
3
 72
8
 73
4
 74
0
 40
0
 40
0
 40
0
 40
0
 40
1
 40
1
 40
1
 40
1
 10
1039.713704
 20
24.583441
 30
0.0
 10
1039.197978
 20
24.067713
 30
0.0
 10
1038.498503
 20
23.777980
 30
0.0
 10
1037.769155
 20
23.777981
 30
0.0
  0
SPLINE
  5
253
100
AcDbEntity
  8
Livello_1
 62
7
100
AcDbSpline
 70
8
 71
3
 72
8
 73
4
 74
0
 40
0
 40
0
 40
0
 40
0
 40
1
 40
1
 40
1
 40
1
 10
1037.769155
 20
23.777981
 30
0.0
 10
1037.685580
 20
23.778401
 30
0.0
 10
1037.602069
 20
23.782632
 30
0.0
 10
1037.518880
 20
23.790658
 30
0.0
  0
LWPOLYLINE
  5
254
100
AcDbEntity
  8
Livello_1
 62
7
100
AcDbPolyline
 90
4
 70
0
 10
1132.032478
 20
711.278483
 30
0.0
 10
983.019144
 20
711.278483
 30
0.0
 10
983.019144
 20
611.778611
 30
0.0
 10
983.019144
 20
26.278295
 30
0.0
  0
SPLINE
  5
255
100
AcDbEntity
  8
Livello_1
 62
7
100
AcDbSpline
 70
8
 71
3
 72
8
 73
4
 74
0
 40
0
 40
0
 40
0
 40
0
 40
1
 40
1
 40
1
 40
1
 10
1211.518814
 20
11.778575
 30
0.0
 10
1211.518814
 20
11.778575
 30
0.0
 10
1211.518814
 20
28.430790
 30
0.0
 10
1211.518814
 20
28.430790
 30
0.0
  0
SPLINE
  5
256
100
AcDbEntity
  8
Livello_1
 62
7
100
AcDbSpline
 70
8
 71
3
 72
8
 73
4
 74
0
 40
0
 40
0
 40
0
 40
0
 40
1
 40
1
 40
1
 40
1
 10
1211.518814
 20
28.430790
 30
0.0
 10
1130.205708
 20
72.167355
 30
0.0
 10
1074.407650
 20
207.755613
 30
0.0
 10
1074.361580
 20
361.720352
 30
0.0
  0
SPLINE
  5
257
100
AcDbEntity
  8
Livello_1
 62
7
100
AcDbSpline
 70
8
 71
3
 72
8
 73
4
 74
0
 40
0
 40
0
 40
0
 40
0
 40
1
 40
1
 40
1
 40
1
 10
1074.361580
 20
361.720352
 30
0.0
 10
1074.388453
 20
531.755549
 30
0.0
 10
1142.128417
 20
676.829252
 30
0.0
 10
1234.518825
 20
704.717352
 30
0.0
  0
LWPOLYLINE
  5
258
100
AcDbEntity
  8
Livello_1
 62
7
100
AcDbPolyline
 90
5
 70
0
 10
1037.518880
 20
23.790658
 30
0.0
 10
1037.518880
 20
11.778575
 30
0.0
 10
1137.018752
 20
11.778575
 30
0.0
 10
1137.519273
 20
11.778575
 30
0.0
 10
1211.518814
 20
11.778575
 30
0.0
  0
SPLINE
  5
259
100
AcDbEntity
  8
Livello_1
 62
7
100
AcDbSpline
 70
8
 71
3
 72
8
 73
4
 74
0
 40
0
 40
0
 40
0
 40
0
 40
1
 40
1
 40
1
 40
1
 10
644.280257
 20
646.045469
 30
0.0
 10
603.180552
 20
644.159018
 30
0.0
 10
564.064359
 20
627.831616
 30
0.0
 10
533.820031
 20
599.938514
 30
0.0
  0
LWPOLYLINE
  5
25a
100
AcDbEntity
  8
Livello_1
 62
7
100
AcDbPolyline
 90
6
 70
0
 10
1234.518825
 20
704.717352
 30
0.0
 10
1234.518825
 20
710.779090
 30
0.0
 10
1234.518825
 20
711.278483
 30
0.0
 10
1234.518825
 20
740.279017
 30
0.0
 10
1135.018953
 20
740.279017
 30
0.0
 10
1135.018953
 20
740.279017
 30
0.0
  0
SPLINE
  5
25b
100
AcDbEntity
  8
Livello_1
 62
7
100
AcDbSpline
 70
8
 71
3
 72
8
 73
4
 74
0
 40
0
 40
0
 40
0
 40
0
 40
1
 40
1
 40
1
 40
1
 10
600.310373
 20
533.802050
 30
0.0
 10
600.368014
 20
533.861927
 30
0.0
 10
600.426085
 20
533.921466
 30
0.0
 10
600.484561
 20
533.980641
 30
0.0
  0
SPLINE
  5
25c
100
AcDbEntity
  8
Livello_1
 62
7
100
AcDbSpline
 70
8
 71
3
 72
8
 73
4
 74
0
 40
0
 40
0
 40
0
 40
0
 40
1
 40
1
 40
1
 40
1
 10
600.484561
 20
533.980641
 30
0.0
 10
603.315774
 20
536.811877
 30
0.0
 10
606.481522
 20
538.236563
 30
0.0
 10
607.555554
 20
537.162809
 30
0.0
  0
SPLINE
  5
25d
100
AcDbEntity
  8
Livello_1
 62
7
100
AcDbSpline
 70
8
 71
3
 72
8
 73
4
 74
0
 40
0
 40
0
 40
0
 40
0
 40
1
 40
1
 40
1
 40
1
 10
607.555554
 20
537.162809
 30
0.0
 10
608.629308
 20
536.088777
 30
0.0
 10
607.204622
 20
532.923029
 30
0.0
 10
604.373386
 20
530.091816
 30
0.0
  0
SPLINE
  5
25e
100
AcDbEntity
  8
Livello_1
 62
7
100
AcDbSpline
 70
8
 71
3
 72
8
 73
4
 74
0
 40
0
 40
0
 40
0
 40
0
 40
1
 40
1
 40
1
 40
1
 10
604.373386
 20
530.091816
 30
0.0
 10
604.313827
 20
530.033691
 30
0.0
 10
604.253921
 20
529.975986
 30
0.0
 10
604.193695
 20
529.918729
 30
0.0
  0
LWPOLYLINE
  5
25f
100
AcDbEntity
  8
Livello_1
 62
7
100
AcDbPolyline
 90
4
 70
0
 10
533.820031
 20
599.938514
 30
0.0
 10
600.131219
 20
533.627298
 30
0.0
 10
600.307608
 20
533.804252
 30
0.0
 10
600.310373
 20
533.802050
 30
0.0
  0
SPLINE
  5
260
100
AcDbEntity
  8
Livello_1
 62
7
100
AcDbSpline
 70
8
 71
3
 72
8
 73
4
 74
0
 40
0
 40
0
 40
0
 40
0
 40
1
 40
1
 40
1
 40
1
 10
593.413568
 20
519.131462
 30
0.0
 10
593.413568
 20
519.131462
 30
0.0
 10
593.408601
 20
519.136401
 30
0.0
 10
593.408601
 20
519.136401
 30
0.0
  0
SPLINE
  5
261
100
AcDbEntity
  8
Livello_1
 62
7
100
AcDbSpline
 70
8
 71
3
 72
8
 73
4
 74
0
 40
0
 40
0
 40
0
 40
0
 40
1
 40
1
 40
1
 40
1
 10
593.408601
 20
519.136401
 30
0.0
 10
590.650262
 20
516.518916
 30
0.0
 10
587.717143
 20
515.281036
 30
0.0
 10
586.695352
 20
516.303172
 30
0.0
  0
SPLINE
  5
262
100
AcDbEntity
  8
Livello_1
 62
7
100
AcDbSpline
 70
8
 71
3
 72
8
 73
4
 74
0
 40
0
 40
0
 40
0
 40
0
 40
1
 40
1
 40
1
 40
1
 10
586.695352
 20
516.303172
 30
0.0
 10
585.677135
 20
517.327179
 30
0.0
 10
586.915501
 20
520.258179
 30
0.0
 10
589.530811
 20
523.014219
 30
0.0
  0
LWPOLYLINE
  5
263
100
AcDbEntity
  8
Livello_1
 62
7
100
AcDbPolyline
 90
6
 70
0
 10
604.193695
 20
529.918729
 30
0.0
 10
604.196997
 20
529.914863
 30
0.0
 10
604.020043
 20
529.738474
 30
0.0
 10
593.943835
 20
519.661729
 30
0.0
 10
593.766882
 20
519.485340
 30
0.0
 10
593.413568
 20
519.131462
 30
0.0
  0
SPLINE
  5
264
100
AcDbEntity
  8
Livello_1
 62
7
100
AcDbSpline
 70
8
 71
3
 72
8
 73
4
 74
0
 40
0
 40
0
 40
0
 40
0
 40
1
 40
1
 40
1
 40
1
 10
523.312221
 20
589.232809
 30
0.0
 10
495.553037
 20
558.868500
 30
0.0
 10
479.396924
 20
519.683839
 30
0.0
 10
477.688684
 20
478.578542
 30
0.0
  0
LWPOLYLINE
  5
265
100
AcDbEntity
  8
Livello_1
 62
7
100
AcDbPolyline
 90
2
 70
0
 10
589.530811
 20
523.014219
 30
0.0
 10
523.312221
 20
589.232809
 30
0.0
  0
SPLINE
  5
266
100
AcDbEntity
  8
Livello_1
 62
7
100
AcDbSpline
 70
8
 71
3
 72
8
 73
4
 74
0
 40
0
 40
0
 40
0
 40
0
 40
1
 40
1
 40
1
 40
1
 10
571.530311
 20
478.828794
 30
0.0
 10
571.530311
 20
478.828794
 30
0.0
 10
571.533613
 20
478.828794
 30
0.0
 10
571.533613
 20
478.828794
 30
0.0
  0
SPLINE
  5
267
100
AcDbEntity
  8
Livello_1
 62
7
100
AcDbSpline
 70
8
 71
3
 72
8
 73
4
 74
0
 40
0
 40
0
 40
0
 40
0
 40
1
 40
1
 40
1
 40
1
 10
571.533613
 20
478.828794
 30
0.0
 10
571.531968
 20
478.911971
 30
0.0
 10
571.530867
 20
478.995216
 30
0.0
 10
571.530311
 20
479.078493
 30
0.0
  0
SPLINE
  5
268
100
AcDbEntity
  8
Livello_1
 62
7
100
AcDbSpline
 70
8
 71
3
 72
8
 73
4
 74
0
 40
0
 40
0
 40
0
 40
0
 40
1
 40
1
 40
1
 40
1
 10
571.530311
 20
479.078493
 30
0.0
 10
571.530297
 20
481.001373
 30
0.0
 10
571.820028
 20
482.845506
 30
0.0
 10
572.335762
 20
484.205180
 30
0.0
  0
SPLINE
  5
269
100
AcDbEntity
  8
Livello_1
 62
7
100
AcDbSpline
 70
8
 71
3
 72
8
 73
4
 74
0
 40
0
 40
0
 40
0
 40
0
 40
1
 40
1
 40
1
 40
1
 10
572.335762
 20
484.205180
 30
0.0
 10
572.851497
 20
485.564855
 30
0.0
 10
573.550986
 20
486.328685
 30
0.0
 10
574.280340
 20
486.328629
 30
0.0
  0
SPLINE
  5
26a
100
AcDbEntity
  8
Livello_1
 62
7
100
AcDbSpline
 70
8
 71
3
 72
8
 73
4
 74
0
 40
0
 40
0
 40
0
 40
0
 40
1
 40
1
 40
1
 40
1
 10
574.280340
 20
486.328629
 30
0.0
 10
575.009690
 20
486.328666
 30
0.0
 10
575.709172
 20
485.564826
 30
0.0
 10
576.224900
 20
484.205154
 30
0.0
  0
SPLINE
  5
26b
100
AcDbEntity
  8
Livello_1
 62
7
100
AcDbSpline
 70
8
 71
3
 72
8
 73
4
 74
0
 40
0
 40
0
 40
0
 40
0
 40
1
 40
1
 40
1
 40
1
 10
576.224900
 20
484.205154
 30
0.0
 10
576.740629
 20
482.845482
 30
0.0
 10
577.030356
 20
481.001360
 30
0.0
 10
577.030342
 20
479.078493
 30
0.0
  0
SPLINE
  5
26c
100
AcDbEntity
  8
Livello_1
 62
7
100
AcDbSpline
 70
8
 71
3
 72
8
 73
4
 74
0
 40
0
 40
0
 40
0
 40
0
 40
1
 40
1
 40
1
 40
1
 10
577.030342
 20
479.078493
 30
0.0
 10
577.029231
 20
478.995191
 30
0.0
 10
577.027575
 20
478.911945
 30
0.0
 10
577.025375
 20
478.828794
 30
0.0
  0
LWPOLYLINE
  5
26d
100
AcDbEntity
  8
Livello_1
 62
7
100
AcDbPolyline
 90
3
 70
0
 10
477.688684
 20
478.578542
 30
0.0
 10
571.530311
 20
478.578542
 30
0.0
 10
571.530311
 20
478.828794
 30
0.0
  0
SPLINE
  5
26e
100
AcDbEntity
  8
Livello_1
 62
7
100
AcDbSpline
 70
8
 71
3
 72
8
 73
4
 74
0
 40
0
 40
0
 40
0
 40
0
 40
1
 40
1
 40
1
 40
1
 10
577.023174
 20
463.578871
 30
0.0
 10
576.923558
 20
459.778431
 30
0.0
 10
575.725298
 20
456.829483
 30
0.0
 10
574.280340
 20
456.828688
 30
0.0
  0
SPLINE
  5
26f
100
AcDbEntity
  8
Livello_1
 62
7
100
AcDbSpline
 70
8
 71
3
 72
8
 73
4
 74
0
 40
0
 40
0
 40
0
 40
0
 40
1
 40
1
 40
1
 40
1
 10
574.280340
 20
456.828688
 30
0.0
 10
572.836220
 20
456.832491
 30
0.0
 10
571.639238
 20
459.780631
 30
0.0
 10
571.539680
 20
463.578871
 30
0.0
  0
SPLINE
  5
270
100
AcDbEntity
  8
Livello_1
 62
7
100
AcDbSpline
 70
8
 71
3
 72
8
 73
4
 74
0
 40
0
 40
0
 40
0
 40
0
 40
1
 40
1
 40
1
 40
1
 10
571.539680
 20
463.578871
 30
0.0
 10
571.539680
 20
463.578871
 30
0.0
 10
477.930097
 20
463.578871
 30
0.0
 10
477.930097
 20
463.578871
 30
0.0
  0
SPLINE
  5
271
100
AcDbEntity
  8
Livello_1
 62
7
100
AcDbSpline
 70
8
 71
3
 72
8
 73
4
 74
0
 40
0
 40
0
 40
0
 40
0
 40
1
 40
1
 40
1
 40
1
 10
477.930097
 20
463.578871
 30
0.0
 10
479.816430
 20
422.507934
 30
0.0
 10
496.123566
 20
383.417196
 30
0.0
 10
523.983599
 20
353.181476
 30
0.0
  0
LWPOLYLINE
  5
272
100
AcDbEntity
  8
Livello_1
 62
7
100
AcDbPolyline
 90
7
 70
0
 10
577.025375
 20
478.828794
 30
0.0
 10
577.030342
 20
478.828794
 30
0.0
 10
577.030342
 20
478.578542
 30
0.0
 10
577.030342
 20
464.328524
 30
0.0
 10
577.030342
 20
464.078825
 30
0.0
 10
577.030342
 20
463.578871
 30
0.0
 10
577.023174
 20
463.578871
 30
0.0
  0
SPLINE
  5
273
100
AcDbEntity
  8
Livello_1
 62
7
100
AcDbSpline
 70
8
 71
3
 72
8
 73
4
 74
0
 40
0
 40
0
 40
0
 40
0
 40
1
 40
1
 40
1
 40
1
 10
590.054446
 20
419.606775
 30
0.0
 10
590.054446
 20
419.606775
 30
0.0
 10
590.057212
 20
419.608979
 30
0.0
 10
590.057212
 20
419.608979
 30
0.0
  0
SPLINE
  5
274
100
AcDbEntity
  8
Livello_1
 62
7
100
AcDbSpline
 70
8
 71
3
 72
8
 73
4
 74
0
 40
0
 40
0
 40
0
 40
0
 40
1
 40
1
 40
1
 40
1
 10
590.057212
 20
419.608979
 30
0.0
 10
589.997150
 20
419.666613
 30
0.0
 10
589.937423
 20
419.724683
 30
0.0
 10
589.878057
 20
419.783164
 30
0.0
  0
SPLINE
  5
275
100
AcDbEntity
  8
Livello_1
 62
7
100
AcDbSpline
 70
8
 71
3
 72
8
 73
4
 74
0
 40
0
 40
0
 40
0
 40
0
 40
1
 40
1
 40
1
 40
1
 10
589.878057
 20
419.783164
 30
0.0
 10
587.046817
 20
422.614387
 30
0.0
 10
585.622142
 20
425.780138
 30
0.0
 10
586.695917
 20
426.854154
 30
0.0
  0
SPLINE
  5
276
100
AcDbEntity
  8
Livello_1
 62
7
100
AcDbSpline
 70
8
 71
3
 72
8
 73
4
 74
0
 40
0
 40
0
 40
0
 40
0
 40
1
 40
1
 40
1
 40
1
 10
586.695917
 20
426.854154
 30
0.0
 10
586.937029
 20
427.095192
 30
0.0
 10
587.294222
 20
427.215940
 30
0.0
 10
587.749283
 20
427.210239
 30
0.0
  0
SPLINE
  5
277
100
AcDbEntity
  8
Livello_1
 62
7
100
AcDbSpline
 70
8
 71
3
 72
8
 73
4
 74
0
 40
0
 40
0
 40
0
 40
0
 40
1
 40
1
 40
1
 40
1
 10
587.749283
 20
427.210239
 30
0.0
 10
589.262963
 20
427.191633
 30
0.0
 10
591.652956
 20
425.786487
 30
0.0
 10
593.767446
 20
423.671988
 30
0.0
  0
SPLINE
  5
278
100
AcDbEntity
  8
Livello_1
 62
7
100
AcDbSpline
 70
8
 71
3
 72
8
 73
4
 74
0
 40
0
 40
0
 40
0
 40
0
 40
1
 40
1
 40
1
 40
1
 10
593.767446
 20
423.671988
 30
0.0
 10
593.825572
 20
423.612428
 30
0.0
 10
593.883276
 20
423.552520
 30
0.0
 10
593.940533
 20
423.492292
 30
0.0
  0
LWPOLYLINE
  5
279
100
AcDbEntity
  8
Livello_1
 62
7
100
AcDbPolyline
 90
3
 70
0
 10
523.983599
 20
353.181476
 30
0.0
 10
590.231399
 20
419.429835
 30
0.0
 10
590.054446
 20
419.606775
 30
0.0
  0
SPLINE
  5
27a
100
AcDbEntity
  8
Livello_1
 62
7
100
AcDbSpline
 70
8
 71
3
 72
8
 73
4
 74
0
 40
0
 40
0
 40
0
 40
0
 40
1
 40
1
 40
1
 40
1
 10
604.727264
 20
412.712173
 30
0.0
 10
604.727264
 20
412.712173
 30
0.0
 10
604.722297
 20
412.707215
 30
0.0
 10
604.722297
 20
412.707215
 30
0.0
  0
SPLINE
  5
27b
100
AcDbEntity
  8
Livello_1
 62
7
100
AcDbSpline
 70
8
 71
3
 72
8
 73
4
 74
0
 40
0
 40
0
 40
0
 40
0
 40
1
 40
1
 40
1
 40
1
 10
604.722297
 20
412.707215
 30
0.0
 10
607.339460
 20
409.948993
 30
0.0
 10
608.577062
 20
407.016217
 30
0.0
 10
607.554990
 20
405.994514
 30
0.0
  0
SPLINE
  5
27c
100
AcDbEntity
  8
Livello_1
 62
7
100
AcDbSpline
 70
8
 71
3
 72
8
 73
4
 74
0
 40
0
 40
0
 40
0
 40
0
 40
1
 40
1
 40
1
 40
1
 10
607.554990
 20
405.994514
 30
0.0
 10
606.531077
 20
404.976358
 30
0.0
 10
603.600429
 20
406.214435
 30
0.0
 10
600.844507
 20
408.829414
 30
0.0
  0
LWPOLYLINE
  5
27d
100
AcDbEntity
  8
Livello_1
 62
7
100
AcDbPolyline
 90
6
 70
0
 10
593.940533
 20
423.492292
 30
0.0
 10
593.943835
 20
423.495599
 30
0.0
 10
594.120760
 20
423.318660
 30
0.0
 10
604.196997
 20
413.242443
 30
0.0
 10
604.372821
 20
413.066055
 30
0.0
 10
604.727264
 20
412.712173
 30
0.0
  0
SPLINE
  5
27e
100
AcDbEntity
  8
Livello_1
 62
7
100
AcDbSpline
 70
8
 71
3
 72
8
 73
4
 74
0
 40
0
 40
0
 40
0
 40
0
 40
1
 40
1
 40
1
 40
1
 10
534.683772
 20
342.668699
 30
0.0
 10
565.025674
 20
314.903414
 30
0.0
 10
604.188456
 20
298.729720
 30
0.0
 10
645.280170
 20
296.993897
 30
0.0
  0
LWPOLYLINE
  5
27f
100
AcDbEntity
  8
Livello_1
 62
7
100
AcDbPolyline
 90
2
 70
0
 10
600.844507
 20
408.829414
 30
0.0
 10
534.683772
 20
342.668699
 30
0.0
  0
SPLINE
  5
280
100
AcDbEntity
  8
Livello_1
 62
7
100
AcDbSpline
 70
8
 71
3
 72
8
 73
4
 74
0
 40
0
 40
0
 40
0
 40
0
 40
1
 40
1
 40
1
 40
1
 10
645.029924
 20
390.832235
 30
0.0
 10
644.946743
 20
390.830589
 30
0.0
 10
644.863494
 20
390.829486
 30
0.0
 10
644.780214
 20
390.828927
 30
0.0
  0
SPLINE
  5
281
100
AcDbEntity
  8
Livello_1
 62
7
100
AcDbSpline
 70
8
 71
3
 72
8
 73
4
 74
0
 40
0
 40
0
 40
0
 40
0
 40
1
 40
1
 40
1
 40
1
 10
644.780214
 20
390.828927
 30
0.0
 10
642.857339
 20
390.828913
 30
0.0
 10
641.013210
 20
391.118641
 30
0.0
 10
639.653535
 20
391.634372
 30
0.0
  0
SPLINE
  5
282
100
AcDbEntity
  8
Livello_1
 62
7
100
AcDbSpline
 70
8
 71
3
 72
8
 73
4
 74
0
 40
0
 40
0
 40
0
 40
0
 40
1
 40
1
 40
1
 40
1
 10
639.653535
 20
391.634372
 30
0.0
 10
638.293859
 20
392.150102
 30
0.0
 10
637.530021
 20
392.849588
 30
0.0
 10
637.530066
 20
393.578940
 30
0.0
  0
SPLINE
  5
283
100
AcDbEntity
  8
Livello_1
 62
7
100
AcDbSpline
 70
8
 71
3
 72
8
 73
4
 74
0
 40
0
 40
0
 40
0
 40
0
 40
1
 40
1
 40
1
 40
1
 10
637.530066
 20
393.578940
 30
0.0
 10
637.530021
 20
394.308293
 30
0.0
 10
638.293859
 20
395.007778
 30
0.0
 10
639.653535
 20
395.523509
 30
0.0
  0
SPLINE
  5
284
100
AcDbEntity
  8
Livello_1
 62
7
100
AcDbSpline
 70
8
 71
3
 72
8
 73
4
 74
0
 40
0
 40
0
 40
0
 40
0
 40
1
 40
1
 40
1
 40
1
 10
639.653535
 20
395.523509
 30
0.0
 10
641.013210
 20
396.039240
 30
0.0
 10
642.857339
 20
396.328968
 30
0.0
 10
644.780214
 20
396.328953
 30
0.0
  0
SPLINE
  5
285
100
AcDbEntity
  8
Livello_1
 62
7
100
AcDbSpline
 70
8
 71
3
 72
8
 73
4
 74
0
 40
0
 40
0
 40
0
 40
0
 40
1
 40
1
 40
1
 40
1
 10
644.780214
 20
396.328953
 30
0.0
 10
644.863519
 20
396.327844
 30
0.0
 10
644.946768
 20
396.326190
 30
0.0
 10
645.029924
 20
396.323992
 30
0.0
  0
LWPOLYLINE
  5
286
100
AcDbEntity
  8
Livello_1
 62
7
100
AcDbPolyline
 90
4
 70
0
 10
645.280170
 20
296.993897
 30
0.0
 10
645.280170
 20
390.828927
 30
0.0
 10
645.029924
 20
390.828927
 30
0.0
 10
645.029924
 20
390.832235
 30
0.0
  0
SPLINE
  5
287
100
AcDbEntity
  8
Livello_1
 62
7
100
AcDbSpline
 70
8
 71
3
 72
8
 73
4
 74
0
 40
0
 40
0
 40
0
 40
0
 40
1
 40
1
 40
1
 40
1
 10
660.280394
 20
396.328953
 30
0.0
 10
660.280394
 20
396.328953
 30
0.0
 10
660.280394
 20
396.321787
 30
0.0
 10
660.280394
 20
396.321787
 30
0.0
  0
SPLINE
  5
288
100
AcDbEntity
  8
Livello_1
 62
7
100
AcDbSpline
 70
8
 71
3
 72
8
 73
4
 74
0
 40
0
 40
0
 40
0
 40
0
 40
1
 40
1
 40
1
 40
1
 10
660.280394
 20
396.321787
 30
0.0
 10
664.080629
 20
396.222066
 30
0.0
 10
667.029266
 20
395.023827
 30
0.0
 10
667.030021
 20
393.578940
 30
0.0
  0
SPLINE
  5
289
100
AcDbEntity
  8
Livello_1
 62
7
100
AcDbSpline
 70
8
 71
3
 72
8
 73
4
 74
0
 40
0
 40
0
 40
0
 40
0
 40
1
 40
1
 40
1
 40
1
 10
667.030021
 20
393.578940
 30
0.0
 10
667.026215
 20
392.134902
 30
0.0
 10
664.078398
 20
390.937960
 30
0.0
 10
660.280394
 20
390.838297
 30
0.0
  0
SPLINE
  5
28a
100
AcDbEntity
  8
Livello_1
 62
7
100
AcDbSpline
 70
8
 71
3
 72
8
 73
4
 74
0
 40
0
 40
0
 40
0
 40
0
 40
1
 40
1
 40
1
 40
1
 10
660.280394
 20
390.838297
 30
0.0
 10
660.280394
 20
390.838297
 30
0.0
 10
660.280394
 20
297.248560
 30
0.0
 10
660.280394
 20
297.248560
 30
0.0
  0
SPLINE
  5
28b
100
AcDbEntity
  8
Livello_1
 62
7
100
AcDbSpline
 70
8
 71
3
 72
8
 73
4
 74
0
 40
0
 40
0
 40
0
 40
0
 40
1
 40
1
 40
1
 40
1
 10
660.280394
 20
297.248560
 30
0.0
 10
701.330126
 20
299.172054
 30
0.0
 10
740.388831
 20
315.500920
 30
0.0
 10
770.593441
 20
343.365985
 30
0.0
  0
LWPOLYLINE
  5
28c
100
AcDbEntity
  8
Livello_1
 62
7
100
AcDbPolyline
 90
6
 70
0
 10
645.029924
 20
396.323992
 30
0.0
 10
645.029924
 20
396.328953
 30
0.0
 10
645.280170
 20
396.328953
 30
0.0
 10
659.530191
 20
396.328953
 30
0.0
 10
659.779873
 20
396.328953
 30
0.0
 10
660.280394
 20
396.328953
 30
0.0
  0
SPLINE
  5
28d
100
AcDbEntity
  8
Livello_1
 62
7
100
AcDbSpline
 70
8
 71
3
 72
8
 73
4
 74
0
 40
0
 40
0
 40
0
 40
0
 40
1
 40
1
 40
1
 40
1
 10
704.253044
 20
409.353619
 30
0.0
 10
704.253044
 20
409.353619
 30
0.0
 10
704.250278
 20
409.355826
 30
0.0
 10
704.250278
 20
409.355826
 30
0.0
  0
SPLINE
  5
28e
100
AcDbEntity
  8
Livello_1
 62
7
100
AcDbSpline
 70
8
 71
3
 72
8
 73
4
 74
0
 40
0
 40
0
 40
0
 40
0
 40
1
 40
1
 40
1
 40
1
 10
704.250278
 20
409.355826
 30
0.0
 10
704.192642
 20
409.295767
 30
0.0
 10
704.134571
 20
409.236043
 30
0.0
 10
704.076090
 20
409.176680
 30
0.0
  0
SPLINE
  5
28f
100
AcDbEntity
  8
Livello_1
 62
7
100
AcDbSpline
 70
8
 71
3
 72
8
 73
4
 74
0
 40
0
 40
0
 40
0
 40
0
 40
1
 40
1
 40
1
 40
1
 10
704.076090
 20
409.176680
 30
0.0
 10
702.716348
 20
407.816873
 30
0.0
 10
701.207368
 20
406.717645
 30
0.0
 10
699.881168
 20
406.120860
 30
0.0
  0
SPLINE
  5
290
100
AcDbEntity
  8
Livello_1
 62
7
100
AcDbSpline
 70
8
 71
3
 72
8
 73
4
 74
0
 40
0
 40
0
 40
0
 40
0
 40
1
 40
1
 40
1
 40
1
 10
699.881168
 20
406.120860
 30
0.0
 10
698.554968
 20
405.524074
 30
0.0
 10
697.520206
 20
405.478625
 30
0.0
 10
697.004561
 20
405.994514
 30
0.0
  0
SPLINE
  5
291
100
AcDbEntity
  8
Livello_1
 62
7
100
AcDbSpline
 70
8
 71
3
 72
8
 73
4
 74
0
 40
0
 40
0
 40
0
 40
0
 40
1
 40
1
 40
1
 40
1
 10
697.004561
 20
405.994514
 30
0.0
 10
695.930810
 20
407.068547
 30
0.0
 10
697.355495
 20
410.234293
 30
0.0
 10
700.186729
 20
413.065504
 30
0.0
  0
SPLINE
  5
292
100
AcDbEntity
  8
Livello_1
 62
7
100
AcDbSpline
 70
8
 71
3
 72
8
 73
4
 74
0
 40
0
 40
0
 40
0
 40
0
 40
1
 40
1
 40
1
 40
1
 10
700.186729
 20
413.065504
 30
0.0
 10
700.186729
 20
413.065504
 30
0.0
 10
700.186729
 20
413.066055
 30
0.0
 10
700.186729
 20
413.066055
 30
0.0
  0
SPLINE
  5
293
100
AcDbEntity
  8
Livello_1
 62
7
100
AcDbSpline
 70
8
 71
3
 72
8
 73
4
 74
0
 40
0
 40
0
 40
0
 40
0
 40
1
 40
1
 40
1
 40
1
 10
700.186729
 20
413.066055
 30
0.0
 10
700.246469
 20
413.124184
 30
0.0
 10
700.306554
 20
413.181886
 30
0.0
 10
700.366956
 20
413.239136
 30
0.0
  0
LWPOLYLINE
  5
294
100
AcDbEntity
  8
Livello_1
 62
7
100
AcDbPolyline
 90
3
 70
0
 10
770.593441
 20
343.365985
 30
0.0
 10
704.429432
 20
409.530008
 30
0.0
 10
704.253044
 20
409.353619
 30
0.0
  0
SPLINE
  5
295
100
AcDbEntity
  8
Livello_1
 62
7
100
AcDbSpline
 70
8
 71
3
 72
8
 73
4
 74
0
 40
0
 40
0
 40
0
 40
0
 40
1
 40
1
 40
1
 40
1
 10
711.147083
 20
424.025869
 30
0.0
 10
711.147083
 20
424.025869
 30
0.0
 10
711.152050
 20
424.020908
 30
0.0
 10
711.152050
 20
424.020908
 30
0.0
  0
SPLINE
  5
296
100
AcDbEntity
  8
Livello_1
 62
7
100
AcDbSpline
 70
8
 71
3
 72
8
 73
4
 74
0
 40
0
 40
0
 40
0
 40
0
 40
1
 40
1
 40
1
 40
1
 10
711.152050
 20
424.020908
 30
0.0
 10
713.129629
 20
425.897549
 30
0.0
 10
715.275407
 20
427.129191
 30
0.0
 10
716.702769
 20
427.206932
 30
0.0
  0
SPLINE
  5
297
100
AcDbEntity
  8
Livello_1
 62
7
100
AcDbSpline
 70
8
 71
3
 72
8
 73
4
 74
0
 40
0
 40
0
 40
0
 40
0
 40
1
 40
1
 40
1
 40
1
 10
716.702769
 20
427.206932
 30
0.0
 10
717.209509
 20
427.234376
 30
0.0
 10
717.604632
 20
427.114415
 30
0.0
 10
717.864734
 20
426.854154
 30
0.0
  0
SPLINE
  5
298
100
AcDbEntity
  8
Livello_1
 62
7
100
AcDbSpline
 70
8
 71
3
 72
8
 73
4
 74
0
 40
0
 40
0
 40
0
 40
0
 40
1
 40
1
 40
1
 40
1
 10
717.864734
 20
426.854154
 30
0.0
 10
718.882458
 20
425.829935
 30
0.0
 10
717.644186
 20
422.899368
 30
0.0
 10
715.029304
 20
420.143660
 30
0.0
  0
SPLINE
  5
299
100
AcDbEntity
  8
Livello_1
 62
7
100
AcDbSpline
 70
8
 71
3
 72
8
 73
4
 74
0
 40
0
 40
0
 40
0
 40
0
 40
1
 40
1
 40
1
 40
1
 10
715.029304
 20
420.143660
 30
0.0
 10
715.029304
 20
420.143660
 30
0.0
 10
781.186144
 20
353.986800
 30
0.0
 10
781.186144
 20
353.986800
 30
0.0
  0
SPLINE
  5
29a
100
AcDbEntity
  8
Livello_1
 62
7
100
AcDbSpline
 70
8
 71
3
 72
8
 73
4
 74
0
 40
0
 40
0
 40
0
 40
0
 40
1
 40
1
 40
1
 40
1
 10
781.186144
 20
353.986800
 30
0.0
 10
808.921791
 20
384.338876
 30
0.0
 10
825.067003
 20
423.498696
 30
0.0
 10
826.782136
 20
464.578776
 30
0.0
  0
LWPOLYLINE
  5
29b
100
AcDbEntity
  8
Livello_1
 62
7
100
AcDbPolyline
 90
6
 70
0
 10
700.366956
 20
413.239136
 30
0.0
 10
700.363654
 20
413.242443
 30
0.0
 10
700.540043
 20
413.419383
 30
0.0
 10
700.540608
 20
413.419383
 30
0.0
 10
710.616816
 20
423.495599
 30
0.0
 10
711.147083
 20
424.025869
 30
0.0
  0
SPLINE
  5
29c
100
AcDbEntity
  8
Livello_1
 62
7
100
AcDbSpline
 70
8
 71
3
 72
8
 73
4
 74
0
 40
0
 40
0
 40
0
 40
0
 40
1
 40
1
 40
1
 40
1
 10
733.027010
 20
464.328524
 30
0.0
 10
733.028664
 20
464.245347
 30
0.0
 10
733.029774
 20
464.162102
 30
0.0
 10
733.030340
 20
464.078825
 30
0.0
  0
SPLINE
  5
29d
100
AcDbEntity
  8
Livello_1
 62
7
100
AcDbSpline
 70
8
 71
3
 72
8
 73
4
 74
0
 40
0
 40
0
 40
0
 40
0
 40
1
 40
1
 40
1
 40
1
 10
733.030340
 20
464.078825
 30
0.0
 10
733.030354
 20
462.155945
 30
0.0
 10
732.740623
 20
460.311812
 30
0.0
 10
732.224889
 20
458.952137
 30
0.0
  0
SPLINE
  5
29e
100
AcDbEntity
  8
Livello_1
 62
7
100
AcDbSpline
 70
8
 71
3
 72
8
 73
4
 74
0
 40
0
 40
0
 40
0
 40
0
 40
1
 40
1
 40
1
 40
1
 10
732.224889
 20
458.952137
 30
0.0
 10
731.709154
 20
457.592463
 30
0.0
 10
731.009665
 20
456.828632
 30
0.0
 10
730.280311
 20
456.828688
 30
0.0
  0
SPLINE
  5
29f
100
AcDbEntity
  8
Livello_1
 62
7
100
AcDbSpline
 70
8
 71
3
 72
8
 73
4
 74
0
 40
0
 40
0
 40
0
 40
0
 40
1
 40
1
 40
1
 40
1
 10
730.280311
 20
456.828688
 30
0.0
 10
729.550961
 20
456.828652
 30
0.0
 10
728.851479
 20
457.592491
 30
0.0
 10
728.335751
 20
458.952164
 30
0.0
  0
SPLINE
  5
2a0
100
AcDbEntity
  8
Livello_1
 62
7
100
AcDbSpline
 70
8
 71
3
 72
8
 73
4
 74
0
 40
0
 40
0
 40
0
 40
0
 40
1
 40
1
 40
1
 40
1
 10
728.335751
 20
458.952164
 30
0.0
 10
727.820022
 20
460.311836
 30
0.0
 10
727.530295
 20
462.155958
 30
0.0
 10
727.530309
 20
464.078825
 30
0.0
  0
SPLINE
  5
2a1
100
AcDbEntity
  8
Livello_1
 62
7
100
AcDbSpline
 70
8
 71
3
 72
8
 73
4
 74
0
 40
0
 40
0
 40
0
 40
0
 40
1
 40
1
 40
1
 40
1
 10
727.530309
 20
464.078825
 30
0.0
 10
727.531232
 20
464.162118
 30
0.0
 10
727.532700
 20
464.245364
 30
0.0
 10
727.534712
 20
464.328524
 30
0.0
  0
LWPOLYLINE
  5
2a2
100
AcDbEntity
  8
Livello_1
 62
7
100
AcDbPolyline
 90
4
 70
0
 10
826.782136
 20
464.578776
 30
0.0
 10
733.030340
 20
464.578776
 30
0.0
 10
733.030340
 20
464.328524
 30
0.0
 10
733.027010
 20
464.328524
 30
0.0
  0
SPLINE
  5
2a3
100
AcDbEntity
  8
Livello_1
 62
7
100
AcDbSpline
 70
8
 71
3
 72
8
 73
4
 74
0
 40
0
 40
0
 40
0
 40
0
 40
1
 40
1
 40
1
 40
1
 10
727.530309
 20
479.578997
 30
0.0
 10
727.530309
 20
479.578997
 30
0.0
 10
727.536913
 20
479.578997
 30
0.0
 10
727.536913
 20
479.578997
 30
0.0
  0
SPLINE
  5
2a4
100
AcDbEntity
  8
Livello_1
 62
7
100
AcDbSpline
 70
8
 71
3
 72
8
 73
4
 74
0
 40
0
 40
0
 40
0
 40
0
 40
1
 40
1
 40
1
 40
1
 10
727.536913
 20
479.578997
 30
0.0
 10
727.636648
 20
483.379791
 30
0.0
 10
728.835211
 20
486.328637
 30
0.0
 10
730.280311
 20
486.328629
 30
0.0
  0
SPLINE
  5
2a5
100
AcDbEntity
  8
Livello_1
 62
7
100
AcDbSpline
 70
8
 71
3
 72
8
 73
4
 74
0
 40
0
 40
0
 40
0
 40
0
 40
1
 40
1
 40
1
 40
1
 10
730.280311
 20
486.328629
 30
0.0
 10
731.724356
 20
486.324847
 30
0.0
 10
732.921309
 20
483.377020
 30
0.0
 10
733.020971
 20
479.578997
 30
0.0
  0
SPLINE
  5
2a6
100
AcDbEntity
  8
Livello_1
 62
7
100
AcDbSpline
 70
8
 71
3
 72
8
 73
4
 74
0
 40
0
 40
0
 40
0
 40
0
 40
1
 40
1
 40
1
 40
1
 10
733.020971
 20
479.578997
 30
0.0
 10
733.020971
 20
479.578997
 30
0.0
 10
826.605182
 20
479.578997
 30
0.0
 10
826.605182
 20
479.578997
 30
0.0
  0
SPLINE
  5
2a7
100
AcDbEntity
  8
Livello_1
 62
7
100
AcDbSpline
 70
8
 71
3
 72
8
 73
4
 74
0
 40
0
 40
0
 40
0
 40
0
 40
1
 40
1
 40
1
 40
1
 10
826.605182
 20
479.578997
 30
0.0
 10
824.658055
 20
520.617088
 30
0.0
 10
808.314071
 20
559.657058
 30
0.0
 10
780.443674
 20
589.842437
 30
0.0
  0
LWPOLYLINE
  5
2a8
100
AcDbEntity
  8
Livello_1
 62
7
100
AcDbPolyline
 90
6
 70
0
 10
727.534712
 20
464.328524
 30
0.0
 10
727.530309
 20
464.328524
 30
0.0
 10
727.530309
 20
464.578776
 30
0.0
 10
727.530309
 20
478.828794
 30
0.0
 10
727.530309
 20
479.078493
 30
0.0
 10
727.530309
 20
479.578997
 30
0.0
  0
SPLINE
  5
2a9
100
AcDbEntity
  8
Livello_1
 62
7
100
AcDbSpline
 70
8
 71
3
 72
8
 73
4
 74
0
 40
0
 40
0
 40
0
 40
0
 40
1
 40
1
 40
1
 40
1
 10
714.503439
 20
523.548889
 30
0.0
 10
714.563316
 20
523.491248
 30
0.0
 10
714.622854
 20
523.433177
 30
0.0
 10
714.682030
 20
523.374701
 30
0.0
  0
SPLINE
  5
2aa
100
AcDbEntity
  8
Livello_1
 62
7
100
AcDbSpline
 70
8
 71
3
 72
8
 73
4
 74
0
 40
0
 40
0
 40
0
 40
0
 40
1
 40
1
 40
1
 40
1
 10
714.682030
 20
523.374701
 30
0.0
 10
716.041836
 20
522.014960
 30
0.0
 10
717.141064
 20
520.505980
 30
0.0
 10
717.737850
 20
519.179780
 30
0.0
  0
SPLINE
  5
2ab
100
AcDbEntity
  8
Livello_1
 62
7
100
AcDbSpline
 70
8
 71
3
 72
8
 73
4
 74
0
 40
0
 40
0
 40
0
 40
0
 40
1
 40
1
 40
1
 40
1
 10
717.737850
 20
519.179780
 30
0.0
 10
718.334636
 20
517.853580
 30
0.0
 10
718.380086
 20
516.818818
 30
0.0
 10
717.864198
 20
516.303172
 30
0.0
  0
SPLINE
  5
2ac
100
AcDbEntity
  8
Livello_1
 62
7
100
AcDbSpline
 70
8
 71
3
 72
8
 73
4
 74
0
 40
0
 40
0
 40
0
 40
0
 40
1
 40
1
 40
1
 40
1
 10
717.864198
 20
516.303172
 30
0.0
 10
716.790166
 20
515.229418
 30
0.0
 10
713.624418
 20
516.654104
 30
0.0
 10
710.793205
 20
519.485340
 30
0.0
  0
SPLINE
  5
2ad
100
AcDbEntity
  8
Livello_1
 62
7
100
AcDbSpline
 70
8
 71
3
 72
8
 73
4
 74
0
 40
0
 40
0
 40
0
 40
0
 40
1
 40
1
 40
1
 40
1
 10
710.793205
 20
519.485340
 30
0.0
 10
710.735074
 20
519.545080
 30
0.0
 10
710.677370
 20
519.605165
 30
0.0
 10
710.620118
 20
519.665568
 30
0.0
  0
LWPOLYLINE
  5
2ae
100
AcDbEntity
  8
Livello_1
 62
7
100
AcDbPolyline
 90
4
 70
0
 10
780.443674
 20
589.842437
 30
0.0
 10
714.329252
 20
523.728044
 30
0.0
 10
714.506177
 20
523.551090
 30
0.0
 10
714.503439
 20
523.548889
 30
0.0
  0
SPLINE
  5
2af
100
AcDbEntity
  8
Livello_1
 62
7
100
AcDbSpline
 70
8
 71
3
 72
8
 73
4
 74
0
 40
0
 40
0
 40
0
 40
0
 40
1
 40
1
 40
1
 40
1
 10
699.833387
 20
530.445130
 30
0.0
 10
699.833387
 20
530.445130
 30
0.0
 10
699.838354
 20
530.450097
 30
0.0
 10
699.838354
 20
530.450097
 30
0.0
  0
SPLINE
  5
2b0
100
AcDbEntity
  8
Livello_1
 62
7
100
AcDbSpline
 70
8
 71
3
 72
8
 73
4
 74
0
 40
0
 40
0
 40
0
 40
0
 40
1
 40
1
 40
1
 40
1
 10
699.838354
 20
530.450097
 30
0.0
 10
697.221296
 20
533.208090
 30
0.0
 10
695.983486
 20
536.140780
 30
0.0
 10
697.005097
 20
537.162809
 30
0.0
  0
SPLINE
  5
2b1
100
AcDbEntity
  8
Livello_1
 62
7
100
AcDbSpline
 70
8
 71
3
 72
8
 73
4
 74
0
 40
0
 40
0
 40
0
 40
0
 40
1
 40
1
 40
1
 40
1
 10
697.005097
 20
537.162809
 30
0.0
 10
698.028774
 20
538.181497
 30
0.0
 10
700.959869
 20
536.943338
 30
0.0
 10
703.716144
 20
534.327915
 30
0.0
  0
SPLINE
  5
2b2
100
AcDbEntity
  8
Livello_1
 62
7
100
AcDbSpline
 70
8
 71
3
 72
8
 73
4
 74
0
 40
0
 40
0
 40
0
 40
0
 40
1
 40
1
 40
1
 40
1
 10
703.716144
 20
534.327915
 30
0.0
 10
703.716144
 20
534.327915
 30
0.0
 10
769.818995
 20
600.430738
 30
0.0
 10
769.818995
 20
600.430738
 30
0.0
  0
SPLINE
  5
2b3
100
AcDbEntity
  8
Livello_1
 62
7
100
AcDbSpline
 70
8
 71
3
 72
8
 73
4
 74
0
 40
0
 40
0
 40
0
 40
0
 40
1
 40
1
 40
1
 40
1
 10
769.818995
 20
600.430738
 30
0.0
 10
739.473707
 20
628.137265
 30
0.0
 10
700.335368
 20
644.264164
 30
0.0
 10
659.279916
 20
645.978215
 30
0.0
  0
LWPOLYLINE
  5
2b4
100
AcDbEntity
  8
Livello_1
 62
7
100
AcDbPolyline
 90
6
 70
0
 10
710.620118
 20
519.665568
 30
0.0
 10
710.616816
 20
519.661729
 30
0.0
 10
710.439863
 20
519.838654
 30
0.0
 10
700.363118
 20
529.915427
 30
0.0
 10
700.187266
 20
530.091816
 30
0.0
 10
699.833387
 20
530.445130
 30
0.0
  0
SPLINE
  5
2b5
100
AcDbEntity
  8
Livello_1
 62
7
100
AcDbSpline
 70
8
 71
3
 72
8
 73
4
 74
0
 40
0
 40
0
 40
0
 40
0
 40
1
 40
1
 40
1
 40
1
 10
659.530191
 20
552.325621
 30
0.0
 10
659.613362
 20
552.327275
 30
0.0
 10
659.696602
 20
552.328386
 30
0.0
 10
659.779873
 20
552.328952
 30
0.0
  0
SPLINE
  5
2b6
100
AcDbEntity
  8
Livello_1
 62
7
100
AcDbSpline
 70
8
 71
3
 72
8
 73
4
 74
0
 40
0
 40
0
 40
0
 40
0
 40
1
 40
1
 40
1
 40
1
 10
659.779873
 20
552.328952
 30
0.0
 10
661.702755
 20
552.328966
 30
0.0
 10
663.546891
 20
552.039236
 30
0.0
 10
664.906568
 20
551.523501
 30
0.0
  0
SPLINE
  5
2b7
100
AcDbEntity
  8
Livello_1
 62
7
100
AcDbSpline
 70
8
 71
3
 72
8
 73
4
 74
0
 40
0
 40
0
 40
0
 40
0
 40
1
 40
1
 40
1
 40
1
 10
664.906568
 20
551.523501
 30
0.0
 10
666.266245
 20
551.007767
 30
0.0
 10
667.030077
 20
550.308277
 30
0.0
 10
667.030021
 20
549.578922
 30
0.0
  0
SPLINE
  5
2b8
100
AcDbEntity
  8
Livello_1
 62
7
100
AcDbSpline
 70
8
 71
3
 72
8
 73
4
 74
0
 40
0
 40
0
 40
0
 40
0
 40
1
 40
1
 40
1
 40
1
 10
667.030021
 20
549.578922
 30
0.0
 10
667.030057
 20
548.849571
 30
0.0
 10
666.266216
 20
548.150089
 30
0.0
 10
664.906542
 20
547.634360
 30
0.0
  0
SPLINE
  5
2b9
100
AcDbEntity
  8
Livello_1
 62
7
100
AcDbSpline
 70
8
 71
3
 72
8
 73
4
 74
0
 40
0
 40
0
 40
0
 40
0
 40
1
 40
1
 40
1
 40
1
 10
664.906542
 20
547.634360
 30
0.0
 10
663.546867
 20
547.118632
 30
0.0
 10
661.702742
 20
546.828905
 30
0.0
 10
659.779873
 20
546.828920
 30
0.0
  0
SPLINE
  5
2ba
100
AcDbEntity
  8
Livello_1
 62
7
100
AcDbSpline
 70
8
 71
3
 72
8
 73
4
 74
0
 40
0
 40
0
 40
0
 40
0
 40
1
 40
1
 40
1
 40
1
 10
659.779873
 20
546.828920
 30
0.0
 10
659.696585
 20
546.829843
 30
0.0
 10
659.613346
 20
546.831311
 30
0.0
 10
659.530191
 20
546.833323
 30
0.0
  0
LWPOLYLINE
  5
2bb
100
AcDbEntity
  8
Livello_1
 62
7
100
AcDbPolyline
 90
4
 70
0
 10
659.279916
 20
645.978215
 30
0.0
 10
659.279916
 20
552.328952
 30
0.0
 10
659.530191
 20
552.328952
 30
0.0
 10
659.530191
 20
552.325621
 30
0.0
  0
SPLINE
  5
2bc
100
AcDbEntity
  8
Livello_1
 62
7
100
AcDbSpline
 70
8
 71
3
 72
8
 73
4
 74
0
 40
0
 40
0
 40
0
 40
0
 40
1
 40
1
 40
1
 40
1
 10
644.280257
 20
546.828920
 30
0.0
 10
644.280257
 20
546.828920
 30
0.0
 10
644.280257
 20
546.835524
 30
0.0
 10
644.280257
 20
546.835524
 30
0.0
  0
SPLINE
  5
2bd
100
AcDbEntity
  8
Livello_1
 62
7
100
AcDbSpline
 70
8
 71
3
 72
8
 73
4
 74
0
 40
0
 40
0
 40
0
 40
0
 40
1
 40
1
 40
1
 40
1
 10
644.280257
 20
546.835524
 30
0.0
 10
640.479242
 20
546.935153
 30
0.0
 10
637.530079
 20
548.133746
 30
0.0
 10
637.530066
 20
549.578922
 30
0.0
  0
SPLINE
  5
2be
100
AcDbEntity
  8
Livello_1
 62
7
100
AcDbSpline
 70
8
 71
3
 72
8
 73
4
 74
0
 40
0
 40
0
 40
0
 40
0
 40
1
 40
1
 40
1
 40
1
 10
637.530066
 20
549.578922
 30
0.0
 10
637.533869
 20
551.023043
 30
0.0
 10
640.482014
 20
552.220026
 30
0.0
 10
644.280257
 20
552.319582
 30
0.0
  0
LWPOLYLINE
  5
2bf
100
AcDbEntity
  8
Livello_1
 62
7
100
AcDbPolyline
 90
6
 70
0
 10
659.530191
 20
546.833323
 30
0.0
 10
659.530191
 20
546.828920
 30
0.0
 10
659.279916
 20
546.828920
 30
0.0
 10
645.029924
 20
546.828920
 30
0.0
 10
644.780214
 20
546.828920
 30
0.0
 10
644.280257
 20
546.828920
 30
0.0
  0
LWPOLYLINE
  5
2c0
100
AcDbEntity
  8
Livello_1
 62
7
100
AcDbPolyline
 90
3
 70
0
 10
644.280257
 20
552.319582
 30
0.0
 10
644.280257
 20
646.045469
 30
0.0
 10
644.280257
 20
646.045469
 30
0.0
  0
ENDSEC
  0
SECTION
  2
OBJECTS
  0
DICTIONARY
  5
C
330
0
100
AcDbDictionary
  3
ACAD_GROUP
350
D
  3
ACAD_MLINESTYLE
350
17
  0
DICTIONARY
  5
D
330
C
100
AcDbDictionary
  0
DICTIONARY
  5
1A
330
C
100
AcDbDictionary
  0
DICTIONARY
  5
17
330
C
100
AcDbDictionary
  3
STANDARD
350
18
  0
DICTIONARY
  5
19
330
C
100
AcDbDictionary
  0
ENDSEC
  0
EOF
