0
SECTION
2
HEADER
9
$INSUNITS
70
4
9
$ACADVER
1
AC1014
9
$HANDSEED
5
FFFF
0
ENDSEC
0
SECTION
2
TABLES
0
TABLE
2
VPORT
5
8
100
AcDbSymbolTable
0
ENDTAB
0
TABLE
2
LTYPE
5
5
100
AcDbSymbolTable
0
LTYPE
5
14
100
AcDbSymbolTableRecord
100
AcDbLinetypeTableRecord
2
BYBLOCK
70
0
0
LTYPE
5
15
100
AcDbSymbolTableRecord
100
AcDbLinetypeTableRecord
2
BYLAYER
70
0
0
ENDTAB
0
TABLE
2
LAYER
5
2
100
AcDbSymbolTable
70
2
0
LAYER
5
50
100
AcDbSymbolTableRecord
100
AcDbLayerTableRecord
2
0
70
0
6
CONTINUOUS
0
ENDTAB
0
TABLE
2
STYLE
5
3
100
AcDbSymbolTable
70
1
0
STYLE
5
11
100
AcDbSymbolTableRecord
100
AcDbTextStyleTableRecord
2
STANDARD
70
0
0
ENDTAB
0
TABLE
2
VIEW
5
6
100
AcDbSymbolTable
70
0
0
ENDTAB
0
TABLE
2
UCS
5
7
100
AcDbSymbolTable
70
0
0
ENDTAB
0
TABLE
2
APPID
5
9
100
AcDbSymbolTable
70
2
0
APPID
5
12
100
AcDbSymbolTableRecord
100
AcDbRegAppTableRecord
2
ACAD
70
0
0
ENDTAB
0
TABLE
2
DIMSTYLE
5
A
100
AcDbSymbolTable
70
1
0
ENDTAB
0
TABLE
2
BLOCK_RECORD
5
1
100
AcDbSymbolTable
70
1
0
BLOCK_RECORD
5
1F
100
AcDbSymbolTableRecord
100
AcDbBlockTableRecord
2
*MODEL_SPACE
0
BLOCK_RECORD
5
1B
100
AcDbSymbolTableRecord
100
AcDbBlockTableRecord
2
*PAPER_SPACE
0
ENDTAB
0
ENDSEC
0
SECTION
2
BLOCKS
0
BLOCK
5
20
100
AcDbEntity
100
AcDbBlockBegin
2
*MODEL_SPACE
0
ENDBLK
5
21
100
AcDbEntity
100
AcDbBlockEnd
0
BLOCK
5
1C
100
AcDbEntity
100
AcDbBlockBegin
2
*PAPER_SPACE
0
ENDBLK
5
1D
100
AcDbEntity
100
AcDbBlockEnd
0
ENDSEC
0
SECTION
2
ENTITIES
0
LINE
5
100
100
AcDbEntity
8
0
100
AcDbLine
10
2.12947874014682
20
0.00053257860824441265
30
0
11
2.162717064572572
21
-24.906277419530337
31
0
0
LINE
5
101
100
AcDbEntity
8
0
100
AcDbLine
10
4.9621808297329313
20
-24.50258683104768
30
0
11
4.9294762468758133
21
0.0042691962452247236
31
0
0
ARC
5
102
100
AcDbEntity
8
0
100
AcDbCircle
10
3.5294774935113153
20
0.0024008874267343089
30
0
40
1.3999999999999959
100
AcDbArc
50
0.076461601356430681
51
180.07646160135641
0
LINE
5
103
100
AcDbEntity
8
0
100
AcDbLine
10
14.120000235438351
20
1.2494347867715538e-15
30
0
11
14.120000235438351
21
-20.630695416083803
31
0
0
LINE
5
104
100
AcDbEntity
8
0
100
AcDbLine
10
16.920000235438348
20
-18.404173223287334
30
0
11
16.920000235438341
21
1.5923358905328119e-15
31
0
0
ARC
5
105
100
AcDbEntity
8
0
100
AcDbCircle
10
15.520000235438348
20
1.1637095108312395e-15
30
0
40
1.3999999999999946
100
AcDbArc
50
0
51
180
0
ARC
5
106
100
AcDbEntity
8
0
100
AcDbCircle
10
9.5264187485125706
20
-0.0071888800129102292
30
0
40
1.3999999999999937
100
AcDbArc
50
179.92353839864359
51
359.92353839864353
0
LINE
5
107
100
AcDbEntity
8
0
100
AcDbLine
10
10.9564176352674
20
22.471246351762556
30
0
11
10.92641750187707
21
-0.0090571888314005932
31
0
0
LINE
5
108
100
AcDbEntity
8
0
100
AcDbLine
10
8.1264199951480762
20
-0.0053205711944203865
30
0
11
8.1584473475865948
21
23.994059533285235
31
0
0
LINE
5
109
100
AcDbEntity
8
0
100
AcDbLine
10
20.000000298023224
20
-1.0883163652547058e-15
30
0
11
20.000000298023224
21
16.000000238418579
31
0
0
LINE
5
110
100
AcDbEntity
8
0
100
AcDbLine
10
22.800000298023217
20
10.254754332022852
30
0
11
22.800000298023217
21
-5.6229678776892926e-16
31
0
0
ARC
5
111
100
AcDbEntity
8
0
100
AcDbCircle
10
21.400000298023222
20
-6.1627950352898279e-16
30
0
40
1.3999999999999968
100
AcDbArc
50
-180
51
0
0
LINE
5
112
100
AcDbEntity
8
0
100
AcDbLine
10
-2.0873465058866509
20
0.0075131467195671021
30
0
11
-2.1182538361597802
21
24.910098367641883
31
0
0
LINE
5
113
100
AcDbEntity
8
0
100
AcDbLine
10
-4.9177634870149376
20
24.511540185916161
30
0
11
-4.8873465058866508
21
0.0040379844423574255
31
0
0
ARC
5
114
100
AcDbEntity
8
0
100
AcDbCircle
10
-3.4873465058866513
20
0.0057755655809622634
30
0
40
1.400001078281089
100
AcDbArc
50
-179.92888856094072
51
0.071111439059288614
0
LINE
5
115
100
AcDbEntity
8
0
100
AcDbLine
10
-8.1062065370680276
20
4.2962672364754631e-05
30
0
11
-8.0768421750588555
21
-23.659345309606323
31
0
0
LINE
5
116
100
AcDbEntity
8
0
100
AcDbLine
10
-10.878273992956746
20
-22.509179348305022
30
0
11
-10.906206537068028
21
-0.0034321996048449241
31
0
0
ARC
5
117
100
AcDbEntity
8
0
100
AcDbCircle
10
-9.506206537068028
20
-0.0016946184662399123
30
0
40
1.4000010782810883
100
AcDbArc
50
0.071111439059288614
51
180.07111143905928
0
LINE
5
118
100
AcDbEntity
8
0
100
AcDbLine
10
-14.114540132037357
20
-0.0074141567055384661
30
0
11
-14.14184836416683
21
21.995313734291276
31
0
0
LINE
5
119
100
AcDbEntity
8
0
100
AcDbLine
10
-16.937375762297219
20
18.388183768027421
30
0
11
-16.914540132037359
21
-0.010889318982748149
31
0
0
ARC
5
120
100
AcDbEntity
8
0
100
AcDbCircle
10
-15.514540132037361
20
-0.0091517378441433057
30
0
40
1.4000010782810883
100
AcDbArc
50
-179.92888856094072
51
0.071111439059288614
0
LINE
5
121
100
AcDbEntity
8
0
100
AcDbLine
10
-20.019840070010147
20
-0.014743397984128357
30
0
11
-20.001243485650342
21
-14.998341875945151
31
0
0
LINE
5
122
100
AcDbEntity
8
0
100
AcDbLine
10
-22.807154966241974
20
-10.238832079188732
30
0
11
-22.819840070010152
21
-0.01821856026133804
31
0
0
ARC
5
123
100
AcDbEntity
8
0
100
AcDbCircle
10
-21.419840070010153
20
-0.016480979122733028
30
0
40
1.400001078281095
100
AcDbArc
50
0.071111439059288614
51
180.07111143905928
0
ARC
5
124
100
AcDbEntity
8
0
100
AcDbCircle
10
0
20
0
30
0
40
25
100
AcDbArc
50
251.15108932768001
51
274.96278562225018
0
ARC
5
125
100
AcDbEntity
8
0
100
AcDbCircle
10
0
20
0
30
0
40
25.000000000000004
100
AcDbArc
50
216.8651476179989
51
244.20637265987261
0
ARC
5
126
100
AcDbEntity
8
0
100
AcDbCircle
10
0
20
0
30
0
40
25.000000000000007
100
AcDbArc
50
132.6482046487221
51
204.17677583920698
0
ARC
5
127
100
AcDbEntity
8
0
100
AcDbCircle
10
0
20
0
30
0
40
25.000000000000004
100
AcDbArc
50
101.34466590062155
51
124.444349082096
0
ARC
5
128
100
AcDbEntity
8
0
100
AcDbCircle
10
0
20
0
30
0
40
25.000000000000004
100
AcDbArc
50
70.954522505568235
51
94.860507822436958
0
ARC
5
129
100
AcDbEntity
8
0
100
AcDbCircle
10
0
20
0
30
0
40
25.000000000000007
100
AcDbArc
50
36.869896507479147
51
64.007295113312182
0
ARC
5
130
100
AcDbEntity
8
0
100
AcDbCircle
10
0
20
0
30
0
40
25.000000000000004
100
AcDbArc
50
281.44851047495797
51
304.38840476002258
0
ARC
5
131
100
AcDbEntity
8
0
100
AcDbCircle
10
0
20
0
30
0
40
25.000000000000004
100
AcDbArc
50
-47.405912258332961
51
24.21678174816514
0
ENDSEC
0
SECTION
2
OBJECTS
0
DICTIONARY
5
C
100
AcDbDictionary
3
ACAD_GROUP
350
D
3
ACAD_MLINESTYLE
350
17
0
DICTIONARY
5
D
100
AcDbDictionary
0
DICTIONARY
5
1A
330
C
100
AcDbDictionary
0
DICTIONARY
5
17
100
AcDbDictionary
0
ENDSEC
0
EOF
