  0
SECTION
  2
HEADER
  9
$ACADVER
  1
AC1014
  9
$ACADMAINTVER
 70
     9
  9
$DWGCODEPAGE
  3
ANSI_1252
  9
$INSBASE
 10
0.0
 20
0.0
 30
0.0
  9
$EXTMIN
 10
1.000000000000000E+20
 20
1.000000000000000E+20
 30
1.000000000000000E+20
  9
$EXTMAX
 10
-1.000000000000000E+20
 20
-1.000000000000000E+20
 30
-1.000000000000000E+20
  9
$LIMMIN
 10
0.0
 20
0.0
  9
$LIMMAX
 10
12.0
 20
9.0
  9
$ORTHOMODE
 70
     0
  9
$REGENMODE
 70
     1
  9
$FILLMODE
 70
     1
  9
$QTEXTMODE
 70
     0
  9
$MIRRTEXT
 70
     1
  9
$DRAGMODE
 70
     2
  9
$LTSCALE
 40
1.0
  9
$OSMODE
 70
    37
  9
$ATTMODE
 70
     1
  9
$TEXTSIZE
 40
0.2
  9
$TRACEWID
 40
0.05
  9
$TEXTSTYLE
  7
STANDARD
  9
$CLAYER
  8
0
  9
$CELTYPE
  6
BYLAYER
  9
$CECOLOR
 62
   256
  9
$CELTSCALE
 40
1.0
  9
$DELOBJ
 70
     1
  9
$DISPSILH
 70
     0
  9
$DIMSCALE
 40
1.0
  9
$DIMASZ
 40
0.18
  9
$DIMEXO
 40
0.0625
  9
$DIMDLI
 40
0.38
  9
$DIMRND
 40
0.0
  9
$DIMDLE
 40
0.0
  9
$DIMEXE
 40
0.18
  9
$DIMTP
 40
0.0
  9
$DIMTM
 40
0.0
  9
$DIMTXT
 40
0.18
  9
$DIMCEN
 40
0.09
  9
$DIMTSZ
 40
0.0
  9
$DIMTOL
 70
     0
  9
$DIMLIM
 70
     0
  9
$DIMTIH
 70
     1
  9
$DIMTOH
 70
     1
  9
$DIMSE1
 70
     0
  9
$DIMSE2
 70
     0
  9
$DIMTAD
 70
     0
  9
$DIMZIN
 70
     0
  9
$DIMBLK
  1

  9
$DIMASO
 70
     1
  9
$DIMSHO
 70
     1
  9
$DIMPOST
  1

  9
$DIMAPOST
  1

  9
$DIMALT
 70
     0
  9
$DIMALTD
 70
     2
  9
$DIMALTF
 40
25.4
  9
$DIMLFAC
 40
1.0
  9
$DIMTOFL
 70
     0
  9
$DIMTVP
 40
0.0
  9
$DIMTIX
 70
     0
  9
$DIMSOXD
 70
     0
  9
$DIMSAH
 70
     0
  9
$DIMBLK1
  1

  9
$DIMBLK2
  1

  9
$DIMSTYLE
  2
STANDARD
  9
$DIMCLRD
 70
     0
  9
$DIMCLRE
 70
     0
  9
$DIMCLRT
 70
     0
  9
$DIMTFAC
 40
1.0
  9
$DIMGAP
 40
0.09
  9
$DIMJUST
 70
     0
  9
$DIMSD1
 70
     0
  9
$DIMSD2
 70
     0
  9
$DIMTOLJ
 70
     1
  9
$DIMTZIN
 70
     0
  9
$DIMALTZ
 70
     0
  9
$DIMALTTZ
 70
     0
  9
$DIMFIT
 70
     3
  9
$DIMUPT
 70
     0
  9
$DIMUNIT
 70
     2
  9
$DIMDEC
 70
     4
  9
$DIMTDEC
 70
     4
  9
$DIMALTU
 70
     2
  9
$DIMALTTD
 70
     2
  9
$DIMTXSTY
  7
STANDARD
  9
$DIMAUNIT
 70
     0
  9
$LUNITS
 70
     2
  9
$LUPREC
 70
     4
  9
$SKETCHINC
 40
0.1
  9
$FILLETRAD
 40
0.5
  9
$AUNITS
 70
     0
  9
$AUPREC
 70
     0
  9
$MENU
  1
.
  9
$ELEVATION
 40
0.0
  9
$PELEVATION
 40
0.0
  9
$THICKNESS
 40
0.0
  9
$LIMCHECK
 70
     0
  9
$CHAMFERA
 40
0.5
  9
$CHAMFERB
 40
0.5
  9
$CHAMFERC
 40
1.0
  9
$CHAMFERD
 40
0.0
  9
$SKPOLY
 70
     0
  9
$TDCREATE
 40
2457841.500129734
  9
$TDUPDATE
 40
2457841.500129745
  9
$TDINDWG
 40
0.0000000116
  9
$TDUSRTIMER
 40
0.0000000116
  9
$USRTIMER
 70
     1
  9
$ANGBASE
 50
0.0
  9
$ANGDIR
 70
     0
  9
$PDMODE
 70
     0
  9
$PDSIZE
 40
0.0
  9
$PLINEWID
 40
0.0
  9
$COORDS
 70
     1
  9
$SPLFRAME
 70
     0
  9
$SPLINETYPE
 70
     6
  9
$SPLINESEGS
 70
     8
  9
$ATTDIA
 70
     0
  9
$ATTREQ
 70
     1
  9
$HANDLING
 70
     1
  9
$HANDSEED
  5
119
  9
$SURFTAB1
 70
     6
  9
$SURFTAB2
 70
     6
  9
$SURFTYPE
 70
     6
  9
$SURFU
 70
     6
  9
$SURFV
 70
     6
  9
$UCSNAME
  2

  9
$UCSORG
 10
0.0
 20
0.0
 30
0.0
  9
$UCSXDIR
 10
1.0
 20
0.0
 30
0.0
  9
$UCSYDIR
 10
0.0
 20
1.0
 30
0.0
  9
$PUCSNAME
  2

  9
$PUCSORG
 10
0.0
 20
0.0
 30
0.0
  9
$PUCSXDIR
 10
1.0
 20
0.0
 30
0.0
  9
$PUCSYDIR
 10
0.0
 20
1.0
 30
0.0
  9
$USERI1
 70
     0
  9
$USERI2
 70
     0
  9
$USERI3
 70
     0
  9
$USERI4
 70
     0
  9
$USERI5
 70
     0
  9
$USERR1
 40
0.0
  9
$USERR2
 40
0.0
  9
$USERR3
 40
0.0
  9
$USERR4
 40
0.0
  9
$USERR5
 40
0.0
  9
$WORLDVIEW
 70
     1
  9
$SHADEDGE
 70
     3
  9
$SHADEDIF
 70
    70
  9
$TILEMODE
 70
     1
  9
$MAXACTVP
 70
    64
  9
$PINSBASE
 10
0.0
 20
0.0
 30
0.0
  9
$PLIMCHECK
 70
     0
  9
$PEXTMIN
 10
1.000000000000000E+20
 20
1.000000000000000E+20
 30
1.000000000000000E+20
  9
$PEXTMAX
 10
-1.000000000000000E+20
 20
-1.000000000000000E+20
 30
-1.000000000000000E+20
  9
$PLIMMIN
 10
0.0
 20
0.0
  9
$PLIMMAX
 10
12.0
 20
9.0
  9
$UNITMODE
 70
     0
  9
$VISRETAIN
 70
     1
  9
$PLINEGEN
 70
     0
  9
$PSLTSCALE
 70
     1
  9
$TREEDEPTH
 70
  3020
  9
$PICKSTYLE
 70
     1
  9
$CMLSTYLE
  2
STANDARD
  9
$CMLJUST
 70
     0
  9
$CMLSCALE
 40
1.0
  9
$PROXYGRAPHICS
 70
     1
  9
$MEASUREMENT
 70
     0
  0
ENDSEC
  0
SECTION
  2
CLASSES
  0
CLASS
  1
ACDBDICTIONARYWDFLT
  2
AcDbDictionaryWithDefault
  3
ObjectDBX Classes
 90
        0
280
     0
281
     0
  0
CLASS
  1
VISUALSTYLE
  2
AcDbVisualStyle
  3
ObjectDBX Classes
 90
     4095
280
     0
281
     0
  0
CLASS
  1
XRECORD
  2
AcDbXrecord
  3
AutoCAD 2000
 90
        0
280
     0
281
     0
  0
CLASS
  1
LWPOLYLINE
  2
AcDbPolyline
  3
AutoCAD 2000
 90
        0
280
     0
281
     1
  0
CLASS
  1
HATCH
  2
AcDbHatch
  3
AutoCAD 2000
 90
        0
280
     0
281
     1
  0
CLASS
  1
ACDBPLACEHOLDER
  2
AcDbPlaceHolder
  3
ObjectDBX Classes
 90
        0
280
     0
281
     0
  0
CLASS
  1
LAYOUT
  2
AcDbLayout
  3
ObjectDBX Classes
 90
        0
280
     0
281
     0
  0
ENDSEC
  0
SECTION
  2
TABLES
  0
TABLE
  2
VPORT
  5
8
330
0
100
AcDbSymbolTable
 70
     1
  0
VPORT
  5
29
330
8
100
AcDbSymbolTableRecord
100
AcDbViewportTableRecord
  2
*ACTIVE
 70
     0
 10
0.0
 20
0.0
 11
1.0
 21
1.0
 12
0.0
 22
0.0
 13
0.0
 23
0.0
 14
0.5
 24
0.5
 15
0.5
 25
0.5
 16
0.0
 26
0.0
 36
1.0
 17
100.00009763125
 27
-49.99918754175368
 37
0.0
 40
99.99837508350736
 41
2.000034451514661
 42
50.0
 43
0.0
 44
0.0
 50
0.0
 51
0.0
 71
     0
 72
   100
 73
     1
 74
     3
 75
     0
 76
     0
 77
     0
 78
     0
  0
ENDTAB
  0
TABLE
  2
LTYPE
  5
5
330
0
100
AcDbSymbolTable
 70
     1
  0
LTYPE
  5
14
330
5
100
AcDbSymbolTableRecord
100
AcDbLinetypeTableRecord
  2
BYBLOCK
 70
     0
  3

 72
    65
 73
     0
 40
0.0
  0
LTYPE
  5
15
330
5
100
AcDbSymbolTableRecord
100
AcDbLinetypeTableRecord
  2
BYLAYER
 70
     0
  3

 72
    65
 73
     0
 40
0.0
  0
LTYPE
  5
16
330
5
100
AcDbSymbolTableRecord
100
AcDbLinetypeTableRecord
  2
CONTINUOUS
 70
     0
  3
Solid line
 72
    65
 73
     0
 40
0.0
  0
ENDTAB
  0
TABLE
  2
LAYER
  5
2
330
0
100
AcDbSymbolTable
 70
     2
  0
LAYER
  5
10
330
2
100
AcDbSymbolTableRecord
100
AcDbLayerTableRecord
  2
0
 70
     0
 62
     7
  6
CONTINUOUS
  0
LAYER
  5
3B
330
2
100
AcDbSymbolTableRecord
100
AcDbLayerTableRecord
  2
CAPA_1
 70
     0
 62
     7
  6
CONTINUOUS
  0
ENDTAB
  0
TABLE
  2
STYLE
  5
3
330
0
100
AcDbSymbolTable
 70
     1
  0
STYLE
  5
11
330
3
100
AcDbSymbolTableRecord
100
AcDbTextStyleTableRecord
  2
STANDARD
 70
     0
 40
0.0
 41
1.0
 50
0.0
 71
     0
 42
0.2
  3
txt
  4

  0
ENDTAB
  0
TABLE
  2
VIEW
  5
6
330
0
100
AcDbSymbolTable
 70
     0
  0
ENDTAB
  0
TABLE
  2
UCS
  5
7
330
0
100
AcDbSymbolTable
 70
     0
  0
ENDTAB
  0
TABLE
  2
APPID
  5
9
330
0
100
AcDbSymbolTable
 70
     1
  0
APPID
  5
12
330
9
100
AcDbSymbolTableRecord
100
AcDbRegAppTableRecord
  2
ACAD
 70
     0
  0
ENDTAB
  0
TABLE
  2
DIMSTYLE
  5
A
330
0
100
AcDbSymbolTable
 70
     1
  0
DIMSTYLE
105
27
330
A
100
AcDbSymbolTableRecord
100
AcDbDimStyleTableRecord
  2
STANDARD
 70
     0
  3

  4

  5

  6

  7

 40
1.0
 41
0.18
 42
0.0625
 43
0.38
 44
0.18
 45
0.0
 46
0.0
 47
0.0
 48
0.0
140
0.18
141
0.09
142
0.0
143
25.4
144
1.0
145
0.0
146
1.0
147
0.09
 71
     0
 72
     0
 73
     1
 74
     1
 75
     0
 76
     0
 77
     0
 78
     0
170
     0
171
     2
172
     0
173
     0
174
     0
175
     0
176
     0
177
     0
178
     0
270
     2
271
     4
272
     4
273
     2
274
     2
340
11
275
     0
280
     0
281
     0
282
     0
283
     1
284
     0
285
     0
286
     0
287
     3
288
     0
  0
ENDTAB
  0
TABLE
  2
BLOCK_RECORD
  5
1
330
0
100
AcDbSymbolTable
 70
    23
  0
BLOCK_RECORD
  5
1F
330
1
100
AcDbSymbolTableRecord
100
AcDbBlockTableRecord
  2
*MODEL_SPACE
  0
BLOCK_RECORD
  5
1B
330
1
100
AcDbSymbolTableRecord
100
AcDbBlockTableRecord
  2
*PAPER_SPACE
  0
BLOCK_RECORD
  5
3C
330
1
100
AcDbSymbolTableRecord
100
AcDbBlockTableRecord
  2
BLOCK_2
  0
BLOCK_RECORD
  5
40
330
1
100
AcDbSymbolTableRecord
100
AcDbBlockTableRecord
  2
BLOCK_3
  0
BLOCK_RECORD
  5
4B
330
1
100
AcDbSymbolTableRecord
100
AcDbBlockTableRecord
  2
BLOCK_4
  0
BLOCK_RECORD
  5
4F
330
1
100
AcDbSymbolTableRecord
100
AcDbBlockTableRecord
  2
BLOCK_5
  0
BLOCK_RECORD
  5
5A
330
1
100
AcDbSymbolTableRecord
100
AcDbBlockTableRecord
  2
BLOCK_6
  0
BLOCK_RECORD
  5
5E
330
1
100
AcDbSymbolTableRecord
100
AcDbBlockTableRecord
  2
BLOCK_7
  0
BLOCK_RECORD
  5
69
330
1
100
AcDbSymbolTableRecord
100
AcDbBlockTableRecord
  2
BLOCK_8
  0
BLOCK_RECORD
  5
6D
330
1
100
AcDbSymbolTableRecord
100
AcDbBlockTableRecord
  2
BLOCK_9
  0
BLOCK_RECORD
  5
78
330
1
100
AcDbSymbolTableRecord
100
AcDbBlockTableRecord
  2
BLOCK_10
  0
BLOCK_RECORD
  5
7C
330
1
100
AcDbSymbolTableRecord
100
AcDbBlockTableRecord
  2
BLOCK_11
  0
BLOCK_RECORD
  5
87
330
1
100
AcDbSymbolTableRecord
100
AcDbBlockTableRecord
  2
BLOCK_12
  0
BLOCK_RECORD
  5
8B
330
1
100
AcDbSymbolTableRecord
100
AcDbBlockTableRecord
  2
BLOCK_13
  0
BLOCK_RECORD
  5
96
330
1
100
AcDbSymbolTableRecord
100
AcDbBlockTableRecord
  2
BLOCK_14
  0
BLOCK_RECORD
  5
9A
330
1
100
AcDbSymbolTableRecord
100
AcDbBlockTableRecord
  2
BLOCK_15
  0
BLOCK_RECORD
  5
A5
330
1
100
AcDbSymbolTableRecord
100
AcDbBlockTableRecord
  2
BLOCK_16
  0
BLOCK_RECORD
  5
A9
330
1
100
AcDbSymbolTableRecord
100
AcDbBlockTableRecord
  2
BLOCK_17
  0
BLOCK_RECORD
  5
B4
330
1
100
AcDbSymbolTableRecord
100
AcDbBlockTableRecord
  2
BLOCK_18
  0
BLOCK_RECORD
  5
B8
330
1
100
AcDbSymbolTableRecord
100
AcDbBlockTableRecord
  2
BLOCK_19
  0
BLOCK_RECORD
  5
CB
330
1
100
AcDbSymbolTableRecord
100
AcDbBlockTableRecord
  2
BLOCK_20
  0
BLOCK_RECORD
  5
D6
330
1
100
AcDbSymbolTableRecord
100
AcDbBlockTableRecord
  2
BLOCK_21
  0
BLOCK_RECORD
  5
E1
330
1
100
AcDbSymbolTableRecord
100
AcDbBlockTableRecord
  2
BLOCK_22
  0
BLOCK_RECORD
  5
E5
330
1
100
AcDbSymbolTableRecord
100
AcDbBlockTableRecord
  2
BLOCK_23
  0
ENDTAB
  0
ENDSEC
  0
SECTION
  2
BLOCKS
  0
BLOCK
  5
20
330
1F
100
AcDbEntity
  8
0
100
AcDbBlockBegin
  2
*MODEL_SPACE
 70
     0
 71
     0
 10
0.0
 20
0.0
 30
0.0
  3
*MODEL_SPACE
  1

  0
ENDBLK
  5
21
330
1F
100
AcDbEntity
  8
0
100
AcDbBlockEnd
  0
BLOCK
  5
1C
330
1B
100
AcDbEntity
 67
     1
  8
0
100
AcDbBlockBegin
  2
*PAPER_SPACE
 70
     0
 71
     0
 10
0.0
 20
0.0
 30
0.0
  3
*PAPER_SPACE
  1

  0
ENDBLK
  5
1D
330
1B
100
AcDbEntity
 67
     1
  8
0
100
AcDbBlockEnd
  0
BLOCK
  5
3E
330
3C
100
AcDbEntity
  8
0
100
AcDbBlockBegin
  2
BLOCK_2
 70
     0
 71
     0
 10
0.0
 20
0.0
 30
0.0
  3
BLOCK_2
  1

  0
INSERT
  5
41
330
3C
100
AcDbEntity
  8
CAPA_1
100
AcDbBlockReference
  2
BLOCK_3
 10
0.0
 20
0.0
 30
0.0
  0
ENDBLK
  5
3F
330
3C
100
AcDbEntity
  8
0
100
AcDbBlockEnd
  0
BLOCK
  5
42
330
40
100
AcDbEntity
  8
0
100
AcDbBlockBegin
  2
BLOCK_3
 70
     0
 71
     0
 10
0.0
 20
0.0
 30
0.0
  3
BLOCK_3
  1

  0
POLYLINE
  5
44
330
40
100
AcDbEntity
  8
CAPA_1
 62
   250
100
AcDb2dPolyline
 66
     1
 10
0.0
 20
0.0
 30
0.0
  0
VERTEX
  5
45
330
44
100
AcDbEntity
  8
CAPA_1
 62
   250
100
AcDbVertex
100
AcDb2dVertex
 10
37.81750216068451
 20
-66.20026582546383
 30
0.0
  0
VERTEX
  5
46
330
44
100
AcDbEntity
  8
CAPA_1
 62
   250
100
AcDbVertex
100
AcDb2dVertex
 10
37.21753878192825
 20
-66.20026582546383
 30
0.0
  0
VERTEX
  5
47
330
44
100
AcDbEntity
  8
CAPA_1
 62
   250
100
AcDbVertex
100
AcDb2dVertex
 10
37.21753878192825
 20
-59.76207138262893
 30
0.0
  0
VERTEX
  5
48
330
44
100
AcDbEntity
  8
CAPA_1
 62
   250
100
AcDbVertex
100
AcDb2dVertex
 10
37.81750216068451
 20
-59.76207138262893
 30
0.0
  0
VERTEX
  5
49
330
44
100
AcDbEntity
  8
CAPA_1
 62
   250
100
AcDbVertex
100
AcDb2dVertex
 10
37.81750216068451
 20
-66.20026582546383
 30
0.0
  0
SEQEND
  5
4A
330
44
100
AcDbEntity
  8
CAPA_1
  0
ENDBLK
  5
43
330
40
100
AcDbEntity
  8
0
100
AcDbBlockEnd
  0
BLOCK
  5
4D
330
4B
100
AcDbEntity
  8
0
100
AcDbBlockBegin
  2
BLOCK_4
 70
     0
 71
     0
 10
0.0
 20
0.0
 30
0.0
  3
BLOCK_4
  1

  0
INSERT
  5
50
330
4B
100
AcDbEntity
  8
CAPA_1
100
AcDbBlockReference
  2
BLOCK_5
 10
0.0
 20
0.0
 30
0.0
  0
ENDBLK
  5
4E
330
4B
100
AcDbEntity
  8
0
100
AcDbBlockEnd
  0
BLOCK
  5
51
330
4F
100
AcDbEntity
  8
0
100
AcDbBlockBegin
  2
BLOCK_5
 70
     0
 71
     0
 10
0.0
 20
0.0
 30
0.0
  3
BLOCK_5
  1

  0
POLYLINE
  5
53
330
4F
100
AcDbEntity
  8
CAPA_1
 62
   250
100
AcDb2dPolyline
 66
     1
 10
0.0
 20
0.0
 30
0.0
  0
VERTEX
  5
54
330
53
100
AcDbEntity
  8
CAPA_1
 62
   250
100
AcDbVertex
100
AcDb2dVertex
 10
37.79975991893548
 20
-75.64740666511592
 30
0.0
  0
VERTEX
  5
55
330
53
100
AcDbEntity
  8
CAPA_1
 62
   250
100
AcDbVertex
100
AcDb2dVertex
 10
37.19979654017922
 20
-75.64740666511592
 30
0.0
  0
VERTEX
  5
56
330
53
100
AcDbEntity
  8
CAPA_1
 62
   250
100
AcDbVertex
100
AcDb2dVertex
 10
37.19979654017922
 20
-69.20921222228104
 30
0.0
  0
VERTEX
  5
57
330
53
100
AcDbEntity
  8
CAPA_1
 62
   250
100
AcDbVertex
100
AcDb2dVertex
 10
37.79975991893548
 20
-69.20921222228104
 30
0.0
  0
VERTEX
  5
58
330
53
100
AcDbEntity
  8
CAPA_1
 62
   250
100
AcDbVertex
100
AcDb2dVertex
 10
37.79975991893548
 20
-75.64740666511592
 30
0.0
  0
SEQEND
  5
59
330
53
100
AcDbEntity
  8
CAPA_1
  0
ENDBLK
  5
52
330
4F
100
AcDbEntity
  8
0
100
AcDbBlockEnd
  0
BLOCK
  5
5C
330
5A
100
AcDbEntity
  8
0
100
AcDbBlockBegin
  2
BLOCK_6
 70
     0
 71
     0
 10
0.0
 20
0.0
 30
0.0
  3
BLOCK_6
  1

  0
INSERT
  5
5F
330
5A
100
AcDbEntity
  8
CAPA_1
100
AcDbBlockReference
  2
BLOCK_7
 10
0.0
 20
0.0
 30
0.0
  0
ENDBLK
  5
5D
330
5A
100
AcDbEntity
  8
0
100
AcDbBlockEnd
  0
BLOCK
  5
60
330
5E
100
AcDbEntity
  8
0
100
AcDbBlockBegin
  2
BLOCK_7
 70
     0
 71
     0
 10
0.0
 20
0.0
 30
0.0
  3
BLOCK_7
  1

  0
POLYLINE
  5
62
330
5E
100
AcDbEntity
  8
CAPA_1
 62
   250
100
AcDb2dPolyline
 66
     1
 10
0.0
 20
0.0
 30
0.0
  0
VERTEX
  5
63
330
62
100
AcDbEntity
  8
CAPA_1
 62
   250
100
AcDbVertex
100
AcDb2dVertex
 10
37.24923366039256
 20
-34.33795572058218
 30
0.0
  0
VERTEX
  5
64
330
62
100
AcDbEntity
  8
CAPA_1
 62
   250
100
AcDbVertex
100
AcDb2dVertex
 10
37.84919703914881
 20
-34.33795572058218
 30
0.0
  0
VERTEX
  5
65
330
62
100
AcDbEntity
  8
CAPA_1
 62
   250
100
AcDbVertex
100
AcDb2dVertex
 10
37.84936929392308
 20
-40.77615016341708
 30
0.0
  0
VERTEX
  5
66
330
62
100
AcDbEntity
  8
CAPA_1
 62
   250
100
AcDbVertex
100
AcDb2dVertex
 10
37.24923366039256
 20
-40.77632241819133
 30
0.0
  0
VERTEX
  5
67
330
62
100
AcDbEntity
  8
CAPA_1
 62
   250
100
AcDbVertex
100
AcDb2dVertex
 10
37.24923366039256
 20
-34.33795572058218
 30
0.0
  0
SEQEND
  5
68
330
62
100
AcDbEntity
  8
CAPA_1
  0
ENDBLK
  5
61
330
5E
100
AcDbEntity
  8
0
100
AcDbBlockEnd
  0
BLOCK
  5
6B
330
69
100
AcDbEntity
  8
0
100
AcDbBlockBegin
  2
BLOCK_8
 70
     0
 71
     0
 10
0.0
 20
0.0
 30
0.0
  3
BLOCK_8
  1

  0
INSERT
  5
6E
330
69
100
AcDbEntity
  8
CAPA_1
100
AcDbBlockReference
  2
BLOCK_9
 10
0.0
 20
0.0
 30
0.0
  0
ENDBLK
  5
6C
330
69
100
AcDbEntity
  8
0
100
AcDbBlockEnd
  0
BLOCK
  5
6F
330
6D
100
AcDbEntity
  8
0
100
AcDbBlockBegin
  2
BLOCK_9
 70
     0
 71
     0
 10
0.0
 20
0.0
 30
0.0
  3
BLOCK_9
  1

  0
POLYLINE
  5
71
330
6D
100
AcDbEntity
  8
CAPA_1
 62
   250
100
AcDb2dPolyline
 66
     1
 10
0.0
 20
0.0
 30
0.0
  0
VERTEX
  5
72
330
71
100
AcDbEntity
  8
CAPA_1
 62
   250
100
AcDbVertex
100
AcDb2dVertex
 10
37.23166367341778
 20
-24.8911593904786
 30
0.0
  0
VERTEX
  5
73
330
71
100
AcDbEntity
  8
CAPA_1
 62
   250
100
AcDbVertex
100
AcDb2dVertex
 10
37.83179930694831
 20
-24.8911593904786
 30
0.0
  0
VERTEX
  5
74
330
71
100
AcDbEntity
  8
CAPA_1
 62
   250
100
AcDbVertex
100
AcDb2dVertex
 10
37.83179930694831
 20
-31.3293538333135
 30
0.0
  0
VERTEX
  5
75
330
71
100
AcDbEntity
  8
CAPA_1
 62
   250
100
AcDbVertex
100
AcDb2dVertex
 10
37.23183592819204
 20
-31.3293538333135
 30
0.0
  0
VERTEX
  5
76
330
71
100
AcDbEntity
  8
CAPA_1
 62
   250
100
AcDbVertex
100
AcDb2dVertex
 10
37.23166367341778
 20
-24.8911593904786
 30
0.0
  0
SEQEND
  5
77
330
71
100
AcDbEntity
  8
CAPA_1
  0
ENDBLK
  5
70
330
6D
100
AcDbEntity
  8
0
100
AcDbBlockEnd
  0
BLOCK
  5
7A
330
78
100
AcDbEntity
  8
0
100
AcDbBlockBegin
  2
BLOCK_10
 70
     0
 71
     0
 10
0.0
 20
0.0
 30
0.0
  3
BLOCK_10
  1

  0
INSERT
  5
7D
330
78
100
AcDbEntity
  8
CAPA_1
100
AcDbBlockReference
  2
BLOCK_11
 10
0.0
 20
0.0
 30
0.0
  0
ENDBLK
  5
7B
330
78
100
AcDbEntity
  8
0
100
AcDbBlockEnd
  0
BLOCK
  5
7E
330
7C
100
AcDbEntity
  8
0
100
AcDbBlockBegin
  2
BLOCK_11
 70
     0
 71
     0
 10
0.0
 20
0.0
 30
0.0
  3
BLOCK_11
  1

  0
POLYLINE
  5
80
330
7C
100
AcDbEntity
  8
CAPA_1
 62
   250
100
AcDb2dPolyline
 66
     1
 10
0.0
 20
0.0
 30
0.0
  0
VERTEX
  5
81
330
80
100
AcDbEntity
  8
CAPA_1
 62
   250
100
AcDbVertex
100
AcDb2dVertex
 10
86.13875594634726
 20
-34.45870631734019
 30
0.0
  0
VERTEX
  5
82
330
80
100
AcDbEntity
  8
CAPA_1
 62
   250
100
AcDbVertex
100
AcDb2dVertex
 10
86.73889157987779
 20
-34.45870631734019
 30
0.0
  0
VERTEX
  5
83
330
80
100
AcDbEntity
  8
CAPA_1
 62
   250
100
AcDbVertex
100
AcDb2dVertex
 10
86.73889157987779
 20
-40.89707301494934
 30
0.0
  0
VERTEX
  5
84
330
80
100
AcDbEntity
  8
CAPA_1
 62
   250
100
AcDbVertex
100
AcDb2dVertex
 10
86.13875594634726
 20
-40.89707301494934
 30
0.0
  0
VERTEX
  5
85
330
80
100
AcDbEntity
  8
CAPA_1
 62
   250
100
AcDbVertex
100
AcDb2dVertex
 10
86.13875594634726
 20
-34.45870631734019
 30
0.0
  0
SEQEND
  5
86
330
80
100
AcDbEntity
  8
CAPA_1
  0
ENDBLK
  5
7F
330
7C
100
AcDbEntity
  8
0
100
AcDbBlockEnd
  0
BLOCK
  5
89
330
87
100
AcDbEntity
  8
0
100
AcDbBlockBegin
  2
BLOCK_12
 70
     0
 71
     0
 10
0.0
 20
0.0
 30
0.0
  3
BLOCK_12
  1

  0
INSERT
  5
8C
330
87
100
AcDbEntity
  8
CAPA_1
100
AcDbBlockReference
  2
BLOCK_13
 10
0.0
 20
0.0
 30
0.0
  0
ENDBLK
  5
8A
330
87
100
AcDbEntity
  8
0
100
AcDbBlockEnd
  0
BLOCK
  5
8D
330
8B
100
AcDbEntity
  8
0
100
AcDbBlockBegin
  2
BLOCK_13
 70
     0
 71
     0
 10
0.0
 20
0.0
 30
0.0
  3
BLOCK_13
  1

  0
POLYLINE
  5
8F
330
8B
100
AcDbEntity
  8
CAPA_1
 62
   250
100
AcDb2dPolyline
 66
     1
 10
0.0
 20
0.0
 30
0.0
  0
VERTEX
  5
90
330
8F
100
AcDbEntity
  8
CAPA_1
 62
   250
100
AcDbVertex
100
AcDb2dVertex
 10
86.12118595937248
 20
-25.01190998723661
 30
0.0
  0
VERTEX
  5
91
330
8F
100
AcDbEntity
  8
CAPA_1
 62
   250
100
AcDbVertex
100
AcDb2dVertex
 10
86.72132159290301
 20
-25.01190998723661
 30
0.0
  0
VERTEX
  5
92
330
8F
100
AcDbEntity
  8
CAPA_1
 62
   250
100
AcDbVertex
100
AcDb2dVertex
 10
86.72132159290301
 20
-31.4501044300715
 30
0.0
  0
VERTEX
  5
93
330
8F
100
AcDbEntity
  8
CAPA_1
 62
   250
100
AcDbVertex
100
AcDb2dVertex
 10
86.12118595937248
 20
-31.4501044300715
 30
0.0
  0
VERTEX
  5
94
330
8F
100
AcDbEntity
  8
CAPA_1
 62
   250
100
AcDbVertex
100
AcDb2dVertex
 10
86.12118595937248
 20
-25.01190998723661
 30
0.0
  0
SEQEND
  5
95
330
8F
100
AcDbEntity
  8
CAPA_1
  0
ENDBLK
  5
8E
330
8B
100
AcDbEntity
  8
0
100
AcDbBlockEnd
  0
BLOCK
  5
98
330
96
100
AcDbEntity
  8
0
100
AcDbBlockBegin
  2
BLOCK_14
 70
     0
 71
     0
 10
0.0
 20
0.0
 30
0.0
  3
BLOCK_14
  1

  0
INSERT
  5
9B
330
96
100
AcDbEntity
  8
CAPA_1
100
AcDbBlockReference
  2
BLOCK_15
 10
0.0
 20
0.0
 30
0.0
  0
ENDBLK
  5
99
330
96
100
AcDbEntity
  8
0
100
AcDbBlockEnd
  0
BLOCK
  5
9C
330
9A
100
AcDbEntity
  8
0
100
AcDbBlockBegin
  2
BLOCK_15
 70
     0
 71
     0
 10
0.0
 20
0.0
 30
0.0
  3
BLOCK_15
  1

  0
POLYLINE
  5
9E
330
9A
100
AcDbEntity
  8
CAPA_1
 62
   250
100
AcDb2dPolyline
 66
     1
 10
0.0
 20
0.0
 30
0.0
  0
VERTEX
  5
9F
330
9E
100
AcDbEntity
  8
CAPA_1
 62
   250
100
AcDbVertex
100
AcDb2dVertex
 10
86.70375160592823
 20
-66.23264972302518
 30
0.0
  0
VERTEX
  5
A0
330
9E
100
AcDbEntity
  8
CAPA_1
 62
   250
100
AcDbVertex
100
AcDb2dVertex
 10
86.1036159723977
 20
-66.23264972302518
 30
0.0
  0
VERTEX
  5
A1
330
9E
100
AcDbEntity
  8
CAPA_1
 62
   250
100
AcDbVertex
100
AcDb2dVertex
 10
86.1036159723977
 20
-59.79445528019028
 30
0.0
  0
VERTEX
  5
A2
330
9E
100
AcDbEntity
  8
CAPA_1
 62
   250
100
AcDbVertex
100
AcDb2dVertex
 10
86.70375160592823
 20
-59.79445528019028
 30
0.0
  0
VERTEX
  5
A3
330
9E
100
AcDbEntity
  8
CAPA_1
 62
   250
100
AcDbVertex
100
AcDb2dVertex
 10
86.70375160592823
 20
-66.23264972302518
 30
0.0
  0
SEQEND
  5
A4
330
9E
100
AcDbEntity
  8
CAPA_1
  0
ENDBLK
  5
9D
330
9A
100
AcDbEntity
  8
0
100
AcDbBlockEnd
  0
BLOCK
  5
A7
330
A5
100
AcDbEntity
  8
0
100
AcDbBlockBegin
  2
BLOCK_16
 70
     0
 71
     0
 10
0.0
 20
0.0
 30
0.0
  3
BLOCK_16
  1

  0
INSERT
  5
AA
330
A5
100
AcDbEntity
  8
CAPA_1
100
AcDbBlockReference
  2
BLOCK_17
 10
0.0
 20
0.0
 30
0.0
  0
ENDBLK
  5
A8
330
A5
100
AcDbEntity
  8
0
100
AcDbBlockEnd
  0
BLOCK
  5
AB
330
A9
100
AcDbEntity
  8
0
100
AcDbBlockBegin
  2
BLOCK_17
 70
     0
 71
     0
 10
0.0
 20
0.0
 30
0.0
  3
BLOCK_17
  1

  0
POLYLINE
  5
AD
330
A9
100
AcDbEntity
  8
CAPA_1
 62
   250
100
AcDb2dPolyline
 66
     1
 10
0.0
 20
0.0
 30
0.0
  0
VERTEX
  5
AE
330
AD
100
AcDbEntity
  8
CAPA_1
 62
   250
100
AcDbVertex
100
AcDb2dVertex
 10
86.68583710940493
 20
-75.67910154358023
 30
0.0
  0
VERTEX
  5
AF
330
AD
100
AcDbEntity
  8
CAPA_1
 62
   250
100
AcDbVertex
100
AcDb2dVertex
 10
86.08604598542294
 20
-75.67910154358023
 30
0.0
  0
VERTEX
  5
B0
330
AD
100
AcDbEntity
  8
CAPA_1
 62
   250
100
AcDbVertex
100
AcDb2dVertex
 10
86.08604598542294
 20
-69.24090710074533
 30
0.0
  0
VERTEX
  5
B1
330
AD
100
AcDbEntity
  8
CAPA_1
 62
   250
100
AcDbVertex
100
AcDb2dVertex
 10
86.68583710940493
 20
-69.24090710074533
 30
0.0
  0
VERTEX
  5
B2
330
AD
100
AcDbEntity
  8
CAPA_1
 62
   250
100
AcDbVertex
100
AcDb2dVertex
 10
86.68583710940493
 20
-75.67910154358023
 30
0.0
  0
SEQEND
  5
B3
330
AD
100
AcDbEntity
  8
CAPA_1
  0
ENDBLK
  5
AC
330
A9
100
AcDbEntity
  8
0
100
AcDbBlockEnd
  0
BLOCK
  5
B6
330
B4
100
AcDbEntity
  8
0
100
AcDbBlockBegin
  2
BLOCK_18
 70
     0
 71
     0
 10
0.0
 20
0.0
 30
0.0
  3
BLOCK_18
  1

  0
INSERT
  5
B9
330
B4
100
AcDbEntity
  8
CAPA_1
100
AcDbBlockReference
  2
BLOCK_19
 10
0.0
 20
0.0
 30
0.0
  0
ENDBLK
  5
B7
330
B4
100
AcDbEntity
  8
0
100
AcDbBlockEnd
  0
BLOCK
  5
BA
330
B8
100
AcDbEntity
  8
0
100
AcDbBlockBegin
  2
BLOCK_19
 70
     0
 71
     0
 10
0.0
 20
0.0
 30
0.0
  3
BLOCK_19
  1

  0
POLYLINE
  5
BC
330
B8
100
AcDbEntity
  8
CAPA_1
 62
   250
100
AcDb2dPolyline
 66
     1
 10
0.0
 20
0.0
 30
0.0
  0
VERTEX
  5
BD
330
BC
100
AcDbEntity
  8
CAPA_1
 62
   250
100
AcDbVertex
100
AcDb2dVertex
 10
31.47680392008219
 20
-19.3747002447223
 30
0.0
  0
VERTEX
  5
BE
330
BC
100
AcDbEntity
  8
CAPA_1
 62
   250
100
AcDbVertex
100
AcDb2dVertex
 10
44.05346949853524
 20
-19.3747002447223
 30
0.0
  0
VERTEX
  5
BF
330
BC
100
AcDbEntity
  8
CAPA_1
 62
   250
100
AcDbVertex
100
AcDb2dVertex
 10
44.0004150280624
 20
-43.75167913402736
 30
0.0
  0
VERTEX
  5
C0
330
BC
100
AcDbEntity
  8
CAPA_1
 62
   250
100
AcDbVertex
100
AcDb2dVertex
 10
80.21491425946016
 20
-43.75167913402736
 30
0.0
  0
VERTEX
  5
C1
330
BC
100
AcDbEntity
  8
CAPA_1
 62
   250
100
AcDbVertex
100
AcDb2dVertex
 10
80.23007267959527
 20
-19.44515244739566
 30
0.0
  0
VERTEX
  5
C2
330
BC
100
AcDbEntity
  8
CAPA_1
 62
   250
100
AcDbVertex
100
AcDb2dVertex
 10
92.70097382665115
 20
-19.44515244739566
 30
0.0
  0
VERTEX
  5
C3
330
BC
100
AcDbEntity
  8
CAPA_1
 62
   250
100
AcDbVertex
100
AcDb2dVertex
 10
92.70097382665115
 20
-81.357307922369
 30
0.0
  0
VERTEX
  5
C4
330
BC
100
AcDbEntity
  8
CAPA_1
 62
   250
100
AcDbVertex
100
AcDb2dVertex
 10
80.23007267959527
 20
-81.357307922369
 30
0.0
  0
VERTEX
  5
C5
330
BC
100
AcDbEntity
  8
CAPA_1
 62
   250
100
AcDbVertex
100
AcDb2dVertex
 10
80.21491425946016
 20
-56.61945528098403
 30
0.0
  0
VERTEX
  5
C6
330
BC
100
AcDbEntity
  8
CAPA_1
 62
   250
100
AcDbVertex
100
AcDb2dVertex
 10
44.0004150280624
 20
-56.61945528098403
 30
0.0
  0
VERTEX
  5
C7
330
BC
100
AcDbEntity
  8
CAPA_1
 62
   250
100
AcDbVertex
100
AcDb2dVertex
 10
44.05346949853524
 20
-81.28702797446991
 30
0.0
  0
VERTEX
  5
C8
330
BC
100
AcDbEntity
  8
CAPA_1
 62
   250
100
AcDbVertex
100
AcDb2dVertex
 10
31.47680392008219
 20
-81.28702797446991
 30
0.0
  0
VERTEX
  5
C9
330
BC
100
AcDbEntity
  8
CAPA_1
 62
   250
100
AcDbVertex
100
AcDb2dVertex
 10
31.47680392008219
 20
-19.3747002447223
 30
0.0
  0
SEQEND
  5
CA
330
BC
100
AcDbEntity
  8
CAPA_1
  0
ENDBLK
  5
BB
330
B8
100
AcDbEntity
  8
0
100
AcDbBlockEnd
  0
BLOCK
  5
CD
330
CB
100
AcDbEntity
  8
0
100
AcDbBlockBegin
  2
BLOCK_20
 70
     0
 71
     0
 10
0.0
 20
0.0
 30
0.0
  3
BLOCK_20
  1

  0
POLYLINE
  5
CF
330
CB
100
AcDbEntity
  8
CAPA_1
 62
     7
100
AcDb2dPolyline
 66
     1
 10
0.0
 20
0.0
 30
0.0
  0
VERTEX
  5
D0
330
CF
100
AcDbEntity
  8
CAPA_1
 62
     7
100
AcDbVertex
100
AcDb2dVertex
 10
40.77201604883478
 20
-57.55721027206904
 30
0.0
  0
VERTEX
  5
D1
330
CF
100
AcDbEntity
  8
CAPA_1
 62
     7
100
AcDbVertex
100
AcDb2dVertex
 10
33.79604220075238
 20
-57.55721027206904
 30
0.0
  0
VERTEX
  5
D2
330
CF
100
AcDbEntity
  8
CAPA_1
 62
     7
100
AcDbVertex
100
AcDb2dVertex
 10
33.79604220075238
 20
-43.55754800343353
 30
0.0
  0
VERTEX
  5
D3
330
CF
100
AcDbEntity
  8
CAPA_1
 62
     7
100
AcDbVertex
100
AcDb2dVertex
 10
40.77201604883478
 20
-43.55754800343353
 30
0.0
  0
VERTEX
  5
D4
330
CF
100
AcDbEntity
  8
CAPA_1
 62
     7
100
AcDbVertex
100
AcDb2dVertex
 10
40.77201604883478
 20
-57.55721027206904
 30
0.0
  0
SEQEND
  5
D5
330
CF
100
AcDbEntity
  8
CAPA_1
  0
ENDBLK
  5
CE
330
CB
100
AcDbEntity
  8
0
100
AcDbBlockEnd
  0
BLOCK
  5
D8
330
D6
100
AcDbEntity
  8
0
100
AcDbBlockBegin
  2
BLOCK_21
 70
     0
 71
     0
 10
0.0
 20
0.0
 30
0.0
  3
BLOCK_21
  1

  0
POLYLINE
  5
DA
330
D6
100
AcDbEntity
  8
CAPA_1
 62
     7
100
AcDb2dPolyline
 66
     1
 10
0.0
 20
0.0
 30
0.0
  0
VERTEX
  5
DB
330
DA
100
AcDbEntity
  8
CAPA_1
 62
     7
100
AcDbVertex
100
AcDb2dVertex
 10
90.0196560104812
 20
-57.46901582764664
 30
0.0
  0
VERTEX
  5
DC
330
DA
100
AcDbEntity
  8
CAPA_1
 62
     7
100
AcDbVertex
100
AcDb2dVertex
 10
83.04402667194734
 20
-57.46901582764664
 30
0.0
  0
VERTEX
  5
DD
330
DA
100
AcDbEntity
  8
CAPA_1
 62
     7
100
AcDbVertex
100
AcDb2dVertex
 10
83.04402667194734
 20
-43.46918130423688
 30
0.0
  0
VERTEX
  5
DE
330
DA
100
AcDbEntity
  8
CAPA_1
 62
     7
100
AcDbVertex
100
AcDb2dVertex
 10
90.0196560104812
 20
-43.46918130423688
 30
0.0
  0
VERTEX
  5
DF
330
DA
100
AcDbEntity
  8
CAPA_1
 62
     7
100
AcDbVertex
100
AcDb2dVertex
 10
90.0196560104812
 20
-57.46901582764664
 30
0.0
  0
SEQEND
  5
E0
330
DA
100
AcDbEntity
  8
CAPA_1
  0
ENDBLK
  5
D9
330
D6
100
AcDbEntity
  8
0
100
AcDbBlockEnd
  0
BLOCK
  5
E3
330
E1
100
AcDbEntity
  8
0
100
AcDbBlockBegin
  2
BLOCK_22
 70
     0
 71
     0
 10
0.0
 20
0.0
 30
0.0
  3
BLOCK_22
  1

  0
INSERT
  5
E6
330
E1
100
AcDbEntity
  8
CAPA_1
100
AcDbBlockReference
  2
BLOCK_23
 10
0.0
 20
0.0
 30
0.0
  0
ENDBLK
  5
E4
330
E1
100
AcDbEntity
  8
0
100
AcDbBlockEnd
  0
BLOCK
  5
E7
330
E5
100
AcDbEntity
  8
0
100
AcDbBlockBegin
  2
BLOCK_23
 70
     0
 71
     0
 10
0.0
 20
0.0
 30
0.0
  3
BLOCK_23
  1

  0
POLYLINE
  5
E9
330
E5
100
AcDbEntity
  8
CAPA_1
 62
   250
100
AcDb2dPolyline
 66
     1
 10
0.0
 20
0.0
 30
0.0
  0
VERTEX
  5
EA
330
E9
100
AcDbEntity
  8
CAPA_1
 62
   250
100
AcDbVertex
100
AcDb2dVertex
 10
107.3240261233426
 20
-19.02192246703271
 30
0.0
  0
VERTEX
  5
EB
330
E9
100
AcDbEntity
  8
CAPA_1
 62
   250
100
AcDbVertex
100
AcDb2dVertex
 10
119.9006917017957
 20
-19.02192246703271
 30
0.0
  0
VERTEX
  5
EC
330
E9
100
AcDbEntity
  8
CAPA_1
 62
   250
100
AcDbVertex
100
AcDb2dVertex
 10
119.8476372313228
 20
-43.39890135633777
 30
0.0
  0
VERTEX
  5
ED
330
E9
100
AcDbEntity
  8
CAPA_1
 62
   250
100
AcDbVertex
100
AcDb2dVertex
 10
156.0621364627206
 20
-43.39890135633777
 30
0.0
  0
VERTEX
  5
EE
330
E9
100
AcDbEntity
  8
CAPA_1
 62
   250
100
AcDbVertex
100
AcDb2dVertex
 10
156.0772948828557
 20
-19.09237466970607
 30
0.0
  0
VERTEX
  5
EF
330
E9
100
AcDbEntity
  8
CAPA_1
 62
   250
100
AcDbVertex
100
AcDb2dVertex
 10
168.5481960299116
 20
-19.09237466970607
 30
0.0
  0
VERTEX
  5
F0
330
E9
100
AcDbEntity
  8
CAPA_1
 62
   250
100
AcDbVertex
100
AcDb2dVertex
 10
168.5481960299116
 20
-81.00453014467942
 30
0.0
  0
VERTEX
  5
F1
330
E9
100
AcDbEntity
  8
CAPA_1
 62
   250
100
AcDbVertex
100
AcDb2dVertex
 10
156.0772948828557
 20
-81.00453014467942
 30
0.0
  0
VERTEX
  5
F2
330
E9
100
AcDbEntity
  8
CAPA_1
 62
   250
100
AcDbVertex
100
AcDb2dVertex
 10
156.0621364627206
 20
-56.26667750329445
 30
0.0
  0
VERTEX
  5
F3
330
E9
100
AcDbEntity
  8
CAPA_1
 62
   250
100
AcDbVertex
100
AcDb2dVertex
 10
119.8476372313228
 20
-56.26667750329445
 30
0.0
  0
VERTEX
  5
F4
330
E9
100
AcDbEntity
  8
CAPA_1
 62
   250
100
AcDbVertex
100
AcDb2dVertex
 10
119.9006917017957
 20
-80.93425019678033
 30
0.0
  0
VERTEX
  5
F5
330
E9
100
AcDbEntity
  8
CAPA_1
 62
   250
100
AcDbVertex
100
AcDb2dVertex
 10
107.3240261233426
 20
-80.93425019678033
 30
0.0
  0
VERTEX
  5
F6
330
E9
100
AcDbEntity
  8
CAPA_1
 62
   250
100
AcDbVertex
100
AcDb2dVertex
 10
107.3240261233426
 20
-19.02192246703271
 30
0.0
  0
SEQEND
  5
F7
330
E9
100
AcDbEntity
  8
CAPA_1
  0
ENDBLK
  5
E8
330
E5
100
AcDbEntity
  8
0
100
AcDbBlockEnd
  0
ENDSEC
  0
SECTION
  2
ENTITIES
  0
INSERT
  5
3D
330
1F
100
AcDbEntity
  8
CAPA_1
100
AcDbBlockReference
  2
BLOCK_2
 10
0.0
 20
0.0
 30
0.0
  0
INSERT
  5
4C
330
1F
100
AcDbEntity
  8
CAPA_1
100
AcDbBlockReference
  2
BLOCK_4
 10
0.0
 20
0.0
 30
0.0
  0
INSERT
  5
5B
330
1F
100
AcDbEntity
  8
CAPA_1
100
AcDbBlockReference
  2
BLOCK_6
 10
0.0
 20
0.0
 30
0.0
  0
INSERT
  5
6A
330
1F
100
AcDbEntity
  8
CAPA_1
100
AcDbBlockReference
  2
BLOCK_8
 10
0.0
 20
0.0
 30
0.0
  0
INSERT
  5
79
330
1F
100
AcDbEntity
  8
CAPA_1
100
AcDbBlockReference
  2
BLOCK_10
 10
0.0
 20
0.0
 30
0.0
  0
INSERT
  5
88
330
1F
100
AcDbEntity
  8
CAPA_1
100
AcDbBlockReference
  2
BLOCK_12
 10
0.0
 20
0.0
 30
0.0
  0
INSERT
  5
97
330
1F
100
AcDbEntity
  8
CAPA_1
100
AcDbBlockReference
  2
BLOCK_14
 10
0.0
 20
0.0
 30
0.0
  0
INSERT
  5
A6
330
1F
100
AcDbEntity
  8
CAPA_1
100
AcDbBlockReference
  2
BLOCK_16
 10
0.0
 20
0.0
 30
0.0
  0
INSERT
  5
B5
330
1F
100
AcDbEntity
  8
CAPA_1
100
AcDbBlockReference
  2
BLOCK_18
 10
0.0
 20
0.0
 30
0.0
  0
INSERT
  5
CC
330
1F
100
AcDbEntity
  8
CAPA_1
100
AcDbBlockReference
  2
BLOCK_20
 10
0.0
 20
0.0
 30
0.0
  0
INSERT
  5
D7
330
1F
100
AcDbEntity
  8
CAPA_1
100
AcDbBlockReference
  2
BLOCK_21
 10
0.0
 20
0.0
 30
0.0
  0
INSERT
  5
E2
330
1F
100
AcDbEntity
  8
CAPA_1
100
AcDbBlockReference
  2
BLOCK_22
 10
0.0
 20
0.0
 30
0.0
  0
ENDSEC
  0
SECTION
  2
OBJECTS
  0
DICTIONARY
  5
C
330
0
100
AcDbDictionary
  3
ACAD_GROUP
350
D
  3
ACAD_LAYOUT
350
1A
  3
ACAD_MLINESTYLE
350
17
  3
ACAD_PLOTSETTINGS
350
19
  3
ACAD_TABLESTYLE
350
118
  3
ACAD_VISUALSTYLE
350
2A
  3
ACDBHEADERROUNDTRIPXREC
350
F8
  0
DICTIONARY
  5
D
102
{ACAD_REACTORS
330
C
102
}
330
C
100
AcDbDictionary
  0
DICTIONARY
  5
1A
102
{ACAD_REACTORS
330
C
102
}
330
C
100
AcDbDictionary
  0
DICTIONARY
  5
17
102
{ACAD_REACTORS
330
C
102
}
330
C
100
AcDbDictionary
  3
STANDARD
350
18
  0
DICTIONARY
  5
19
102
{ACAD_REACTORS
330
C
102
}
330
C
100
AcDbDictionary
  0
DICTIONARY
  5
118
102
{ACAD_REACTORS
330
C
102
}
330
C
100
AcDbDictionary
  0
DICTIONARY
  5
2A
102
{ACAD_REACTORS
330
C
102
}
330
C
100
AcDbDictionary
  3
2DWIREFRAME
350
2F
  3
3D_HIDDEN
350
31
  3
3DWIREFRAME
350
30
  3
BASIC
350
32
  3
BRIGHTEN
350
36
  3
COLORCHANGE
350
3A
  3
CONCEPTUAL
350
34
  3
DIM
350
35
  3
FACEPATTERN
350
39
  3
FLAT
350
2B
  3
FLATWITHEDGES
350
2C
  3
GOURAUD
350
2D
  3
GOURAUDWITHEDGES
350
2E
  3
LINEPATTERN
350
38
  3
REALISTIC
350
33
  3
THICKEN
350
37
  0
DICTIONARY
  5
F8
102
{ACAD_REACTORS
330
C
102
}
330
C
100
AcDbDictionary
  3
CEPSNTYPE
350
101
  3
DIMSTYLEDATA
350
117
  3
FINGERPRINTGUID
350
102
  3
HYPERLINKBASE
350
FB
  3
INSUNITS
350
100
  3
LAYOUTDICT
350
FD
  3
LWETCUNION
350
FF
  3
PLOTSETDICT
350
FE
  3
PSVPSCALE
350
104
  3
PUCSBASE
350
107
  3
PUCSORGBACK
350
10D
  3
PUCSORGBOTTOM
350
109
  3
PUCSORGFRONT
350
10C
  3
PUCSORGLEFT
350
10A
  3
PUCSORGRIGHT
350
10B
  3
PUCSORGTOP
350
108
  3
PUCSORTHOREF
350
105
  3
PUCSORTHOVIEW
350
106
  3
STYLESHEET
350
FC
  3
TSTACKALIGN
350
F9
  3
TSTACKSIZE
350
FA
  3
UCSBASE
350
110
  3
UCSORGBACK
350
116
  3
UCSORGBOTTOM
350
112
  3
UCSORGFRONT
350
115
  3
UCSORGLEFT
350
113
  3
UCSORGRIGHT
350
114
  3
UCSORGTOP
350
111
  3
UCSORTHOREF
350
10E
  3
UCSORTHOVIEW
350
10F
  3
VERSIONGUID
350
103
  0
MLINESTYLE
  5
18
102
{ACAD_REACTORS
330
17
102
}
330
17
100
AcDbMlineStyle
  2
Standard
 70
     0
  3

 62
   256
 51
90.0
 52
90.0
 71
     2
 49
0.5
 62
   256
  6
BYLAYER
 49
-0.5
 62
   256
  6
BYLAYER
  0
VISUALSTYLE
  5
2F
102
{ACAD_REACTORS
330
2A
102
}
330
2A
100
AcDbVisualStyle
  2
2dWireframe
 70
     4
 71
     0
 72
     2
 73
     0
 90
        0
 40
-0.6
 41
-30.0
 62
     5
 63
     7
 74
     1
 91
        4
 64
     7
 65
   257
 75
     1
175
     1
 42
1.0
 92
        0
 66
   257
 43
1.0
 76
     1
 77
     6
 78
     2
 67
     7
 79
     5
170
     0
171
     0
290
     0
174
     0
 93
        1
 44
0.0
173
     0
291
     0
 45
0.0
1001
ACAD
1000
AcDbSavedByObjectVersion
1070
     0
  0
VISUALSTYLE
  5
31
102
{ACAD_REACTORS
330
2A
102
}
330
2A
100
AcDbVisualStyle
  2
3D Hidden
 70
     6
 71
     1
 72
     2
 73
     2
 90
        0
 40
-0.6
 41
-30.0
 62
     5
 63
     7
 74
     2
 91
        2
 64
     7
 65
   257
 75
     2
175
     1
 42
40.0
 92
        0
 66
   257
 43
1.0
 76
     1
 77
     6
 78
     2
 67
     7
 79
     3
170
     0
171
     0
290
     0
174
     0
 93
        1
 44
0.0
173
     0
291
     0
 45
0.0
1001
ACAD
1000
AcDbSavedByObjectVersion
1070
     0
  0
VISUALSTYLE
  5
30
102
{ACAD_REACTORS
330
2A
102
}
330
2A
100
AcDbVisualStyle
  2
3dWireframe
 70
     5
 71
     0
 72
     2
 73
     0
 90
        0
 40
-0.6
 41
-30.0
 62
     5
 63
     7
 74
     1
 91
        4
 64
     7
 65
   257
 75
     1
175
     1
 42
1.0
 92
        0
 66
   257
 43
1.0
 76
     1
 77
     6
 78
     2
 67
     7
 79
     5
170
     0
171
     0
290
     0
174
     0
 93
        1
 44
0.0
173
     0
291
     0
 45
0.0
1001
ACAD
1000
AcDbSavedByObjectVersion
1070
     0
  0
VISUALSTYLE
  5
32
102
{ACAD_REACTORS
330
2A
102
}
330
2A
100
AcDbVisualStyle
  2
Basic
 70
     7
 71
     1
 72
     0
 73
     1
 90
        0
 40
-0.6
 41
-30.0
 62
     5
 63
     7
 74
     0
 91
        4
 64
     7
 65
   257
 75
     1
175
     1
 42
1.0
 92
        8
 66
     7
 43
1.0
 76
     1
 77
     6
 78
     2
 67
     7
 79
     5
170
     0
171
     0
290
     0
174
     0
 93
        1
 44
0.0
173
     0
291
     1
 45
0.0
1001
ACAD
1000
AcDbSavedByObjectVersion
1070
     0
  0
VISUALSTYLE
  5
36
102
{ACAD_REACTORS
330
2A
102
}
330
2A
100
AcDbVisualStyle
  2
Brighten
 70
    12
 71
     2
 72
     2
 73
     0
 90
        0
 40
-0.6
 41
-30.0
 62
     5
 63
     7
 74
     1
 91
        4
 64
     7
 65
   257
 75
     1
175
     1
 42
1.0
 92
        8
 66
     7
 43
1.0
 76
     1
 77
     6
 78
     2
 67
     7
 79
     5
170
     0
171
     0
290
     0
174
     0
 93
        1
 44
50.0
173
     0
291
     1
 45
0.0
1001
ACAD
1000
AcDbSavedByObjectVersion
1070
     0
  0
VISUALSTYLE
  5
3A
102
{ACAD_REACTORS
330
2A
102
}
330
2A
100
AcDbVisualStyle
  2
ColorChange
 70
    16
 71
     2
 72
     2
 73
     3
 90
        0
 40
-0.6
 41
-30.0
 62
     5
 63
     8
 74
     1
 91
        4
 64
     7
 65
   257
 75
     1
175
     1
 42
1.0
 92
        8
 66
     8
 43
1.0
 76
     1
 77
     6
 78
     2
 67
     7
 79
     5
170
     0
171
     0
290
     0
174
     0
 93
        1
 44
0.0
173
     0
291
     1
 45
0.0
1001
ACAD
1000
AcDbSavedByObjectVersion
1070
     0
  0
VISUALSTYLE
  5
34
102
{ACAD_REACTORS
330
2A
102
}
330
2A
100
AcDbVisualStyle
  2
Conceptual
 70
     9
 71
     3
 72
     2
 73
     0
 90
        0
 40
-0.6
 41
-30.0
 62
     5
 63
     7
 74
     2
 91
        2
 64
     7
 65
   257
 75
     1
175
     1
 42
40.0
 92
        8
 66
     7
 43
1.0
 76
     1
 77
     6
 78
     2
 67
     7
 79
     3
170
     0
171
     0
290
     0
174
     0
 93
        1
 44
0.0
173
     0
291
     0
 45
0.0
1001
ACAD
1000
AcDbSavedByObjectVersion
1070
     0
  0
VISUALSTYLE
  5
35
102
{ACAD_REACTORS
330
2A
102
}
330
2A
100
AcDbVisualStyle
  2
Dim
 70
    11
 71
     2
 72
     2
 73
     0
 90
        0
 40
-0.6
 41
-30.0
 62
     5
 63
     7
 74
     1
 91
        4
 64
     7
 65
   257
 75
     1
175
     1
 42
1.0
 92
        8
 66
     7
 43
1.0
 76
     1
 77
     6
 78
     2
 67
     7
 79
     5
170
     0
171
     0
290
     0
174
     0
 93
        1
 44
-50.0
173
     0
291
     1
 45
0.0
1001
ACAD
1000
AcDbSavedByObjectVersion
1070
     0
  0
VISUALSTYLE
  5
39
102
{ACAD_REACTORS
330
2A
102
}
330
2A
100
AcDbVisualStyle
  2
Facepattern
 70
    15
 71
     2
 72
     2
 73
     0
 90
        0
 40
-0.6
 41
-30.0
 62
     5
 63
     7
 74
     1
 91
        4
 64
     7
 65
   257
 75
     1
175
     1
 42
1.0
 92
        8
 66
     7
 43
1.0
 76
     1
 77
     6
 78
     2
 67
     7
 79
     5
170
     0
171
     0
290
     0
174
     0
 93
        1
 44
0.0
173
     0
291
     1
 45
0.0
1001
ACAD
1000
AcDbSavedByObjectVersion
1070
     0
  0
VISUALSTYLE
  5
2B
102
{ACAD_REACTORS
330
2A
102
}
330
2A
100
AcDbVisualStyle
  2
Flat
 70
     0
 71
     2
 72
     1
 73
     1
 90
        2
 40
-0.6
 41
30.0
 62
     5
 63
     7
 74
     0
 91
        4
 64
     7
 65
   257
 75
     1
175
     1
 42
1.0
 92
        8
 66
     7
 43
1.0
 76
     1
 77
     6
 78
     2
 67
     7
 79
     5
170
     0
171
     0
290
     0
174
     0
 93
       13
 44
0.0
173
     0
291
     1
 45
0.0
1001
ACAD
1000
AcDbSavedByObjectVersion
1070
     0
  0
VISUALSTYLE
  5
2C
102
{ACAD_REACTORS
330
2A
102
}
330
2A
100
AcDbVisualStyle
  2
FlatWithEdges
 70
     1
 71
     2
 72
     1
 73
     1
 90
        2
 40
-0.6
 41
30.0
 62
     5
 63
     7
 74
     1
 91
        4
 64
     7
 65
   257
 75
     1
175
     1
 42
1.0
 92
        0
 66
   257
 43
1.0
 76
     1
 77
     6
 78
     2
 67
     7
 79
     5
170
     0
171
     0
290
     0
174
     0
 93
       13
 44
0.0
173
     0
291
     1
 45
0.0
1001
ACAD
1000
AcDbSavedByObjectVersion
1070
     0
  0
VISUALSTYLE
  5
2D
102
{ACAD_REACTORS
330
2A
102
}
330
2A
100
AcDbVisualStyle
  2
Gouraud
 70
     2
 71
     2
 72
     2
 73
     1
 90
        2
 40
-0.6
 41
30.0
 62
     5
 63
     7
 74
     0
 91
        4
 64
     7
 65
   257
 75
     1
175
     1
 42
1.0
 92
        0
 66
     7
 43
1.0
 76
     1
 77
     6
 78
     2
 67
     7
 79
     5
170
     0
171
     0
290
     0
174
     0
 93
       13
 44
0.0
173
     0
291
     1
 45
0.0
1001
ACAD
1000
AcDbSavedByObjectVersion
1070
     0
  0
VISUALSTYLE
  5
2E
102
{ACAD_REACTORS
330
2A
102
}
330
2A
100
AcDbVisualStyle
  2
GouraudWithEdges
 70
     3
 71
     2
 72
     2
 73
     1
 90
        2
 40
-0.6
 41
30.0
 62
     5
 63
     7
 74
     1
 91
        4
 64
     7
 65
   257
 75
     1
175
     1
 42
1.0
 92
        0
 66
   257
 43
1.0
 76
     1
 77
     6
 78
     2
 67
     7
 79
     5
170
     0
171
     0
290
     0
174
     0
 93
       13
 44
0.0
173
     0
291
     1
 45
0.0
1001
ACAD
1000
AcDbSavedByObjectVersion
1070
     0
  0
VISUALSTYLE
  5
38
102
{ACAD_REACTORS
330
2A
102
}
330
2A
100
AcDbVisualStyle
  2
Linepattern
 70
    14
 71
     2
 72
     2
 73
     0
 90
        0
 40
-0.6
 41
-30.0
 62
     5
 63
     7
 74
     1
 91
        4
 64
     7
 65
   257
 75
     7
175
     7
 42
1.0
 92
        8
 66
     7
 43
1.0
 76
     1
 77
     6
 78
     2
 67
     7
 79
     5
170
     0
171
     0
290
     0
174
     0
 93
        1
 44
0.0
173
     0
291
     1
 45
0.0
1001
ACAD
1000
AcDbSavedByObjectVersion
1070
     0
  0
VISUALSTYLE
  5
33
102
{ACAD_REACTORS
330
2A
102
}
330
2A
100
AcDbVisualStyle
  2
Realistic
 70
     8
 71
     2
 72
     2
 73
     0
 90
        0
 40
-0.6
 41
-30.0
 62
     5
 63
     7
 74
     1
 91
        0
 64
     7
 65
   257
 75
     1
175
     1
 42
1.0
 92
        8
 66
     8
 43
1.0
 76
     1
 77
     6
 78
     2
 67
     7
 79
     5
170
     0
171
     0
290
     0
174
     0
 93
       13
 44
0.0
173
     0
291
     0
 45
0.0
1001
ACAD
1000
AcDbSavedByObjectVersion
1070
     0
  0
VISUALSTYLE
  5
37
102
{ACAD_REACTORS
330
2A
102
}
330
2A
100
AcDbVisualStyle
  2
Thicken
 70
    13
 71
     2
 72
     2
 73
     0
 90
        0
 40
-0.6
 41
-30.0
 62
     5
 63
     7
 74
     1
 91
        4
 64
     7
 65
   257
 75
     1
175
     1
 42
1.0
 92
       12
 66
     7
 43
1.0
 76
     1
 77
     6
 78
     2
 67
     7
 79
     5
170
     0
171
     0
290
     0
174
     0
 93
        1
 44
0.0
173
     0
291
     1
 45
0.0
1001
ACAD
1000
AcDbSavedByObjectVersion
1070
     0
  0
XRECORD
  5
101
102
{ACAD_REACTORS
330
F8
102
}
330
F8
100
AcDbXrecord
 90
        0
  0
XRECORD
  5
117
102
{ACAD_REACTORS
330
F8
102
}
330
F8
100
AcDbXrecord
1000
DSTYLE
1002
{
1070
   340
340
11
1002
}
  0
XRECORD
  5
102
102
{ACAD_REACTORS
330
F8
102
}
330
F8
100
AcDbXrecord
  1
{F810415D-429F-49F4-A57B-F6664592E407}
  0
XRECORD
  5
FB
102
{ACAD_REACTORS
330
F8
102
}
330
F8
100
AcDbXrecord
  1

  0
XRECORD
  5
100
102
{ACAD_REACTORS
330
F8
102
}
330
F8
100
AcDbXrecord
 90
        1
  0
XRECORD
  5
FD
102
{ACAD_REACTORS
330
F8
102
}
330
F8
100
AcDbXrecord
340
1A
  0
XRECORD
  5
FF
102
{ACAD_REACTORS
330
F8
102
}
330
F8
100
AcDbXrecord
 90
    10269
  0
XRECORD
  5
FE
102
{ACAD_REACTORS
330
F8
102
}
330
F8
100
AcDbXrecord
340
19
  0
XRECORD
  5
104
102
{ACAD_REACTORS
330
F8
102
}
330
F8
100
AcDbXrecord
 40
0.0
  0
XRECORD
  5
107
102
{ACAD_REACTORS
330
F8
102
}
330
F8
100
AcDbXrecord
340
0
  0
XRECORD
  5
10D
102
{ACAD_REACTORS
330
F8
102
}
330
F8
100
AcDbXrecord
 10
0.0
 20
0.0
 30
0.0
  0
XRECORD
  5
109
102
{ACAD_REACTORS
330
F8
102
}
330
F8
100
AcDbXrecord
 10
0.0
 20
0.0
 30
0.0
  0
XRECORD
  5
10C
102
{ACAD_REACTORS
330
F8
102
}
330
F8
100
AcDbXrecord
 10
0.0
 20
0.0
 30
0.0
  0
XRECORD
  5
10A
102
{ACAD_REACTORS
330
F8
102
}
330
F8
100
AcDbXrecord
 10
0.0
 20
0.0
 30
0.0
  0
XRECORD
  5
10B
102
{ACAD_REACTORS
330
F8
102
}
330
F8
100
AcDbXrecord
 10
0.0
 20
0.0
 30
0.0
  0
XRECORD
  5
108
102
{ACAD_REACTORS
330
F8
102
}
330
F8
100
AcDbXrecord
 10
0.0
 20
0.0
 30
0.0
  0
XRECORD
  5
105
102
{ACAD_REACTORS
330
F8
102
}
330
F8
100
AcDbXrecord
340
0
  0
XRECORD
  5
106
102
{ACAD_REACTORS
330
F8
102
}
330
F8
100
AcDbXrecord
 70
     0
  0
XRECORD
  5
FC
102
{ACAD_REACTORS
330
F8
102
}
330
F8
100
AcDbXrecord
  1

  0
XRECORD
  5
F9
102
{ACAD_REACTORS
330
F8
102
}
330
F8
100
AcDbXrecord
 90
        1
  0
XRECORD
  5
FA
102
{ACAD_REACTORS
330
F8
102
}
330
F8
100
AcDbXrecord
 90
       70
  0
XRECORD
  5
110
102
{ACAD_REACTORS
330
F8
102
}
330
F8
100
AcDbXrecord
340
0
  0
XRECORD
  5
116
102
{ACAD_REACTORS
330
F8
102
}
330
F8
100
AcDbXrecord
 10
0.0
 20
0.0
 30
0.0
  0
XRECORD
  5
112
102
{ACAD_REACTORS
330
F8
102
}
330
F8
100
AcDbXrecord
 10
0.0
 20
0.0
 30
0.0
  0
XRECORD
  5
115
102
{ACAD_REACTORS
330
F8
102
}
330
F8
100
AcDbXrecord
 10
0.0
 20
0.0
 30
0.0
  0
XRECORD
  5
113
102
{ACAD_REACTORS
330
F8
102
}
330
F8
100
AcDbXrecord
 10
0.0
 20
0.0
 30
0.0
  0
XRECORD
  5
114
102
{ACAD_REACTORS
330
F8
102
}
330
F8
100
AcDbXrecord
 10
0.0
 20
0.0
 30
0.0
  0
XRECORD
  5
111
102
{ACAD_REACTORS
330
F8
102
}
330
F8
100
AcDbXrecord
 10
0.0
 20
0.0
 30
0.0
  0
XRECORD
  5
10E
102
{ACAD_REACTORS
330
F8
102
}
330
F8
100
AcDbXrecord
340
0
  0
XRECORD
  5
10F
102
{ACAD_REACTORS
330
F8
102
}
330
F8
100
AcDbXrecord
 70
     0
  0
XRECORD
  5
103
102
{ACAD_REACTORS
330
F8
102
}
330
F8
100
AcDbXrecord
  1
{FAEB1C32-E019-11D5-929B-00C0DF256EC4}
  0
ENDSEC
  0
EOF
