0
SECTION
2
HEADER
9
$INSUNITS
70
4
9
$ACADVER
1
AC1014
9
$HANDSEED
5
FFFF
0
ENDSEC
0
SECTION
2
TABLES
0
TABLE
2
VPORT
5
8
100
AcDbSymbolTable
0
ENDTAB
0
TABLE
2
LTYPE
5
5
100
AcDbSymbolTable
0
LTYPE
5
14
100
AcDbSymbolTableRecord
100
AcDbLinetypeTableRecord
2
BYBLOCK
70
0
0
LTYPE
5
15
100
AcDbSymbolTableRecord
100
AcDbLinetypeTableRecord
2
BYLAYER
70
0
0
ENDTAB
0
TABLE
2
LAYER
5
2
100
AcDbSymbolTable
70
2
0
LAYER
5
50
100
AcDbSymbolTableRecord
100
AcDbLayerTableRecord
2
0
70
0
6
CONTINUOUS
0
ENDTAB
0
TABLE
2
STYLE
5
3
100
AcDbSymbolTable
70
1
0
STYLE
5
11
100
AcDbSymbolTableRecord
100
AcDbTextStyleTableRecord
2
STANDARD
70
0
0
ENDTAB
0
TABLE
2
VIEW
5
6
100
AcDbSymbolTable
70
0
0
ENDTAB
0
TABLE
2
UCS
5
7
100
AcDbSymbolTable
70
0
0
ENDTAB
0
TABLE
2
APPID
5
9
100
AcDbSymbolTable
70
2
0
APPID
5
12
100
AcDbSymbolTableRecord
100
AcDbRegAppTableRecord
2
ACAD
70
0
0
ENDTAB
0
TABLE
2
DIMSTYLE
5
A
100
AcDbSymbolTable
70
1
0
ENDTAB
0
TABLE
2
BLOCK_RECORD
5
1
100
AcDbSymbolTable
70
1
0
BLOCK_RECORD
5
1F
100
AcDbSymbolTableRecord
100
AcDbBlockTableRecord
2
*MODEL_SPACE
0
BLOCK_RECORD
5
1B
100
AcDbSymbolTableRecord
100
AcDbBlockTableRecord
2
*PAPER_SPACE
0
ENDTAB
0
ENDSEC
0
SECTION
2
BLOCKS
0
BLOCK
5
20
100
AcDbEntity
100
AcDbBlockBegin
2
*MODEL_SPACE
0
ENDBLK
5
21
100
AcDbEntity
100
AcDbBlockEnd
0
BLOCK
5
1C
100
AcDbEntity
100
AcDbBlockBegin
2
*PAPER_SPACE
0
ENDBLK
5
1D
100
AcDbEntity
100
AcDbBlockEnd
0
ENDSEC
0
SECTION
2
ENTITIES
0
LINE
5
100
100
AcDbEntity
8
0
100
AcDbLine
10
70.998259387245326
20
-507.97755855711216
30
0
11
116.37272803679089
21
-507.97755855711222
31
0
0
LINE
5
101
100
AcDbEntity
8
0
100
AcDbLine
10
116.37272803679089
20
-507.97755855711222
30
0
11
116.3727280367909
21
-493.54324594761556
31
0
0
LINE
5
102
100
AcDbEntity
8
0
100
AcDbLine
10
116.3727280367909
20
-493.54324594761556
30
0
11
144.62553135045448
21
-493.54324594761556
31
0
0
LINE
5
103
100
AcDbEntity
8
0
100
AcDbLine
10
144.62553135045448
20
-493.54324594761556
30
0
11
144.62553135045448
21
-507.97755855711216
31
0
0
LINE
5
104
100
AcDbEntity
8
0
100
AcDbLine
10
144.62553135045448
20
-507.97755855711216
30
0
11
190.00000000000003
21
-507.97755855711216
31
0
0
LINE
5
105
100
AcDbEntity
8
0
100
AcDbLine
10
200.00000000000003
20
-497.97755855711216
30
0
11
200
21
-457.73533953670466
31
0
0
LINE
5
106
100
AcDbEntity
8
0
100
AcDbLine
10
192.51286653112084
20
-448.0562124171359
30
0
11
107.48713346887924
21
-425.98208153149477
31
0
0
LINE
5
107
100
AcDbEntity
8
0
100
AcDbLine
10
99.999999999999972
20
-416.30295441192595
30
0
11
100
21
-390
31
0
0
LINE
5
108
100
AcDbEntity
8
0
100
AcDbLine
10
110
20
-380
30
0
11
190
21
-380
31
0
0
LINE
5
109
100
AcDbEntity
8
0
100
AcDbLine
10
200
20
-370
30
0
11
200
21
-370
31
0
0
LINE
5
110
100
AcDbEntity
8
0
100
AcDbLine
10
190
20
-360
30
0
11
144.62553135045442
21
-360
31
0
0
LINE
5
111
100
AcDbEntity
8
0
100
AcDbLine
10
144.62553135045442
20
-360
30
0
11
144.62553135045439
21
-345.56568739050329
31
0
0
LINE
5
112
100
AcDbEntity
8
0
100
AcDbLine
10
144.62553135045439
20
-345.56568739050329
30
0
11
116.37272803679085
21
-345.5656873905034
31
0
0
LINE
5
113
100
AcDbEntity
8
0
100
AcDbLine
10
116.37272803679085
20
-345.5656873905034
30
0
11
116.37272803679093
21
-360
31
0
0
LINE
5
114
100
AcDbEntity
8
0
100
AcDbLine
10
116.37272803679093
20
-360
30
0
11
70.998259387245341
21
-360
31
0
0
LINE
5
115
100
AcDbEntity
8
0
100
AcDbLine
10
60.998259387245348
20
-370
30
0
11
60.998259387245383
21
-497.97755855711216
31
0
0
CIRCLE
5
116
100
AcDbEntity
8
0
100
AcDbCircle
10
130.00000000000009
20
-360.00000000000023
30
0
40
5.5008799893623292
0
LINE
5
117
100
AcDbEntity
8
0
100
AcDbLine
10
192.61021717023988
20
-466.99001633236367
30
0
11
188.84091737355857
21
-481.50870701171698
31
0
0
LINE
5
118
100
AcDbEntity
8
0
100
AcDbLine
10
188.84091737355857
20
-481.50870701171698
30
0
11
150.12440889528327
21
-471.4572408872337
31
0
0
LINE
5
119
100
AcDbEntity
8
0
100
AcDbLine
10
150.12440889528327
20
-471.4572408872337
30
0
11
153.89370869196458
21
-456.93855020788027
31
0
0
LINE
5
120
100
AcDbEntity
8
0
100
AcDbLine
10
86.139818854982778
20
-439.34848449003448
30
0
11
82.370519058300857
21
-453.86717516938791
31
0
0
LINE
5
121
100
AcDbEntity
8
0
100
AcDbLine
10
82.370519058300857
20
-453.86717516938791
30
0
11
121.08702753657624
21
-463.91864129387096
31
0
0
LINE
5
122
100
AcDbEntity
8
0
100
AcDbLine
10
121.08702753657624
20
-463.91864129387096
30
0
11
124.85632733325808
21
-449.39995061451788
31
0
0
LINE
5
123
100
AcDbEntity
8
0
100
AcDbLine
10
86.139818854982778
20
-439.34848449003448
30
0
11
124.85632733325808
21
-449.39995061451788
31
0
0
LINE
5
124
100
AcDbEntity
8
0
100
AcDbLine
10
153.89370869196458
20
-456.93855020788027
30
0
11
192.61021717023988
21
-466.99001633236367
31
0
0
LINE
5
125
100
AcDbEntity
8
0
100
AcDbLine
10
124.85632733325808
20
-449.39995061451788
30
0
11
153.89370869196458
21
-456.93855020788027
31
0
0
ARC
5
126
100
AcDbEntity
8
0
100
AcDbCircle
10
70.998259387245341
20
-370
30
0
40
10
100
AcDbArc
50
90
51
180
0
ARC
5
127
100
AcDbEntity
8
0
100
AcDbCircle
10
70.998259387245383
20
-497.97755855711216
30
0
40
10
100
AcDbArc
50
180
51
269.99999999999972
0
ARC
5
128
100
AcDbEntity
8
0
100
AcDbCircle
10
190
20
-370
30
0
40
10
100
AcDbArc
50
0
51
90
0
ARC
5
129
100
AcDbEntity
8
0
100
AcDbCircle
10
190.00000000000003
20
-497.97755855711216
30
0
40
10
100
AcDbArc
50
-90
51
0
0
ARC
5
130
100
AcDbEntity
8
0
100
AcDbCircle
10
110.00000000000001
20
-390
30
0
40
10
100
AcDbArc
50
90.000000000000099
51
180
0
ARC
5
131
100
AcDbEntity
8
0
100
AcDbCircle
10
110.00000000000023
20
-416.30295441192573
30
0
40
10.000000000000266
100
AcDbArc
50
180
51
255.44633725065134
0
ARC
5
132
100
AcDbEntity
8
0
100
AcDbCircle
10
189.99999999999997
20
-370
30
0
40
10
100
AcDbArc
50
-89.999999999999844
51
0
0
ARC
5
133
100
AcDbEntity
8
0
100
AcDbCircle
10
190.00000000000003
20
-457.73533953670466
30
0
40
9.9999999999999645
100
AcDbArc
50
0
51
75.446337250651993
0
ENDSEC
0
SECTION
2
OBJECTS
0
DICTIONARY
5
C
100
AcDbDictionary
3
ACAD_GROUP
350
D
3
ACAD_MLINESTYLE
350
17
0
DICTIONARY
5
D
100
AcDbDictionary
0
DICTIONARY
5
1A
330
C
100
AcDbDictionary
0
DICTIONARY
5
17
100
AcDbDictionary
0
ENDSEC
0
EOF
