0
SECTION
2
HEADER
9
$INSUNITS
70
4
9
$ACADVER
1
AC1014
9
$HANDSEED
5
FFFF
0
ENDSEC
0
SECTION
2
TABLES
0
TABLE
2
VPORT
5
8
100
AcDbSymbolTable
0
ENDTAB
0
TABLE
2
LTYPE
5
5
100
AcDbSymbolTable
0
LTYPE
5
14
100
AcDbSymbolTableRecord
100
AcDbLinetypeTableRecord
2
BYBLOCK
70
0
0
LTYPE
5
15
100
AcDbSymbolTableRecord
100
AcDbLinetypeTableRecord
2
BYLAYER
70
0
0
ENDTAB
0
TABLE
2
LAYER
5
2
100
AcDbSymbolTable
70
2
0
LAYER
5
50
100
AcDbSymbolTableRecord
100
AcDbLayerTableRecord
2
0
70
0
6
CONTINUOUS
0
ENDTAB
0
TABLE
2
STYLE
5
3
100
AcDbSymbolTable
70
1
0
STYLE
5
11
100
AcDbSymbolTableRecord
100
AcDbTextStyleTableRecord
2
STANDARD
70
0
0
ENDTAB
0
TABLE
2
VIEW
5
6
100
AcDbSymbolTable
70
0
0
ENDTAB
0
TABLE
2
UCS
5
7
100
AcDbSymbolTable
70
0
0
ENDTAB
0
TABLE
2
APPID
5
9
100
AcDbSymbolTable
70
2
0
APPID
5
12
100
AcDbSymbolTableRecord
100
AcDbRegAppTableRecord
2
ACAD
70
0
0
ENDTAB
0
TABLE
2
DIMSTYLE
5
A
100
AcDbSymbolTable
70
1
0
ENDTAB
0
TABLE
2
BLOCK_RECORD
5
1
100
AcDbSymbolTable
70
1
0
BLOCK_RECORD
5
1F
100
AcDbSymbolTableRecord
100
AcDbBlockTableRecord
2
*MODEL_SPACE
0
BLOCK_RECORD
5
1B
100
AcDbSymbolTableRecord
100
AcDbBlockTableRecord
2
*PAPER_SPACE
0
ENDTAB
0
ENDSEC
0
SECTION
2
BLOCKS
0
BLOCK
5
20
100
AcDbEntity
100
AcDbBlockBegin
2
*MODEL_SPACE
0
ENDBLK
5
21
100
AcDbEntity
100
AcDbBlockEnd
0
BLOCK
5
1C
100
AcDbEntity
100
AcDbBlockBegin
2
*PAPER_SPACE
0
ENDBLK
5
1D
100
AcDbEntity
100
AcDbBlockEnd
0
ENDSEC
0
SECTION
2
ENTITIES
0
LINE
5
100
100
AcDbEntity
8
0
100
AcDbLine
10
75
20
-50
30
0
11
75
21
-90
31
0
0
LINE
5
101
100
AcDbEntity
8
0
100
AcDbLine
10
75
20
-90
30
0
11
105
21
-90
31
0
0
LINE
5
102
100
AcDbEntity
8
0
100
AcDbLine
10
105
20
-90
30
0
11
105
21
-120
31
0
0
LINE
5
103
100
AcDbEntity
8
0
100
AcDbLine
10
105
20
-120
30
0
11
75.000000000000014
21
-120.00000000000001
31
0
0
LINE
5
104
100
AcDbEntity
8
0
100
AcDbLine
10
75.000000000000014
20
-120.00000000000001
30
0
11
75.000000000000014
21
-160
31
0
0
LINE
5
105
100
AcDbEntity
8
0
100
AcDbLine
10
75.000000000000014
20
-160
30
0
11
1075
21
-159.99999999999991
31
0
0
LINE
5
106
100
AcDbEntity
8
0
100
AcDbLine
10
1075
20
-159.99999999999991
30
0
11
1075
21
-119.99999999999991
31
0
0
LINE
5
107
100
AcDbEntity
8
0
100
AcDbLine
10
1075
20
-119.99999999999991
30
0
11
1045
21
-119.99999999999991
31
0
0
LINE
5
108
100
AcDbEntity
8
0
100
AcDbLine
10
1045
20
-119.99999999999991
30
0
11
1045
21
-89.999999999999915
31
0
0
LINE
5
109
100
AcDbEntity
8
0
100
AcDbLine
10
1045
20
-89.999999999999915
30
0
11
1075
21
-89.999999999999943
31
0
0
LINE
5
110
100
AcDbEntity
8
0
100
AcDbLine
10
1075
20
-89.999999999999943
30
0
11
1075
21
-50
31
0
0
LINE
5
111
100
AcDbEntity
8
0
100
AcDbLine
10
1075
20
-50
30
0
11
75
21
-50
31
0
0
LINE
5
112
100
AcDbEntity
8
0
100
AcDbLine
10
105
20
-90
30
0
11
105
21
-50
31
0
0
LINE
5
113
100
AcDbEntity
8
0
100
AcDbLine
10
105
20
-70
30
0
11
90
21
-70
31
0
0
LWPOLYLINE
5
114
100
AcDbEntity
8
0
100
AcDbPolyline
90
6
70
1
43
0.0
10
90
20
-60
10
90
20
-70
10
90
20
-80
10
80
20
-80
10
80
20
-70
10
80
20
-60
0
LINE
5
115
100
AcDbEntity
8
0
100
AcDbLine
10
105
20
-120
30
0
11
105
21
-160
31
0
0
LINE
5
116
100
AcDbEntity
8
0
100
AcDbLine
10
105
20
-140
30
0
11
90
21
-140
31
0
0
LWPOLYLINE
5
117
100
AcDbEntity
8
0
100
AcDbPolyline
90
6
70
1
43
0.0
10
90
20
-130
10
90
20
-140
10
90
20
-150
10
80
20
-150
10
80
20
-140
10
80
20
-130
0
LINE
5
118
100
AcDbEntity
8
0
100
AcDbLine
10
1045
20
-89.999999999999915
30
0
11
1045
21
-50
31
0
0
LINE
5
119
100
AcDbEntity
8
0
100
AcDbLine
10
1045
20
-119.99999999999991
30
0
11
1045
21
-160
31
0
0
LINE
5
120
100
AcDbEntity
8
0
100
AcDbLine
10
1045
20
-69.999999999999957
30
0
11
1060
21
-69.999999999999957
31
0
0
LINE
5
121
100
AcDbEntity
8
0
100
AcDbLine
10
1045
20
-139.99999999999997
30
0
11
1060
21
-139.99999999999997
31
0
0
LWPOLYLINE
5
122
100
AcDbEntity
8
0
100
AcDbPolyline
90
6
70
1
43
0.0
10
1060
20
-60
10
1060
20
-69.999999999999957
10
1060
20
-80
10
1070
20
-80
10
1070
20
-69.999999999999957
10
1070
20
-60
0
LWPOLYLINE
5
123
100
AcDbEntity
8
0
100
AcDbPolyline
90
6
70
1
43
0.0
10
1060
20
-130
10
1060
20
-139.99999999999997
10
1060
20
-150
10
1070
20
-150
10
1070
20
-139.99999999999997
10
1070
20
-130
0
LINE
5
124
100
AcDbEntity
8
0
100
AcDbLine
10
105
20
-50
30
0
11
110
21
-50
31
0
0
LINE
5
125
100
AcDbEntity
8
0
100
AcDbLine
10
110
20
-50
30
0
11
110
21
-55
31
0
0
LINE
5
126
100
AcDbEntity
8
0
100
AcDbLine
10
105
20
-160
30
0
11
110.00000163912773
21
-160
31
0
0
LINE
5
127
100
AcDbEntity
8
0
100
AcDbLine
10
110.00000163912773
20
-160
30
0
11
110.00000163912773
21
-155.00000230967999
31
0
0
LINE
5
128
100
AcDbEntity
8
0
100
AcDbLine
10
105
20
-105
30
0
11
1045
21
-104.99999999999991
31
0
0
LINE
5
129
100
AcDbEntity
8
0
100
AcDbLine
10
1045
20
-50
30
0
11
1040.0000154972076
21
-50
31
0
0
LINE
5
130
100
AcDbEntity
8
0
100
AcDbLine
10
1040.0000154972076
20
-50
30
0
11
1040.0000154972076
21
-55.000000819563866
31
0
0
LINE
5
131
100
AcDbEntity
8
0
100
AcDbLine
10
1045
20
-160
30
0
11
1040.0000154972076
21
-159.99999999999991
31
0
0
LINE
5
132
100
AcDbEntity
8
0
100
AcDbLine
10
1040.0000154972076
20
-159.99999999999991
30
0
11
1040.0000154972079
21
-155.00000230967999
31
0
0
LINE
5
133
100
AcDbEntity
8
0
100
AcDbLine
10
1040.0000154972076
20
-55.000000819563866
30
0
11
1040.0000154972079
21
-155.00000230967999
31
0
0
LINE
5
134
100
AcDbEntity
8
0
100
AcDbLine
10
1040.0000154972079
20
-155.00000230967999
30
0
11
1035.8574897480287
21
-155.00000230967999
31
0
0
LINE
5
135
100
AcDbEntity
8
0
100
AcDbLine
10
1035.8574897480287
20
-155.00000230967999
30
0
11
110.00000163912773
21
-155.00000230967999
31
0
0
LINE
5
136
100
AcDbEntity
8
0
100
AcDbLine
10
110.00000163912773
20
-155.00000230967999
30
0
11
110
21
-55
31
0
0
LINE
5
137
100
AcDbEntity
8
0
100
AcDbLine
10
110
20
-55
30
0
11
1040.0000154972076
21
-55.000000819563866
31
0
0
LWPOLYLINE
5
138
100
AcDbEntity
8
0
100
AcDbPolyline
90
4
70
1
43
0.0
10
145
20
-60.024535974150737
10
115
20
-60.024536465889042
10
115
20
-140
10
145
20
-140
0
LINE
5
139
100
AcDbEntity
8
0
100
AcDbLine
10
115
20
-135
30
0
11
145
21
-135
31
0
0
LINE
5
140
100
AcDbEntity
8
0
100
AcDbLine
10
115
20
-125
30
0
11
145
21
-125
31
0
0
LINE
5
141
100
AcDbEntity
8
0
100
AcDbLine
10
115
20
-110
30
0
11
145
21
-110
31
0
0
LINE
5
142
100
AcDbEntity
8
0
100
AcDbLine
10
115
20
-90
30
0
11
145
21
-90
31
0
0
LWPOLYLINE
5
143
100
AcDbEntity
8
0
100
AcDbPolyline
90
4
70
1
43
0.0
10
1035
20
-145
10
115
20
-145.00390348409493
10
115
20
-150.00001507997513
10
1035.0000212145874
20
-150
0
LWPOLYLINE
5
144
100
AcDbEntity
8
0
100
AcDbPolyline
90
4
70
1
43
0.0
10
180.009559829311
20
-60.000000920515639
10
150.00000223517418
20
-60.000000894069672
10
150
20
-140
10
180.009559829311
20
-140
0
LINE
5
145
100
AcDbEntity
8
0
100
AcDbLine
10
150.00000139698389
20
-90
30
0
11
180.009559829311
21
-90
31
0
0
LINE
5
146
100
AcDbEntity
8
0
100
AcDbLine
10
150.00000083819032
20
-110
30
0
11
180.009559829311
21
-110
31
0
0
LINE
5
147
100
AcDbEntity
8
0
100
AcDbLine
10
150.00000041909516
20
-125
30
0
11
180.009559829311
21
-125
31
0
0
LINE
5
148
100
AcDbEntity
8
0
100
AcDbLine
10
150.00000013969839
20
-135
30
0
11
180.009559829311
21
-135
31
0
0
LWPOLYLINE
5
149
100
AcDbEntity
8
0
100
AcDbPolyline
90
4
70
1
43
0.0
10
215
20
-60.000000924891559
10
184.97513926792868
20
-60.000000924891559
10
185
20
-140
10
215
20
-140
0
LINE
5
150
100
AcDbEntity
8
0
100
AcDbLine
10
184.98446204227579
20
-90
30
0
11
215
21
-90
31
0
0
LINE
5
151
100
AcDbEntity
8
0
100
AcDbLine
10
184.99067722536549
20
-110
30
0
11
215
21
-110
31
0
0
LINE
5
152
100
AcDbEntity
8
0
100
AcDbLine
10
184.99533861268276
20
-125
30
0
11
215
21
-125
31
0
0
LINE
5
153
100
AcDbEntity
8
0
100
AcDbLine
10
184.99844620422755
20
-135
30
0
11
215
21
-135
31
0
0
LWPOLYLINE
5
154
100
AcDbEntity
8
0
100
AcDbPolyline
90
4
70
1
43
0.0
10
280
20
-59.999999999999993
10
220
20
-60
10
220
20
-140
10
280
20
-140
0
LINE
5
155
100
AcDbEntity
8
0
100
AcDbLine
10
220
20
-90
30
0
11
280
21
-90
31
0
0
LINE
5
156
100
AcDbEntity
8
0
100
AcDbLine
10
220
20
-110
30
0
11
280
21
-110
31
0
0
LINE
5
157
100
AcDbEntity
8
0
100
AcDbLine
10
220
20
-125
30
0
11
280
21
-125
31
0
0
LINE
5
158
100
AcDbEntity
8
0
100
AcDbLine
10
220
20
-135
30
0
11
280
21
-135
31
0
0
LWPOLYLINE
5
159
100
AcDbEntity
8
0
100
AcDbPolyline
90
4
70
1
43
0.0
10
345
20
-60.000000052875095
10
285
20
-60
10
285
20
-140
10
345.00033943339935
20
-140
0
LINE
5
160
100
AcDbEntity
8
0
100
AcDbLine
10
345.00033943339935
20
-140
30
0
11
345.00033943456731
21
-140
31
0
0
LINE
5
161
100
AcDbEntity
8
0
100
AcDbLine
10
345.00033943339935
20
-140
30
0
11
345.00033943239083
21
-140
31
0
0
LINE
5
162
100
AcDbEntity
8
0
100
AcDbLine
10
285
20
-90
30
0
11
345.00012728644447
21
-89.99974542441025
31
0
0
LINE
5
163
100
AcDbEntity
8
0
100
AcDbLine
10
285
20
-110
30
0
11
345.00012728644447
21
-110
31
0
0
LINE
5
164
100
AcDbEntity
8
0
100
AcDbLine
10
285
20
-125
30
0
11
345.00027578855679
21
-124.99974542378015
31
0
0
LINE
5
165
100
AcDbEntity
8
0
100
AcDbLine
10
285
20
-135
30
0
11
345.00031821773177
21
-134.99974542360013
31
0
0
LWPOLYLINE
5
166
100
AcDbEntity
8
0
100
AcDbPolyline
90
4
70
1
43
0.0
10
410
20
-60.000000052875102
10
350
20
-60
10
350
20
-140
10
410.00033943339929
20
-140
0
LINE
5
167
100
AcDbEntity
8
0
100
AcDbLine
10
410.00033943339929
20
-140
30
0
11
410.00033943528194
21
-140
31
0
0
LINE
5
168
100
AcDbEntity
8
0
100
AcDbLine
10
350
20
-89.999724210362842
30
0
11
410.00012728527429
21
-89.999469634773149
31
0
0
LINE
5
169
100
AcDbEntity
8
0
100
AcDbLine
10
350
20
-110
30
0
11
410.00021214479432
21
-109.99974542405025
31
0
0
LINE
5
170
100
AcDbEntity
8
0
100
AcDbLine
10
350
20
-124.99974542378015
30
0
11
410.00027578747665
21
-124.99949084756038
31
0
0
LINE
5
171
100
AcDbEntity
8
0
100
AcDbLine
10
350
20
-134.99972421036284
30
0
11
410.00031821656148
21
-134.99946963396303
31
0
0
LWPOLYLINE
5
172
100
AcDbEntity
8
0
100
AcDbPolyline
90
5
70
1
43
0.0
10
444.99999999972999
20
-59.999872712475124
10
415
20
-60
10
415
20
-97.5
10
416.00000619888306
20
-97.5
10
445.00000663101673
20
-97.5
0
LWPOLYLINE
5
173
100
AcDbEntity
8
0
100
AcDbPolyline
90
4
70
1
43
0.0
10
415
20
-140
10
444.99999999972999
20
-140
10
444.99999999972999
20
-102.49993635623755
10
415
20
-102.49993635623755
0
LWPOLYLINE
5
174
100
AcDbEntity
8
0
100
AcDbPolyline
90
4
70
1
43
0.0
10
480
20
-60
10
450
20
-60
10
450
20
-97.257490633430507
10
480
20
-97.257490633430507
0
LWPOLYLINE
5
175
100
AcDbEntity
8
0
100
AcDbPolyline
90
4
70
1
43
0.0
10
450
20
-140
10
480
20
-140
10
480.00000715255737
20
-102.49993635623755
10
450
20
-102.49993635623755
0
LWPOLYLINE
5
176
100
AcDbEntity
8
0
100
AcDbPolyline
90
4
70
1
43
0.0
10
515
20
-60
10
485
20
-60
10
485
20
-97.257490633430507
10
515.00000767409801
20
-97.257490633430507
0
LWPOLYLINE
5
177
100
AcDbEntity
8
0
100
AcDbPolyline
90
5
70
1
43
0.0
10
485
20
-140
10
515
20
-140
10
515.00000628398845
20
-104.99999999999997
10
515.00000767409801
20
-102.49993635623755
10
485
20
-102.49993635623755
0
CIRCLE
5
178
100
AcDbEntity
8
0
100
AcDbCircle
10
1020
20
-125
30
0
40
9.0000000000000195
0
CIRCLE
5
179
100
AcDbEntity
8
0
100
AcDbCircle
10
990
20
-125
30
0
40
9.0000000000000195
0
CIRCLE
5
180
100
AcDbEntity
8
0
100
AcDbCircle
10
960
20
-125
30
0
40
9.0000000000000195
0
CIRCLE
5
181
100
AcDbEntity
8
0
100
AcDbCircle
10
930
20
-125
30
0
40
9.0000000000000195
0
CIRCLE
5
182
100
AcDbEntity
8
0
100
AcDbCircle
10
1020
20
-70
30
0
40
2.5
0
CIRCLE
5
183
100
AcDbEntity
8
0
100
AcDbCircle
10
1009.9470652886579
20
-70
30
0
40
4.0000000000000568
0
CIRCLE
5
184
100
AcDbEntity
8
0
100
AcDbCircle
10
996.93108002740087
20
-70.095200376531253
30
0
40
5.0000000000000497
0
CIRCLE
5
185
100
AcDbEntity
8
0
100
AcDbCircle
10
980.00001460313797
20
-70.000001043081284
30
0
40
7.5000000000000275
0
CIRCLE
5
186
100
AcDbEntity
8
0
100
AcDbCircle
10
1020
20
-90
30
0
40
2.5
0
CIRCLE
5
187
100
AcDbEntity
8
0
100
AcDbCircle
10
980.00001460313797
20
-90.000001043081284
30
0
40
7.5000000000000275
0
CIRCLE
5
188
100
AcDbEntity
8
0
100
AcDbCircle
10
1009.9470652886579
20
-90
30
0
40
4.0000000000000568
0
CIRCLE
5
189
100
AcDbEntity
8
0
100
AcDbCircle
10
996.93108002740087
20
-90.095200376531253
30
0
40
5.0000000000000497
0
CIRCLE
5
190
100
AcDbEntity
8
0
100
AcDbCircle
10
960
20
-65
30
0
40
2.3999999999999715
0
CIRCLE
5
191
100
AcDbEntity
8
0
100
AcDbCircle
10
952
20
-65
30
0
40
2.3999999999999715
0
CIRCLE
5
192
100
AcDbEntity
8
0
100
AcDbCircle
10
944
20
-65
30
0
40
2.3999999999999715
0
CIRCLE
5
193
100
AcDbEntity
8
0
100
AcDbCircle
10
936.00000000000011
20
-65
30
0
40
2.3999999999999715
0
CIRCLE
5
194
100
AcDbEntity
8
0
100
AcDbCircle
10
928.00000000000011
20
-65
30
0
40
2.3999999999999715
0
CIRCLE
5
195
100
AcDbEntity
8
0
100
AcDbCircle
10
920.00000000000011
20
-65
30
0
40
2.3999999999999715
0
CIRCLE
5
196
100
AcDbEntity
8
0
100
AcDbCircle
10
960
20
-73
30
0
40
2.3999999999999715
0
CIRCLE
5
197
100
AcDbEntity
8
0
100
AcDbCircle
10
952
20
-73
30
0
40
2.3999999999999715
0
CIRCLE
5
198
100
AcDbEntity
8
0
100
AcDbCircle
10
944
20
-73
30
0
40
2.3999999999999715
0
CIRCLE
5
199
100
AcDbEntity
8
0
100
AcDbCircle
10
936.00000000000011
20
-73
30
0
40
2.3999999999999715
0
CIRCLE
5
200
100
AcDbEntity
8
0
100
AcDbCircle
10
928.00000000000011
20
-73
30
0
40
2.3999999999999715
0
CIRCLE
5
201
100
AcDbEntity
8
0
100
AcDbCircle
10
920.00000000000011
20
-73
30
0
40
2.3999999999999715
0
CIRCLE
5
202
100
AcDbEntity
8
0
100
AcDbCircle
10
960
20
-81
30
0
40
2.3999999999999715
0
CIRCLE
5
203
100
AcDbEntity
8
0
100
AcDbCircle
10
952
20
-81
30
0
40
2.3999999999999715
0
CIRCLE
5
204
100
AcDbEntity
8
0
100
AcDbCircle
10
944
20
-81
30
0
40
2.3999999999999715
0
CIRCLE
5
205
100
AcDbEntity
8
0
100
AcDbCircle
10
936.00000000000011
20
-81
30
0
40
2.3999999999999715
0
CIRCLE
5
206
100
AcDbEntity
8
0
100
AcDbCircle
10
928.00000000000011
20
-81
30
0
40
2.3999999999999715
0
CIRCLE
5
207
100
AcDbEntity
8
0
100
AcDbCircle
10
920.00000000000011
20
-81
30
0
40
2.3999999999999715
0
CIRCLE
5
208
100
AcDbEntity
8
0
100
AcDbCircle
10
960
20
-88.999999999999986
30
0
40
2.3999999999999715
0
CIRCLE
5
209
100
AcDbEntity
8
0
100
AcDbCircle
10
952
20
-88.999999999999986
30
0
40
2.3999999999999715
0
CIRCLE
5
210
100
AcDbEntity
8
0
100
AcDbCircle
10
944
20
-88.999999999999986
30
0
40
2.3999999999999715
0
CIRCLE
5
211
100
AcDbEntity
8
0
100
AcDbCircle
10
936.00000000000011
20
-88.999999999999986
30
0
40
2.3999999999999715
0
CIRCLE
5
212
100
AcDbEntity
8
0
100
AcDbCircle
10
928.00000000000011
20
-88.999999999999986
30
0
40
2.3999999999999715
0
CIRCLE
5
213
100
AcDbEntity
8
0
100
AcDbCircle
10
920.00000000000011
20
-88.999999999999986
30
0
40
2.3999999999999715
0
CIRCLE
5
214
100
AcDbEntity
8
0
100
AcDbCircle
10
960
20
-97
30
0
40
2.3999999999999715
0
CIRCLE
5
215
100
AcDbEntity
8
0
100
AcDbCircle
10
952
20
-97
30
0
40
2.3999999999999715
0
CIRCLE
5
216
100
AcDbEntity
8
0
100
AcDbCircle
10
944
20
-97
30
0
40
2.3999999999999715
0
CIRCLE
5
217
100
AcDbEntity
8
0
100
AcDbCircle
10
936.00000000000011
20
-97
30
0
40
2.3999999999999715
0
CIRCLE
5
218
100
AcDbEntity
8
0
100
AcDbCircle
10
928.00000000000011
20
-97
30
0
40
2.3999999999999715
0
CIRCLE
5
219
100
AcDbEntity
8
0
100
AcDbCircle
10
920.00000000000011
20
-97
30
0
40
2.3999999999999715
0
CIRCLE
5
220
100
AcDbEntity
8
0
100
AcDbCircle
10
960
20
-105
30
0
40
2.3999999999999715
0
CIRCLE
5
221
100
AcDbEntity
8
0
100
AcDbCircle
10
952
20
-105
30
0
40
2.3999999999999715
0
CIRCLE
5
222
100
AcDbEntity
8
0
100
AcDbCircle
10
944
20
-105
30
0
40
2.3999999999999715
0
CIRCLE
5
223
100
AcDbEntity
8
0
100
AcDbCircle
10
936.00000000000011
20
-105
30
0
40
2.3999999999999715
0
CIRCLE
5
224
100
AcDbEntity
8
0
100
AcDbCircle
10
928.00000000000011
20
-105
30
0
40
2.3999999999999715
0
CIRCLE
5
225
100
AcDbEntity
8
0
100
AcDbCircle
10
920.00000000000011
20
-105
30
0
40
2.3999999999999715
0
LWPOLYLINE
5
226
100
AcDbEntity
8
0
100
AcDbPolyline
90
4
70
1
43
0.0
10
835
20
-60
10
905
20
-60
10
905
20
-140
10
835
20
-140
0
LINE
5
227
100
AcDbEntity
8
0
100
AcDbLine
10
835
20
-140
30
0
11
835
21
-135
31
0
0
LINE
5
228
100
AcDbEntity
8
0
100
AcDbLine
10
835
20
-130
30
0
11
905
21
-130
31
0
0
LINE
5
229
100
AcDbEntity
8
0
100
AcDbLine
10
835
20
-120
30
0
11
905
21
-120
31
0
0
LINE
5
230
100
AcDbEntity
8
0
100
AcDbLine
10
835
20
-110
30
0
11
905
21
-110
31
0
0
LINE
5
231
100
AcDbEntity
8
0
100
AcDbLine
10
835
20
-100
30
0
11
905
21
-100
31
0
0
LINE
5
232
100
AcDbEntity
8
0
100
AcDbLine
10
835
20
-90
30
0
11
905
21
-90
31
0
0
LINE
5
233
100
AcDbEntity
8
0
100
AcDbLine
10
835
20
-80
30
0
11
905
21
-80
31
0
0
LINE
5
234
100
AcDbEntity
8
0
100
AcDbLine
10
835
20
-70
30
0
11
905
21
-70
31
0
0
LWPOLYLINE
5
235
100
AcDbEntity
8
0
100
AcDbPolyline
90
4
70
1
43
0.0
10
549.99999999999932
20
-59.99999382076092
10
520
20
-60
10
520
20
-97.257490633430507
10
549.99999999999932
20
-97.257490633430507
0
LWPOLYLINE
5
236
100
AcDbEntity
8
0
100
AcDbPolyline
90
4
70
1
43
0.0
10
549.99999999999932
20
-102.49993635623755
10
520
20
-102.49993635623755
10
520.52427476364198
20
-140
10
549.99999999999932
20
-140
0
LWPOLYLINE
5
237
100
AcDbEntity
8
0
100
AcDbPolyline
90
4
70
1
43
0.0
10
585.00734540132271
20
-59.999992789374772
10
555.00734540132271
20
-59.999992789374772
10
555
20
-97.257490633430507
10
585.00734540132271
20
-97.257490633430507
0
LWPOLYLINE
5
238
100
AcDbEntity
8
0
100
AcDbPolyline
90
4
70
1
43
0.0
10
585.00734540132271
20
-102.49993635623755
10
555
20
-102.49993635623755
10
555.00367270066135
20
-140
10
585.00734540132271
20
-140
0
LINE
5
239
100
AcDbEntity
8
0
100
AcDbLine
10
575
20
-100
30
0
11
655
21
-100
31
0
0
LWPOLYLINE
5
240
100
AcDbEntity
8
0
100
AcDbPolyline
90
4
70
1
43
0.0
10
590
20
-80
10
590
20
-95
10
605
20
-95
10
605
20
-80
0
LWPOLYLINE
5
241
100
AcDbEntity
8
0
100
AcDbPolyline
90
4
70
1
43
0.0
10
590
20
-59.999992789374772
10
590
20
-75
10
605
20
-75
10
605
20
-59.999992789374772
0
LWPOLYLINE
5
242
100
AcDbEntity
8
0
100
AcDbPolyline
90
4
70
1
43
0.0
10
605
20
-104.99999999999994
10
590
20
-105
10
590
20
-120.00000178813934
10
605
20
-120.00000178813934
0
LWPOLYLINE
5
243
100
AcDbEntity
8
0
100
AcDbPolyline
90
4
70
1
43
0.0
10
590
20
-140
10
590
20
-125
10
605
20
-125
10
605
20
-140
0
LWPOLYLINE
5
244
100
AcDbEntity
8
0
100
AcDbPolyline
90
4
70
1
43
0.0
10
610
20
-120.00000178813934
10
610
20
-105
10
625
20
-104.99999999999994
10
625
20
-120.00000178813934
0
LWPOLYLINE
5
245
100
AcDbEntity
8
0
100
AcDbPolyline
90
4
70
1
43
0.0
10
625
20
-125
10
625
20
-140
10
610
20
-140
10
610
20
-125
0
LWPOLYLINE
5
246
100
AcDbEntity
8
0
100
AcDbPolyline
90
4
70
1
43
0.0
10
610
20
-80
10
610
20
-95
10
625
20
-95
10
625
20
-80
0
LWPOLYLINE
5
247
100
AcDbEntity
8
0
100
AcDbPolyline
90
4
70
1
43
0.0
10
625
20
-75
10
625
20
-59.999992789374772
10
610
20
-59.999992789374772
10
610
20
-75
0
LWPOLYLINE
5
248
100
AcDbEntity
8
0
100
AcDbPolyline
90
4
70
1
43
0.0
10
630
20
-120.00000178813934
10
630
20
-105
10
645
20
-104.99999999999994
10
645
20
-120.00000178813934
0
LWPOLYLINE
5
249
100
AcDbEntity
8
0
100
AcDbPolyline
90
4
70
1
43
0.0
10
645
20
-125
10
645
20
-140
10
630
20
-140
10
630
20
-125
0
LWPOLYLINE
5
250
100
AcDbEntity
8
0
100
AcDbPolyline
90
4
70
1
43
0.0
10
630
20
-80
10
630
20
-95
10
645
20
-95
10
645
20
-80
0
LWPOLYLINE
5
251
100
AcDbEntity
8
0
100
AcDbPolyline
90
4
70
1
43
0.0
10
645
20
-75
10
645
20
-59.999992789374772
10
630
20
-59.999992789374772
10
630
20
-75
0
LWPOLYLINE
5
252
100
AcDbEntity
8
0
100
AcDbPolyline
90
4
70
1
43
0.0
10
650
20
-120.00000178813934
10
650
20
-105
10
665
20
-104.99999999999994
10
665
20
-120.00000178813934
0
LWPOLYLINE
5
253
100
AcDbEntity
8
0
100
AcDbPolyline
90
4
70
1
43
0.0
10
665
20
-125
10
665
20
-140
10
650
20
-140
10
650
20
-125
0
LWPOLYLINE
5
254
100
AcDbEntity
8
0
100
AcDbPolyline
90
4
70
1
43
0.0
10
650
20
-80
10
650
20
-95
10
665
20
-95
10
665
20
-80
0
LWPOLYLINE
5
255
100
AcDbEntity
8
0
100
AcDbPolyline
90
4
70
1
43
0.0
10
665
20
-75
10
665
20
-59.999992789374772
10
650
20
-59.999992789374772
10
650
20
-75
0
LWPOLYLINE
5
256
100
AcDbEntity
8
0
100
AcDbPolyline
90
4
70
1
43
0.0
10
670
20
-120.00000178813934
10
670
20
-105
10
685
20
-104.99999999999994
10
685
20
-120.00000178813934
0
LWPOLYLINE
5
257
100
AcDbEntity
8
0
100
AcDbPolyline
90
4
70
1
43
0.0
10
685
20
-125
10
685
20
-140
10
670
20
-140
10
670
20
-125
0
LWPOLYLINE
5
258
100
AcDbEntity
8
0
100
AcDbPolyline
90
4
70
1
43
0.0
10
670
20
-80
10
670
20
-95
10
685
20
-95
10
685
20
-80
0
LWPOLYLINE
5
259
100
AcDbEntity
8
0
100
AcDbPolyline
90
4
70
1
43
0.0
10
685
20
-75
10
685
20
-59.999992789374772
10
670
20
-59.999992789374772
10
670
20
-75
0
LWPOLYLINE
5
260
100
AcDbEntity
8
0
100
AcDbPolyline
90
4
70
1
43
0.0
10
690
20
-120.00000178813934
10
690
20
-105
10
705
20
-104.99999999999994
10
705
20
-120.00000178813934
0
LWPOLYLINE
5
261
100
AcDbEntity
8
0
100
AcDbPolyline
90
4
70
1
43
0.0
10
705
20
-125
10
705
20
-140
10
690
20
-140
10
690
20
-125
0
LWPOLYLINE
5
262
100
AcDbEntity
8
0
100
AcDbPolyline
90
4
70
1
43
0.0
10
690
20
-80
10
690
20
-95
10
705
20
-95
10
705
20
-80
0
LWPOLYLINE
5
263
100
AcDbEntity
8
0
100
AcDbPolyline
90
4
70
1
43
0.0
10
705
20
-75
10
705
20
-59.999992789374772
10
690
20
-59.999992789374772
10
690
20
-75
0
LWPOLYLINE
5
264
100
AcDbEntity
8
0
100
AcDbPolyline
90
4
70
1
43
0.0
10
710
20
-120.00000178813934
10
710
20
-105
10
725
20
-104.99999999999994
10
725
20
-120.00000178813934
0
LWPOLYLINE
5
265
100
AcDbEntity
8
0
100
AcDbPolyline
90
4
70
1
43
0.0
10
725
20
-125
10
725
20
-140
10
710
20
-140
10
710
20
-125
0
LWPOLYLINE
5
266
100
AcDbEntity
8
0
100
AcDbPolyline
90
4
70
1
43
0.0
10
710
20
-80
10
710
20
-95
10
725
20
-95
10
725
20
-80
0
LWPOLYLINE
5
267
100
AcDbEntity
8
0
100
AcDbPolyline
90
4
70
1
43
0.0
10
725
20
-75
10
725
20
-59.999992789374772
10
710
20
-59.999992789374772
10
710
20
-75
0
LWPOLYLINE
5
268
100
AcDbEntity
8
0
100
AcDbPolyline
90
4
70
1
43
0.0
10
730
20
-120.00000178813934
10
730
20
-105
10
745
20
-104.99999999999994
10
745
20
-120.00000178813934
0
LWPOLYLINE
5
269
100
AcDbEntity
8
0
100
AcDbPolyline
90
4
70
1
43
0.0
10
745
20
-125
10
745
20
-140
10
730
20
-140
10
730
20
-125
0
LWPOLYLINE
5
270
100
AcDbEntity
8
0
100
AcDbPolyline
90
4
70
1
43
0.0
10
730
20
-80
10
730
20
-95
10
745
20
-95
10
745
20
-80
0
LWPOLYLINE
5
271
100
AcDbEntity
8
0
100
AcDbPolyline
90
4
70
1
43
0.0
10
745
20
-75
10
745
20
-59.999992789374772
10
730
20
-59.999992789374772
10
730
20
-75
0
LWPOLYLINE
5
272
100
AcDbEntity
8
0
100
AcDbPolyline
90
4
70
1
43
0.0
10
750
20
-120.00000178813934
10
750
20
-105
10
765
20
-104.99999999999994
10
765
20
-120.00000178813934
0
LWPOLYLINE
5
273
100
AcDbEntity
8
0
100
AcDbPolyline
90
4
70
1
43
0.0
10
765
20
-125
10
765
20
-140
10
750
20
-140
10
750
20
-125
0
LWPOLYLINE
5
274
100
AcDbEntity
8
0
100
AcDbPolyline
90
4
70
1
43
0.0
10
750
20
-80
10
750
20
-95
10
765
20
-95
10
765
20
-80
0
LWPOLYLINE
5
275
100
AcDbEntity
8
0
100
AcDbPolyline
90
4
70
1
43
0.0
10
765
20
-75
10
765
20
-59.999992789374772
10
750
20
-59.999992789374772
10
750
20
-75
0
LWPOLYLINE
5
276
100
AcDbEntity
8
0
100
AcDbPolyline
90
4
70
1
43
0.0
10
770
20
-120.00000178813934
10
770
20
-105
10
785
20
-104.99999999999994
10
785
20
-120.00000178813934
0
LWPOLYLINE
5
277
100
AcDbEntity
8
0
100
AcDbPolyline
90
4
70
1
43
0.0
10
785
20
-125
10
785
20
-140
10
770
20
-140
10
770
20
-125
0
LWPOLYLINE
5
278
100
AcDbEntity
8
0
100
AcDbPolyline
90
4
70
1
43
0.0
10
770
20
-80
10
770
20
-95
10
785
20
-95
10
785
20
-80
0
LWPOLYLINE
5
279
100
AcDbEntity
8
0
100
AcDbPolyline
90
4
70
1
43
0.0
10
785
20
-75
10
785
20
-59.999992789374772
10
770
20
-59.999992789374772
10
770
20
-75
0
LWPOLYLINE
5
280
100
AcDbEntity
8
0
100
AcDbPolyline
90
4
70
1
43
0.0
10
790
20
-120.00000178813934
10
790
20
-105
10
805
20
-104.99999999999994
10
805
20
-120.00000178813934
0
LWPOLYLINE
5
281
100
AcDbEntity
8
0
100
AcDbPolyline
90
4
70
1
43
0.0
10
805
20
-125
10
805
20
-140
10
790
20
-140
10
790
20
-125
0
LWPOLYLINE
5
282
100
AcDbEntity
8
0
100
AcDbPolyline
90
4
70
1
43
0.0
10
790
20
-80
10
790
20
-95
10
805
20
-95
10
805
20
-80
0
LWPOLYLINE
5
283
100
AcDbEntity
8
0
100
AcDbPolyline
90
4
70
1
43
0.0
10
805
20
-75
10
805
20
-59.999992789374772
10
790
20
-59.999992789374772
10
790
20
-75
0
LWPOLYLINE
5
284
100
AcDbEntity
8
0
100
AcDbPolyline
90
4
70
1
43
0.0
10
810
20
-120.00000178813934
10
810
20
-105
10
825
20
-104.99999999999994
10
825
20
-120.00000178813934
0
LWPOLYLINE
5
285
100
AcDbEntity
8
0
100
AcDbPolyline
90
4
70
1
43
0.0
10
825
20
-125
10
825
20
-140
10
810
20
-140
10
810
20
-125
0
LWPOLYLINE
5
286
100
AcDbEntity
8
0
100
AcDbPolyline
90
4
70
1
43
0.0
10
810
20
-80
10
810
20
-95
10
825
20
-95
10
825
20
-80
0
LWPOLYLINE
5
287
100
AcDbEntity
8
0
100
AcDbPolyline
90
4
70
1
43
0.0
10
825
20
-75
10
825
20
-59.999992789374772
10
810
20
-59.999992789374772
10
810
20
-75
0
ENDSEC
0
SECTION
2
OBJECTS
0
DICTIONARY
5
C
100
AcDbDictionary
3
ACAD_GROUP
350
D
3
ACAD_MLINESTYLE
350
17
0
DICTIONARY
5
D
100
AcDbDictionary
0
DICTIONARY
5
1A
330
C
100
AcDbDictionary
0
DICTIONARY
5
17
100
AcDbDictionary
0
ENDSEC
0
EOF
