  0
SECTION
  2
HEADER
  9
$ACADVER
  1
AC1014
  9
$HANDSEED
  5
FFFF
  9
$MEASUREMENT
 70
     1
  0
ENDSEC
  0
SECTION
  2
TABLES
  0
TABLE
  2
VPORT
  5
8
330
0
100
AcDbSymbolTable
 70
     4
  0
VPORT
  5
2E
330
8
100
AcDbSymbolTableRecord
100
AcDbViewportTableRecord
  2
*ACTIVE
 70
     0
 10
0.0
 20
0.0
 11
1.0
 21
1.0
 12
210.0
 22
148.5
 13
0.0
 23
0.0
 14
10.0
 24
10.0
 15
10.0
 25
10.0
 16
0.0
 26
0.0
 36
1.0
 17
0.0
 27
0.0
 37
0.0
 40
341.0
 41
1.24
 42
50.0
 43
0.0
 44
0.0
 50
0.0
 51
0.0
 71
     0
 72
   100
 73
     1
 74
     3
 75
     0
 76
     0
 77
     0
 78
     0
  0
ENDTAB
  0
TABLE
  2
LTYPE
  5
5
330
0
100
AcDbSymbolTable
 70
     1
  0
LTYPE
  5
14
330
5
100
AcDbSymbolTableRecord
100
AcDbLinetypeTableRecord
  2
BYBLOCK
 70
     0
  3

 72
    65
 73
     0
 40
0.0
  0
LTYPE
  5
15
330
5
100
AcDbSymbolTableRecord
100
AcDbLinetypeTableRecord
  2
BYLAYER
 70
     0
  3

 72
    65
 73
     0
 40
0.0
  0
LTYPE
  5
16
330
5
100
AcDbSymbolTableRecord
100
AcDbLinetypeTableRecord
  2
CONTINUOUS
 70
     0
  3
Solid line
 72
    65
 73
     0
 40
0.0
  0
ENDTAB
  0
TABLE
  2
LAYER
  5
2
100
AcDbSymbolTable
 70
2
  0
LAYER
  5
50
100
AcDbSymbolTableRecord
100
AcDbLayerTableRecord
  2
0
 70
0
  6
CONTINUOUS
  0
LAYER
  5
51
100
AcDbSymbolTableRecord
100
AcDbLayerTableRecord
  2
Calque_1
 70
0
  6
CONTINUOUS
  0
ENDTAB
  0
TABLE
  2
STYLE
  5
3
330
0
100
AcDbSymbolTable
 70
     1
  0
STYLE
  5
11
330
3
100
AcDbSymbolTableRecord
100
AcDbTextStyleTableRecord
  2
STANDARD
 70
     0
 40
0.0
 41
1.0
 50
0.0
 71
     0
 42
2.5
  3
txt
  4

  0
ENDTAB
  0
TABLE
  2
VIEW
  5
6
330
0
100
AcDbSymbolTable
 70
     0
  0
ENDTAB
  0
TABLE
  2
UCS
  5
7
330
0
100
AcDbSymbolTable
 70
     0
  0
ENDTAB
  0
TABLE
  2
APPID
  5
9
330
0
100
AcDbSymbolTable
 70
     2
  0
APPID
  5
12
330
9
100
AcDbSymbolTableRecord
100
AcDbRegAppTableRecord
  2
ACAD
 70
     0
  0
ENDTAB
  0
TABLE
  2
DIMSTYLE
  5
A
330
0
100
AcDbSymbolTable
 70
     1
  0
DIMSTYLE
105
27
330
A
100
AcDbSymbolTableRecord
100
AcDbDimStyleTableRecord
  2
ISO-25
 70
     0
  3

  4

  5

  6

  7

 40
1.0
 41
2.5
 42
0.625
 43
3.75
 44
1.25
 45
0.0
 46
0.0
 47
0.0
 48
0.0
140
2.5
141
2.5
142
0.0
143
0.03937007874016
144
1.0
145
0.0
146
1.0
147
0.625
 71
     0
 72
     0
 73
     0
 74
     0
 75
     0
 76
     0
 77
     1
 78
     8
170
     0
171
     3
172
     1
173
     0
174
     0
175
     0
176
     0
177
     0
178
     0
270
     2
271
     2
272
     2
273
     2
274
     3
340
11
275
     0
280
     0
281
     0
282
     0
283
     0
284
     8
285
     0
286
     0
287
     3
288
     0
  0
ENDTAB
  0
TABLE
  2
BLOCK_RECORD
  5
1
330
0
100
AcDbSymbolTable
 70
     1
  0
BLOCK_RECORD
  5
1F
330
1
100
AcDbSymbolTableRecord
100
AcDbBlockTableRecord
  2
*MODEL_SPACE
  0
BLOCK_RECORD
  5
1B
330
1
100
AcDbSymbolTableRecord
100
AcDbBlockTableRecord
  2
*PAPER_SPACE
  0
ENDTAB
  0
ENDSEC
  0
SECTION
  2
BLOCKS
  0
BLOCK
  5
20
330
1F
100
AcDbEntity
  8
0
100
AcDbBlockBegin
  2
*MODEL_SPACE
 70
     0
 10
0.0
 20
0.0
 30
0.0
  3
*MODEL_SPACE
  1

  0
ENDBLK
  5
21
330
1F
100
AcDbEntity
  8
0
100
AcDbBlockEnd
  0
BLOCK
  5
1C
330
1B
100
AcDbEntity
 67
     1
  8
0
100
AcDbBlockBegin
  2
*PAPER_SPACE
  1

  0
ENDBLK
  5
1D
330
1B
100
AcDbEntity
 67
     1
  8
0
100
AcDbBlockEnd
  0
ENDSEC
  0
SECTION
  2
ENTITIES
  0
LINE
  5
100
100
AcDbEntity
  8
Calque_1
 62
1
100
AcDbLine
 10
47.999825
 20
272.000182
 30
0.0
 11
47.999825
 21
71.999987
 31
0.0
  0
LINE
  5
101
100
AcDbEntity
  8
Calque_1
 62
1
100
AcDbLine
 10
47.999825
 20
71.999987
 30
0.0
 11
98.000013
 21
71.999987
 31
0.0
  0
LINE
  5
102
100
AcDbEntity
  8
Calque_1
 62
1
100
AcDbLine
 10
98.000013
 20
71.999987
 30
0.0
 11
98.000013
 21
272.000182
 31
0.0
  0
LINE
  5
103
100
AcDbEntity
  8
Calque_1
 62
1
100
AcDbLine
 10
98.000013
 20
272.000182
 30
0.0
 11
47.999825
 21
272.000182
 31
0.0
  0
LINE
  5
104
100
AcDbEntity
  8
Calque_1
 62
1
100
AcDbLine
 10
47.999825
 20
272.000182
 30
0.0
 11
47.999825
 21
272.000182
 31
0.0
  0
SPLINE
  5
105
100
AcDbEntity
  8
Calque_1
 62
1
100
AcDbSpline
 70
8
 71
3
 72
8
 73
4
 74
0
 40
0
 40
0
 40
0
 40
0
 40
1
 40
1
 40
1
 40
1
 10
73.000195
 20
262.454236
 30
0.0
 10
74.656827
 20
262.454079
 30
0.0
 10
75.999753
 20
261.111153
 30
0.0
 10
75.999910
 20
259.454522
 30
0.0
  0
SPLINE
  5
106
100
AcDbEntity
  8
Calque_1
 62
1
100
AcDbSpline
 70
8
 71
3
 72
8
 73
4
 74
0
 40
0
 40
0
 40
0
 40
0
 40
1
 40
1
 40
1
 40
1
 10
75.999910
 20
259.454522
 30
0.0
 10
76.000056
 20
257.797675
 30
0.0
 10
74.657042
 20
256.454414
 30
0.0
 10
73.000195
 20
256.454257
 30
0.0
  0
SPLINE
  5
107
100
AcDbEntity
  8
Calque_1
 62
1
100
AcDbSpline
 70
8
 71
3
 72
8
 73
4
 74
0
 40
0
 40
0
 40
0
 40
0
 40
1
 40
1
 40
1
 40
1
 10
73.000195
 20
256.454257
 30
0.0
 10
72.204454
 20
256.454186
 30
0.0
 10
71.441284
 20
256.770262
 30
0.0
 10
70.878610
 20
257.332936
 30
0.0
  0
SPLINE
  5
108
100
AcDbEntity
  8
Calque_1
 62
1
100
AcDbSpline
 70
8
 71
3
 72
8
 73
4
 74
0
 40
0
 40
0
 40
0
 40
0
 40
1
 40
1
 40
1
 40
1
 10
70.878610
 20
257.332936
 30
0.0
 10
70.315936
 20
257.895610
 30
0.0
 10
69.999860
 20
258.658780
 30
0.0
 10
69.999931
 20
259.454522
 30
0.0
  0
SPLINE
  5
109
100
AcDbEntity
  8
Calque_1
 62
1
100
AcDbSpline
 70
8
 71
3
 72
8
 73
4
 74
0
 40
0
 40
0
 40
0
 40
0
 40
1
 40
1
 40
1
 40
1
 10
69.999931
 20
259.454522
 30
0.0
 10
70.000088
 20
261.111368
 30
0.0
 10
71.343349
 20
262.454382
 30
0.0
 10
73.000195
 20
262.454236
 30
0.0
  0
LINE
  5
10a
100
AcDbEntity
  8
Calque_1
 62
1
100
AcDbLine
 10
73.000195
 20
262.454236
 30
0.0
 11
73.000195
 21
262.454236
 31
0.0
  0
SPLINE
  5
10b
100
AcDbEntity
  8
Calque_1
 62
1
100
AcDbSpline
 70
8
 71
3
 72
8
 73
4
 74
0
 40
0
 40
0
 40
0
 40
0
 40
1
 40
1
 40
1
 40
1
 10
73.000195
 20
237.545368
 30
0.0
 10
74.656826
 20
237.545210
 30
0.0
 10
75.999751
 20
236.202286
 30
0.0
 10
75.999910
 20
234.545656
 30
0.0
  0
SPLINE
  5
10c
100
AcDbEntity
  8
Calque_1
 62
1
100
AcDbSpline
 70
8
 71
3
 72
8
 73
4
 74
0
 40
0
 40
0
 40
0
 40
0
 40
1
 40
1
 40
1
 40
1
 10
75.999910
 20
234.545656
 30
0.0
 10
76.000056
 20
232.888810
 30
0.0
 10
74.657042
 20
231.545549
 30
0.0
 10
73.000195
 20
231.545391
 30
0.0
  0
SPLINE
  5
10d
100
AcDbEntity
  8
Calque_1
 62
1
100
AcDbSpline
 70
8
 71
3
 72
8
 73
4
 74
0
 40
0
 40
0
 40
0
 40
0
 40
1
 40
1
 40
1
 40
1
 10
73.000195
 20
231.545391
 30
0.0
 10
72.204454
 20
231.545321
 30
0.0
 10
71.441284
 20
231.861397
 30
0.0
 10
70.878610
 20
232.424071
 30
0.0
  0
SPLINE
  5
10e
100
AcDbEntity
  8
Calque_1
 62
1
100
AcDbSpline
 70
8
 71
3
 72
8
 73
4
 74
0
 40
0
 40
0
 40
0
 40
0
 40
1
 40
1
 40
1
 40
1
 10
70.878610
 20
232.424071
 30
0.0
 10
70.315936
 20
232.986745
 30
0.0
 10
69.999860
 20
233.749915
 30
0.0
 10
69.999931
 20
234.545656
 30
0.0
  0
SPLINE
  5
10f
100
AcDbEntity
  8
Calque_1
 62
1
100
AcDbSpline
 70
8
 71
3
 72
8
 73
4
 74
0
 40
0
 40
0
 40
0
 40
0
 40
1
 40
1
 40
1
 40
1
 10
69.999931
 20
234.545656
 30
0.0
 10
70.000090
 20
236.202501
 30
0.0
 10
71.343350
 20
237.545514
 30
0.0
 10
73.000195
 20
237.545368
 30
0.0
  0
LINE
  5
110
100
AcDbEntity
  8
Calque_1
 62
1
100
AcDbLine
 10
73.000195
 20
237.545368
 30
0.0
 11
73.000195
 21
237.545368
 31
0.0
  0
LINE
  5
111
100
AcDbEntity
  8
Calque_1
 62
1
100
AcDbLine
 10
109.949813
 20
271.950000
 30
0.0
 11
109.949813
 21
221.891229
 31
0.0
  0
LINE
  5
112
100
AcDbEntity
  8
Calque_1
 62
1
100
AcDbLine
 10
109.949813
 20
221.891229
 30
0.0
 11
109.999975
 21
221.891229
 31
0.0
  0
LINE
  5
113
100
AcDbEntity
  8
Calque_1
 62
1
100
AcDbLine
 10
109.999975
 20
221.891229
 30
0.0
 11
109.999975
 21
151.950004
 31
0.0
  0
LINE
  5
114
100
AcDbEntity
  8
Calque_1
 62
1
100
AcDbLine
 10
109.999975
 20
151.950004
 30
0.0
 11
159.899838
 21
151.950004
 31
0.0
  0
LINE
  5
115
100
AcDbEntity
  8
Calque_1
 62
1
100
AcDbLine
 10
159.899838
 20
151.950004
 30
0.0
 11
159.899838
 21
221.891229
 31
0.0
  0
LINE
  5
116
100
AcDbEntity
  8
Calque_1
 62
1
100
AcDbLine
 10
159.899838
 20
221.891229
 30
0.0
 11
159.950000
 21
221.891229
 31
0.0
  0
LINE
  5
117
100
AcDbEntity
  8
Calque_1
 62
1
100
AcDbLine
 10
159.950000
 20
221.891229
 30
0.0
 11
159.950000
 21
271.950000
 31
0.0
  0
LINE
  5
118
100
AcDbEntity
  8
Calque_1
 62
1
100
AcDbLine
 10
159.950000
 20
271.950000
 30
0.0
 11
109.949813
 21
271.950000
 31
0.0
  0
LINE
  5
119
100
AcDbEntity
  8
Calque_1
 62
1
100
AcDbLine
 10
109.949813
 20
271.950000
 30
0.0
 11
109.949813
 21
271.950000
 31
0.0
  0
SPLINE
  5
11a
100
AcDbEntity
  8
Calque_1
 62
1
100
AcDbSpline
 70
8
 71
3
 72
8
 73
4
 74
0
 40
0
 40
0
 40
0
 40
0
 40
1
 40
1
 40
1
 40
1
 10
134.950183
 20
262.392870
 30
0.0
 10
136.606814
 20
262.392710
 30
0.0
 10
137.949738
 20
261.048211
 30
0.0
 10
137.949895
 20
259.389639
 30
0.0
  0
SPLINE
  5
11b
100
AcDbEntity
  8
Calque_1
 62
1
100
AcDbSpline
 70
8
 71
3
 72
8
 73
4
 74
0
 40
0
 40
0
 40
0
 40
0
 40
1
 40
1
 40
1
 40
1
 10
137.949895
 20
259.389639
 30
0.0
 10
137.950040
 20
257.730853
 30
0.0
 10
136.607028
 20
256.386019
 30
0.0
 10
134.950183
 20
256.385860
 30
0.0
  0
SPLINE
  5
11c
100
AcDbEntity
  8
Calque_1
 62
1
100
AcDbSpline
 70
8
 71
3
 72
8
 73
4
 74
0
 40
0
 40
0
 40
0
 40
0
 40
1
 40
1
 40
1
 40
1
 10
134.950183
 20
256.385860
 30
0.0
 10
134.154442
 20
256.385790
 30
0.0
 10
133.391272
 20
256.702236
 30
0.0
 10
132.828598
 20
257.265569
 30
0.0
  0
SPLINE
  5
11d
100
AcDbEntity
  8
Calque_1
 62
1
100
AcDbSpline
 70
8
 71
3
 72
8
 73
4
 74
0
 40
0
 40
0
 40
0
 40
0
 40
1
 40
1
 40
1
 40
1
 10
132.828598
 20
257.265569
 30
0.0
 10
132.265924
 20
257.828902
 30
0.0
 10
131.949848
 20
258.592965
 30
0.0
 10
131.949918
 20
259.389639
 30
0.0
  0
SPLINE
  5
11e
100
AcDbEntity
  8
Calque_1
 62
1
100
AcDbSpline
 70
8
 71
3
 72
8
 73
4
 74
0
 40
0
 40
0
 40
0
 40
0
 40
1
 40
1
 40
1
 40
1
 10
131.949918
 20
259.389639
 30
0.0
 10
131.950075
 20
261.048427
 30
0.0
 10
133.293336
 20
262.393016
 30
0.0
 10
134.950183
 20
262.392870
 30
0.0
  0
LINE
  5
11f
100
AcDbEntity
  8
Calque_1
 62
1
100
AcDbLine
 10
134.950183
 20
262.392870
 30
0.0
 11
134.950183
 21
262.392870
 31
0.0
  0
SPLINE
  5
120
100
AcDbEntity
  8
Calque_1
 62
1
100
AcDbSpline
 70
8
 71
3
 72
8
 73
4
 74
0
 40
0
 40
0
 40
0
 40
0
 40
1
 40
1
 40
1
 40
1
 10
134.950183
 20
237.454814
 30
0.0
 10
136.606812
 20
237.454655
 30
0.0
 10
137.949735
 20
236.110158
 30
0.0
 10
137.949895
 20
234.451588
 30
0.0
  0
SPLINE
  5
121
100
AcDbEntity
  8
Calque_1
 62
1
100
AcDbSpline
 70
8
 71
3
 72
8
 73
4
 74
0
 40
0
 40
0
 40
0
 40
0
 40
1
 40
1
 40
1
 40
1
 10
137.949895
 20
234.451588
 30
0.0
 10
137.950042
 20
232.792802
 30
0.0
 10
136.607029
 20
231.447966
 30
0.0
 10
134.950183
 20
231.447807
 30
0.0
  0
SPLINE
  5
122
100
AcDbEntity
  8
Calque_1
 62
1
100
AcDbSpline
 70
8
 71
3
 72
8
 73
4
 74
0
 40
0
 40
0
 40
0
 40
0
 40
1
 40
1
 40
1
 40
1
 10
134.950183
 20
231.447807
 30
0.0
 10
134.154442
 20
231.447737
 30
0.0
 10
133.391271
 20
231.764183
 30
0.0
 10
132.828597
 20
232.327517
 30
0.0
  0
SPLINE
  5
123
100
AcDbEntity
  8
Calque_1
 62
1
100
AcDbSpline
 70
8
 71
3
 72
8
 73
4
 74
0
 40
0
 40
0
 40
0
 40
0
 40
1
 40
1
 40
1
 40
1
 10
132.828597
 20
232.327517
 30
0.0
 10
132.265923
 20
232.890850
 30
0.0
 10
131.949848
 20
233.654915
 30
0.0
 10
131.949918
 20
234.451588
 30
0.0
  0
SPLINE
  5
124
100
AcDbEntity
  8
Calque_1
 62
1
100
AcDbSpline
 70
8
 71
3
 72
8
 73
4
 74
0
 40
0
 40
0
 40
0
 40
0
 40
1
 40
1
 40
1
 40
1
 10
131.949918
 20
234.451588
 30
0.0
 10
131.950078
 20
236.110374
 30
0.0
 10
133.293338
 20
237.454960
 30
0.0
 10
134.950183
 20
237.454814
 30
0.0
  0
LINE
  5
125
100
AcDbEntity
  8
Calque_1
 62
1
100
AcDbLine
 10
134.950183
 20
237.454814
 30
0.0
 11
134.950183
 21
237.454814
 31
0.0
  0
LINE
  5
126
100
AcDbEntity
  8
Calque_1
 62
1
100
AcDbLine
 10
176.049999
 20
271.950000
 30
0.0
 11
176.049999
 21
221.891229
 31
0.0
  0
LINE
  5
127
100
AcDbEntity
  8
Calque_1
 62
1
100
AcDbLine
 10
176.049999
 20
221.891229
 30
0.0
 11
176.100161
 21
221.891229
 31
0.0
  0
LINE
  5
128
100
AcDbEntity
  8
Calque_1
 62
1
100
AcDbLine
 10
176.100161
 20
221.891229
 30
0.0
 11
176.100161
 21
151.950004
 31
0.0
  0
LINE
  5
129
100
AcDbEntity
  8
Calque_1
 62
1
100
AcDbLine
 10
176.100161
 20
151.950004
 30
0.0
 11
226.000025
 21
151.950004
 31
0.0
  0
LINE
  5
12a
100
AcDbEntity
  8
Calque_1
 62
1
100
AcDbLine
 10
226.000025
 20
151.950004
 30
0.0
 11
226.000025
 21
221.891229
 31
0.0
  0
LINE
  5
12b
100
AcDbEntity
  8
Calque_1
 62
1
100
AcDbLine
 10
226.000025
 20
221.891229
 30
0.0
 11
226.050187
 21
221.891229
 31
0.0
  0
LINE
  5
12c
100
AcDbEntity
  8
Calque_1
 62
1
100
AcDbLine
 10
226.050187
 20
221.891229
 30
0.0
 11
226.050187
 21
271.950000
 31
0.0
  0
LINE
  5
12d
100
AcDbEntity
  8
Calque_1
 62
1
100
AcDbLine
 10
226.050187
 20
271.950000
 30
0.0
 11
176.049999
 21
271.950000
 31
0.0
  0
LINE
  5
12e
100
AcDbEntity
  8
Calque_1
 62
1
100
AcDbLine
 10
176.049999
 20
271.950000
 30
0.0
 11
176.049999
 21
271.950000
 31
0.0
  0
SPLINE
  5
12f
100
AcDbEntity
  8
Calque_1
 62
1
100
AcDbSpline
 70
8
 71
3
 72
8
 73
4
 74
0
 40
0
 40
0
 40
0
 40
0
 40
1
 40
1
 40
1
 40
1
 10
201.050370
 20
262.392870
 30
0.0
 10
202.707001
 20
262.392710
 30
0.0
 10
204.049925
 20
261.048211
 30
0.0
 10
204.050082
 20
259.389639
 30
0.0
  0
SPLINE
  5
130
100
AcDbEntity
  8
Calque_1
 62
1
100
AcDbSpline
 70
8
 71
3
 72
8
 73
4
 74
0
 40
0
 40
0
 40
0
 40
0
 40
1
 40
1
 40
1
 40
1
 10
204.050082
 20
259.389639
 30
0.0
 10
204.050227
 20
257.730853
 30
0.0
 10
202.707214
 20
256.386019
 30
0.0
 10
201.050370
 20
256.385860
 30
0.0
  0
SPLINE
  5
131
100
AcDbEntity
  8
Calque_1
 62
1
100
AcDbSpline
 70
8
 71
3
 72
8
 73
4
 74
0
 40
0
 40
0
 40
0
 40
0
 40
1
 40
1
 40
1
 40
1
 10
201.050370
 20
256.385860
 30
0.0
 10
200.254629
 20
256.385790
 30
0.0
 10
199.491459
 20
256.702236
 30
0.0
 10
198.928785
 20
257.265569
 30
0.0
  0
SPLINE
  5
132
100
AcDbEntity
  8
Calque_1
 62
1
100
AcDbSpline
 70
8
 71
3
 72
8
 73
4
 74
0
 40
0
 40
0
 40
0
 40
0
 40
1
 40
1
 40
1
 40
1
 10
198.928785
 20
257.265569
 30
0.0
 10
198.366111
 20
257.828902
 30
0.0
 10
198.050035
 20
258.592965
 30
0.0
 10
198.050105
 20
259.389639
 30
0.0
  0
SPLINE
  5
133
100
AcDbEntity
  8
Calque_1
 62
1
100
AcDbSpline
 70
8
 71
3
 72
8
 73
4
 74
0
 40
0
 40
0
 40
0
 40
0
 40
1
 40
1
 40
1
 40
1
 10
198.050105
 20
259.389639
 30
0.0
 10
198.050261
 20
261.048427
 30
0.0
 10
199.393523
 20
262.393016
 30
0.0
 10
201.050370
 20
262.392870
 30
0.0
  0
LINE
  5
134
100
AcDbEntity
  8
Calque_1
 62
1
100
AcDbLine
 10
201.050370
 20
262.392870
 30
0.0
 11
201.050370
 21
262.392870
 31
0.0
  0
SPLINE
  5
135
100
AcDbEntity
  8
Calque_1
 62
1
100
AcDbSpline
 70
8
 71
3
 72
8
 73
4
 74
0
 40
0
 40
0
 40
0
 40
0
 40
1
 40
1
 40
1
 40
1
 10
201.050370
 20
237.454814
 30
0.0
 10
202.706999
 20
237.454655
 30
0.0
 10
204.049922
 20
236.110158
 30
0.0
 10
204.050082
 20
234.451588
 30
0.0
  0
SPLINE
  5
136
100
AcDbEntity
  8
Calque_1
 62
1
100
AcDbSpline
 70
8
 71
3
 72
8
 73
4
 74
0
 40
0
 40
0
 40
0
 40
0
 40
1
 40
1
 40
1
 40
1
 10
204.050082
 20
234.451588
 30
0.0
 10
204.050229
 20
232.792802
 30
0.0
 10
202.707215
 20
231.447966
 30
0.0
 10
201.050370
 20
231.447807
 30
0.0
  0
SPLINE
  5
137
100
AcDbEntity
  8
Calque_1
 62
1
100
AcDbSpline
 70
8
 71
3
 72
8
 73
4
 74
0
 40
0
 40
0
 40
0
 40
0
 40
1
 40
1
 40
1
 40
1
 10
201.050370
 20
231.447807
 30
0.0
 10
200.254628
 20
231.447737
 30
0.0
 10
199.491458
 20
231.764183
 30
0.0
 10
198.928784
 20
232.327517
 30
0.0
  0
SPLINE
  5
138
100
AcDbEntity
  8
Calque_1
 62
1
100
AcDbSpline
 70
8
 71
3
 72
8
 73
4
 74
0
 40
0
 40
0
 40
0
 40
0
 40
1
 40
1
 40
1
 40
1
 10
198.928784
 20
232.327517
 30
0.0
 10
198.366110
 20
232.890850
 30
0.0
 10
198.050034
 20
233.654915
 30
0.0
 10
198.050105
 20
234.451588
 30
0.0
  0
SPLINE
  5
139
100
AcDbEntity
  8
Calque_1
 62
1
100
AcDbSpline
 70
8
 71
3
 72
8
 73
4
 74
0
 40
0
 40
0
 40
0
 40
0
 40
1
 40
1
 40
1
 40
1
 10
198.050105
 20
234.451588
 30
0.0
 10
198.050265
 20
236.110375
 30
0.0
 10
199.393525
 20
237.454960
 30
0.0
 10
201.050370
 20
237.454814
 30
0.0
  0
LINE
  5
13a
100
AcDbEntity
  8
Calque_1
 62
1
100
AcDbLine
 10
201.050370
 20
237.454814
 30
0.0
 11
201.050370
 21
237.454814
 31
0.0
  0
ENDSEC
  0
SECTION
  2
OBJECTS
  0
DICTIONARY
  5
C
330
0
100
AcDbDictionary
  3
ACAD_GROUP
350
D
  3
ACAD_MLINESTYLE
350
17
  0
DICTIONARY
  5
D
330
C
100
AcDbDictionary
  0
DICTIONARY
  5
1A
330
C
100
AcDbDictionary
  0
DICTIONARY
  5
17
330
C
100
AcDbDictionary
  3
STANDARD
350
18
  0
DICTIONARY
  5
19
330
C
100
AcDbDictionary
  0
ENDSEC
  0
EOF
