  0
SECTION
  2
HEADER
  9
$ACADVER
  1
AC1014
  9
$HANDSEED
  5
FFFF
  9
$MEASUREMENT
 70
     1
  0
ENDSEC
  0
SECTION
  2
TABLES
  0
TABLE
  2
VPORT
  5
8
330
0
100
AcDbSymbolTable
 70
     4
  0
VPORT
  5
2E
330
8
100
AcDbSymbolTableRecord
100
AcDbViewportTableRecord
  2
*ACTIVE
 70
     0
 10
0.0
 20
0.0
 11
1.0
 21
1.0
 12
210.0
 22
148.5
 13
0.0
 23
0.0
 14
10.0
 24
10.0
 15
10.0
 25
10.0
 16
0.0
 26
0.0
 36
1.0
 17
0.0
 27
0.0
 37
0.0
 40
341.0
 41
1.24
 42
50.0
 43
0.0
 44
0.0
 50
0.0
 51
0.0
 71
     0
 72
   100
 73
     1
 74
     3
 75
     0
 76
     0
 77
     0
 78
     0
  0
ENDTAB
  0
TABLE
  2
LTYPE
  5
5
330
0
100
AcDbSymbolTable
 70
     1
  0
LTYPE
  5
14
330
5
100
AcDbSymbolTableRecord
100
AcDbLinetypeTableRecord
  2
BYBLOCK
 70
     0
  3

 72
    65
 73
     0
 40
0.0
  0
LTYPE
  5
15
330
5
100
AcDbSymbolTableRecord
100
AcDbLinetypeTableRecord
  2
BYLAYER
 70
     0
  3

 72
    65
 73
     0
 40
0.0
  0
LTYPE
  5
16
330
5
100
AcDbSymbolTableRecord
100
AcDbLinetypeTableRecord
  2
CONTINUOUS
 70
     0
  3
Solid line
 72
    65
 73
     0
 40
0.0
  0
ENDTAB
  0
TABLE
  2
LAYER
  5
2
100
AcDbSymbolTable
 70
2
  0
LAYER
  5
50
100
AcDbSymbolTableRecord
100
AcDbLayerTableRecord
  2
0
 70
0
  6
CONTINUOUS
  0
LAYER
  5
51
100
AcDbSymbolTableRecord
100
AcDbLayerTableRecord
  2
Calque_1
 70
0
  6
CONTINUOUS
  0
ENDTAB
  0
TABLE
  2
STYLE
  5
3
330
0
100
AcDbSymbolTable
 70
     1
  0
STYLE
  5
11
330
3
100
AcDbSymbolTableRecord
100
AcDbTextStyleTableRecord
  2
STANDARD
 70
     0
 40
0.0
 41
1.0
 50
0.0
 71
     0
 42
2.5
  3
txt
  4

  0
ENDTAB
  0
TABLE
  2
VIEW
  5
6
330
0
100
AcDbSymbolTable
 70
     0
  0
ENDTAB
  0
TABLE
  2
UCS
  5
7
330
0
100
AcDbSymbolTable
 70
     0
  0
ENDTAB
  0
TABLE
  2
APPID
  5
9
330
0
100
AcDbSymbolTable
 70
     2
  0
APPID
  5
12
330
9
100
AcDbSymbolTableRecord
100
AcDbRegAppTableRecord
  2
ACAD
 70
     0
  0
ENDTAB
  0
TABLE
  2
DIMSTYLE
  5
A
330
0
100
AcDbSymbolTable
 70
     1
  0
DIMSTYLE
105
27
330
A
100
AcDbSymbolTableRecord
100
AcDbDimStyleTableRecord
  2
ISO-25
 70
     0
  3

  4

  5

  6

  7

 40
1.0
 41
2.5
 42
0.625
 43
3.75
 44
1.25
 45
0.0
 46
0.0
 47
0.0
 48
0.0
140
2.5
141
2.5
142
0.0
143
0.03937007874016
144
1.0
145
0.0
146
1.0
147
0.625
 71
     0
 72
     0
 73
     0
 74
     0
 75
     0
 76
     0
 77
     1
 78
     8
170
     0
171
     3
172
     1
173
     0
174
     0
175
     0
176
     0
177
     0
178
     0
270
     2
271
     2
272
     2
273
     2
274
     3
340
11
275
     0
280
     0
281
     0
282
     0
283
     0
284
     8
285
     0
286
     0
287
     3
288
     0
  0
ENDTAB
  0
TABLE
  2
BLOCK_RECORD
  5
1
330
0
100
AcDbSymbolTable
 70
     1
  0
BLOCK_RECORD
  5
1F
330
1
100
AcDbSymbolTableRecord
100
AcDbBlockTableRecord
  2
*MODEL_SPACE
  0
BLOCK_RECORD
  5
1B
330
1
100
AcDbSymbolTableRecord
100
AcDbBlockTableRecord
  2
*PAPER_SPACE
  0
ENDTAB
  0
ENDSEC
  0
SECTION
  2
BLOCKS
  0
BLOCK
  5
20
330
1F
100
AcDbEntity
  8
0
100
AcDbBlockBegin
  2
*MODEL_SPACE
 70
     0
 10
0.0
 20
0.0
 30
0.0
  3
*MODEL_SPACE
  1

  0
ENDBLK
  5
21
330
1F
100
AcDbEntity
  8
0
100
AcDbBlockEnd
  0
BLOCK
  5
1C
330
1B
100
AcDbEntity
 67
     1
  8
0
100
AcDbBlockBegin
  2
*PAPER_SPACE
  1

  0
ENDBLK
  5
1D
330
1B
100
AcDbEntity
 67
     1
  8
0
100
AcDbBlockEnd
  0
ENDSEC
  0
SECTION
  2
ENTITIES
  0
SPLINE
  5
100
100
AcDbEntity
  8
Calque_1
 62
7
100
AcDbSpline
 70
8
 71
3
 72
8
 73
4
 74
0
 40
0
 40
0
 40
0
 40
0
 40
1
 40
1
 40
1
 40
1
 10
-291.653976
 20
-577.138855
 30
0.0
 10
-252.680445
 20
-577.138855
 30
0.0
 10
-213.706882
 20
-577.138855
 30
0.0
 10
-174.733348
 20
-577.138855
 30
0.0
  0
SPLINE
  5
101
100
AcDbEntity
  8
Calque_1
 62
7
100
AcDbSpline
 70
8
 71
3
 72
8
 73
4
 74
0
 40
0
 40
0
 40
0
 40
0
 40
1
 40
1
 40
1
 40
1
 10
-174.733348
 20
-577.138855
 30
0.0
 10
-167.476201
 20
-577.138855
 30
0.0
 10
-160.219054
 20
-577.138855
 30
0.0
 10
-152.961907
 20
-577.138855
 30
0.0
  0
SPLINE
  5
102
100
AcDbEntity
  8
Calque_1
 62
7
100
AcDbSpline
 70
8
 71
3
 72
8
 73
4
 74
0
 40
0
 40
0
 40
0
 40
0
 40
1
 40
1
 40
1
 40
1
 10
-152.961907
 20
-577.138855
 30
0.0
 10
-150.811656
 20
-577.138855
 30
0.0
 10
-148.661377
 20
-577.138855
 30
0.0
 10
-146.511126
 20
-577.138855
 30
0.0
  0
SPLINE
  5
103
100
AcDbEntity
  8
Calque_1
 62
7
100
AcDbSpline
 70
8
 71
3
 72
8
 73
4
 74
0
 40
0
 40
0
 40
0
 40
0
 40
1
 40
1
 40
1
 40
1
 10
-146.511126
 20
-577.138855
 30
0.0
 10
-146.089457
 20
-577.138855
 30
0.0
 10
-143.497754
 20
-577.032824
 30
0.0
 10
-143.285721
 20
-577.138855
 30
0.0
  0
SPLINE
  5
104
100
AcDbEntity
  8
Calque_1
 62
7
100
AcDbSpline
 70
8
 71
3
 72
8
 73
4
 74
0
 40
0
 40
0
 40
0
 40
0
 40
1
 40
1
 40
1
 40
1
 10
-143.285721
 20
-577.138855
 30
0.0
 10
-142.945728
 20
-577.308838
 30
0.0
 10
-142.839979
 20
-577.824994
 30
0.0
 10
-142.479355
 20
-577.945192
 30
0.0
  0
SPLINE
  5
105
100
AcDbEntity
  8
Calque_1
 62
7
100
AcDbSpline
 70
8
 71
3
 72
8
 73
4
 74
0
 40
0
 40
0
 40
0
 40
0
 40
1
 40
1
 40
1
 40
1
 10
-142.479355
 20
-577.945192
 30
0.0
 10
-142.033444
 20
-578.093839
 30
0.0
 10
-138.453314
 20
-577.945192
 30
0.0
 10
-137.641276
 20
-577.945192
 30
0.0
  0
LINE
  5
106
100
AcDbEntity
  8
Calque_1
 62
1
100
AcDbLine
 10
105.329849
 20
821.504694
 30
0.0
 11
105.329849
 21
791.503146
 31
0.0
  0
LINE
  5
107
100
AcDbEntity
  8
Calque_1
 62
1
100
AcDbLine
 10
105.329849
 20
791.503146
 30
0.0
 11
119.917774
 21
791.503146
 31
0.0
  0
LINE
  5
108
100
AcDbEntity
  8
Calque_1
 62
1
100
AcDbLine
 10
119.917774
 20
791.503146
 30
0.0
 11
119.917774
 21
751.503113
 31
0.0
  0
LINE
  5
109
100
AcDbEntity
  8
Calque_1
 62
1
100
AcDbLine
 10
119.917774
 20
751.503113
 30
0.0
 11
105.329849
 21
751.503113
 31
0.0
  0
LINE
  5
10a
100
AcDbEntity
  8
Calque_1
 62
1
100
AcDbLine
 10
105.329849
 20
751.503113
 30
0.0
 11
105.329849
 21
721.604660
 31
0.0
  0
LINE
  5
10b
100
AcDbEntity
  8
Calque_1
 62
1
100
AcDbLine
 10
105.329849
 20
721.604660
 30
0.0
 11
193.362241
 21
721.604660
 31
0.0
  0
LINE
  5
10c
100
AcDbEntity
  8
Calque_1
 62
1
100
AcDbLine
 10
193.362241
 20
721.604660
 30
0.0
 11
193.362241
 21
734.205967
 31
0.0
  0
LINE
  5
10d
100
AcDbEntity
  8
Calque_1
 62
1
100
AcDbLine
 10
193.362241
 20
734.205967
 30
0.0
 11
233.362302
 21
734.205967
 31
0.0
  0
LINE
  5
10e
100
AcDbEntity
  8
Calque_1
 62
1
100
AcDbLine
 10
233.362302
 20
734.205967
 30
0.0
 11
233.362302
 21
721.604660
 31
0.0
  0
LINE
  5
10f
100
AcDbEntity
  8
Calque_1
 62
1
100
AcDbLine
 10
233.362302
 20
721.604660
 30
0.0
 11
335.279802
 21
721.604660
 31
0.0
  0
LINE
  5
110
100
AcDbEntity
  8
Calque_1
 62
1
100
AcDbLine
 10
335.279802
 20
721.604660
 30
0.0
 11
335.279802
 21
734.205967
 31
0.0
  0
LINE
  5
111
100
AcDbEntity
  8
Calque_1
 62
1
100
AcDbLine
 10
335.279802
 20
734.205967
 30
0.0
 11
375.279835
 21
734.205967
 31
0.0
  0
LINE
  5
112
100
AcDbEntity
  8
Calque_1
 62
1
100
AcDbLine
 10
375.279835
 20
734.205967
 30
0.0
 11
375.279835
 21
721.604660
 31
0.0
  0
LINE
  5
113
100
AcDbEntity
  8
Calque_1
 62
1
100
AcDbLine
 10
375.279835
 20
721.604660
 30
0.0
 11
477.196771
 21
721.604660
 31
0.0
  0
LINE
  5
114
100
AcDbEntity
  8
Calque_1
 62
1
100
AcDbLine
 10
477.196771
 20
721.604660
 30
0.0
 11
477.196771
 21
734.205967
 31
0.0
  0
LINE
  5
115
100
AcDbEntity
  8
Calque_1
 62
1
100
AcDbLine
 10
477.196771
 20
734.205967
 30
0.0
 11
517.196804
 21
734.205967
 31
0.0
  0
LINE
  5
116
100
AcDbEntity
  8
Calque_1
 62
1
100
AcDbLine
 10
517.196804
 20
734.205967
 30
0.0
 11
517.196804
 21
721.604660
 31
0.0
  0
LINE
  5
117
100
AcDbEntity
  8
Calque_1
 62
1
100
AcDbLine
 10
517.196804
 20
721.604660
 30
0.0
 11
605.229761
 21
721.604660
 31
0.0
  0
LINE
  5
118
100
AcDbEntity
  8
Calque_1
 62
1
100
AcDbLine
 10
605.229761
 20
721.604660
 30
0.0
 11
605.229761
 21
751.503113
 31
0.0
  0
LINE
  5
119
100
AcDbEntity
  8
Calque_1
 62
1
100
AcDbLine
 10
605.229761
 20
751.503113
 30
0.0
 11
592.628962
 21
751.503113
 31
0.0
  0
LINE
  5
11a
100
AcDbEntity
  8
Calque_1
 62
1
100
AcDbLine
 10
592.628962
 20
751.503113
 30
0.0
 11
592.628962
 21
791.503146
 31
0.0
  0
LINE
  5
11b
100
AcDbEntity
  8
Calque_1
 62
1
100
AcDbLine
 10
592.628962
 20
791.503146
 30
0.0
 11
605.229761
 21
791.503146
 31
0.0
  0
LINE
  5
11c
100
AcDbEntity
  8
Calque_1
 62
1
100
AcDbLine
 10
605.229761
 20
791.503146
 30
0.0
 11
605.229761
 21
821.504694
 31
0.0
  0
LINE
  5
11d
100
AcDbEntity
  8
Calque_1
 62
1
100
AcDbLine
 10
605.229761
 20
821.504694
 30
0.0
 11
517.196804
 21
821.504694
 31
0.0
  0
LINE
  5
11e
100
AcDbEntity
  8
Calque_1
 62
1
100
AcDbLine
 10
517.196804
 20
821.504694
 30
0.0
 11
517.196804
 21
808.903924
 31
0.0
  0
LINE
  5
11f
100
AcDbEntity
  8
Calque_1
 62
1
100
AcDbLine
 10
517.196804
 20
808.903924
 30
0.0
 11
477.196771
 21
808.903924
 31
0.0
  0
LINE
  5
120
100
AcDbEntity
  8
Calque_1
 62
1
100
AcDbLine
 10
477.196771
 20
808.903924
 30
0.0
 11
477.196771
 21
821.504694
 31
0.0
  0
LINE
  5
121
100
AcDbEntity
  8
Calque_1
 62
1
100
AcDbLine
 10
477.196771
 20
821.504694
 30
0.0
 11
375.279835
 21
821.504694
 31
0.0
  0
LINE
  5
122
100
AcDbEntity
  8
Calque_1
 62
1
100
AcDbLine
 10
375.279835
 20
821.504694
 30
0.0
 11
375.279835
 21
808.903924
 31
0.0
  0
LINE
  5
123
100
AcDbEntity
  8
Calque_1
 62
1
100
AcDbLine
 10
375.279835
 20
808.903924
 30
0.0
 11
335.279802
 21
808.903924
 31
0.0
  0
LINE
  5
124
100
AcDbEntity
  8
Calque_1
 62
1
100
AcDbLine
 10
335.279802
 20
808.903924
 30
0.0
 11
335.279802
 21
821.504694
 31
0.0
  0
LINE
  5
125
100
AcDbEntity
  8
Calque_1
 62
1
100
AcDbLine
 10
335.279802
 20
821.504694
 30
0.0
 11
233.362302
 21
821.504694
 31
0.0
  0
LINE
  5
126
100
AcDbEntity
  8
Calque_1
 62
1
100
AcDbLine
 10
233.362302
 20
821.504694
 30
0.0
 11
233.362302
 21
808.903924
 31
0.0
  0
LINE
  5
127
100
AcDbEntity
  8
Calque_1
 62
1
100
AcDbLine
 10
233.362302
 20
808.903924
 30
0.0
 11
193.362241
 21
808.903924
 31
0.0
  0
LINE
  5
128
100
AcDbEntity
  8
Calque_1
 62
1
100
AcDbLine
 10
193.362241
 20
808.903924
 30
0.0
 11
193.362241
 21
821.504694
 31
0.0
  0
LINE
  5
129
100
AcDbEntity
  8
Calque_1
 62
1
100
AcDbLine
 10
193.362241
 20
821.504694
 30
0.0
 11
105.329849
 21
821.504694
 31
0.0
  0
LINE
  5
12a
100
AcDbEntity
  8
Calque_1
 62
1
100
AcDbLine
 10
105.329849
 20
821.504694
 30
0.0
 11
105.329849
 21
821.504694
 31
0.0
  0
LINE
  5
12b
100
AcDbEntity
  8
Calque_1
 62
1
100
AcDbLine
 10
109.245682
 20
705.989163
 30
0.0
 11
109.245682
 21
675.987614
 31
0.0
  0
LINE
  5
12c
100
AcDbEntity
  8
Calque_1
 62
1
100
AcDbLine
 10
109.245682
 20
675.987614
 30
0.0
 11
123.833580
 21
675.987614
 31
0.0
  0
LINE
  5
12d
100
AcDbEntity
  8
Calque_1
 62
1
100
AcDbLine
 10
123.833580
 20
675.987614
 30
0.0
 11
123.833580
 21
635.987582
 31
0.0
  0
LINE
  5
12e
100
AcDbEntity
  8
Calque_1
 62
1
100
AcDbLine
 10
123.833580
 20
635.987582
 30
0.0
 11
109.245682
 21
635.987582
 31
0.0
  0
LINE
  5
12f
100
AcDbEntity
  8
Calque_1
 62
1
100
AcDbLine
 10
109.245682
 20
635.987582
 30
0.0
 11
109.245682
 21
606.089129
 31
0.0
  0
LINE
  5
130
100
AcDbEntity
  8
Calque_1
 62
1
100
AcDbLine
 10
109.245682
 20
606.089129
 30
0.0
 11
197.278075
 21
606.089129
 31
0.0
  0
LINE
  5
131
100
AcDbEntity
  8
Calque_1
 62
1
100
AcDbLine
 10
197.278075
 20
606.089129
 30
0.0
 11
197.278075
 21
618.689899
 31
0.0
  0
LINE
  5
132
100
AcDbEntity
  8
Calque_1
 62
1
100
AcDbLine
 10
197.278075
 20
618.689899
 30
0.0
 11
237.278108
 21
618.689899
 31
0.0
  0
LINE
  5
133
100
AcDbEntity
  8
Calque_1
 62
1
100
AcDbLine
 10
237.278108
 20
618.689899
 30
0.0
 11
237.278108
 21
606.089129
 31
0.0
  0
LINE
  5
134
100
AcDbEntity
  8
Calque_1
 62
1
100
AcDbLine
 10
237.278108
 20
606.089129
 30
0.0
 11
309.195724
 21
606.089129
 31
0.0
  0
LINE
  5
135
100
AcDbEntity
  8
Calque_1
 62
1
100
AcDbLine
 10
309.195724
 20
606.089129
 30
0.0
 11
309.195724
 21
618.689899
 31
0.0
  0
LINE
  5
136
100
AcDbEntity
  8
Calque_1
 62
1
100
AcDbLine
 10
309.195724
 20
618.689899
 30
0.0
 11
409.195524
 21
618.689899
 31
0.0
  0
LINE
  5
137
100
AcDbEntity
  8
Calque_1
 62
1
100
AcDbLine
 10
409.195524
 20
618.689899
 30
0.0
 11
409.195524
 21
606.089129
 31
0.0
  0
LINE
  5
138
100
AcDbEntity
  8
Calque_1
 62
1
100
AcDbLine
 10
409.195524
 20
606.089129
 30
0.0
 11
473.668993
 21
606.089129
 31
0.0
  0
LINE
  5
139
100
AcDbEntity
  8
Calque_1
 62
1
100
AcDbLine
 10
473.668993
 20
606.089129
 30
0.0
 11
473.668993
 21
618.689899
 31
0.0
  0
LINE
  5
13a
100
AcDbEntity
  8
Calque_1
 62
1
100
AcDbLine
 10
473.668993
 20
618.689899
 30
0.0
 11
513.669026
 21
618.689899
 31
0.0
  0
LINE
  5
13b
100
AcDbEntity
  8
Calque_1
 62
1
100
AcDbLine
 10
513.669026
 20
618.689899
 30
0.0
 11
513.669026
 21
606.089129
 31
0.0
  0
LINE
  5
13c
100
AcDbEntity
  8
Calque_1
 62
1
100
AcDbLine
 10
513.669026
 20
606.089129
 30
0.0
 11
609.145566
 21
606.089129
 31
0.0
  0
LINE
  5
13d
100
AcDbEntity
  8
Calque_1
 62
1
100
AcDbLine
 10
609.145566
 20
606.089129
 30
0.0
 11
609.145566
 21
635.987582
 31
0.0
  0
LINE
  5
13e
100
AcDbEntity
  8
Calque_1
 62
1
100
AcDbLine
 10
609.145566
 20
635.987582
 30
0.0
 11
596.544795
 21
635.987582
 31
0.0
  0
LINE
  5
13f
100
AcDbEntity
  8
Calque_1
 62
1
100
AcDbLine
 10
596.544795
 20
635.987582
 30
0.0
 11
596.544795
 21
675.987614
 31
0.0
  0
LINE
  5
140
100
AcDbEntity
  8
Calque_1
 62
1
100
AcDbLine
 10
596.544795
 20
675.987614
 30
0.0
 11
609.145566
 21
675.987614
 31
0.0
  0
LINE
  5
141
100
AcDbEntity
  8
Calque_1
 62
1
100
AcDbLine
 10
609.145566
 20
675.987614
 30
0.0
 11
609.145566
 21
705.989163
 31
0.0
  0
LINE
  5
142
100
AcDbEntity
  8
Calque_1
 62
1
100
AcDbLine
 10
609.145566
 20
705.989163
 30
0.0
 11
513.669026
 21
705.989163
 31
0.0
  0
LINE
  5
143
100
AcDbEntity
  8
Calque_1
 62
1
100
AcDbLine
 10
513.669026
 20
705.989163
 30
0.0
 11
513.669026
 21
693.387828
 31
0.0
  0
LINE
  5
144
100
AcDbEntity
  8
Calque_1
 62
1
100
AcDbLine
 10
513.669026
 20
693.387828
 30
0.0
 11
473.668993
 21
693.387828
 31
0.0
  0
LINE
  5
145
100
AcDbEntity
  8
Calque_1
 62
1
100
AcDbLine
 10
473.668993
 20
693.387828
 30
0.0
 11
473.668993
 21
705.989163
 31
0.0
  0
LINE
  5
146
100
AcDbEntity
  8
Calque_1
 62
1
100
AcDbLine
 10
473.668993
 20
705.989163
 30
0.0
 11
409.195524
 21
705.989163
 31
0.0
  0
LINE
  5
147
100
AcDbEntity
  8
Calque_1
 62
1
100
AcDbLine
 10
409.195524
 20
705.989163
 30
0.0
 11
409.195524
 21
693.387828
 31
0.0
  0
LINE
  5
148
100
AcDbEntity
  8
Calque_1
 62
1
100
AcDbLine
 10
409.195524
 20
693.387828
 30
0.0
 11
309.195724
 21
693.387828
 31
0.0
  0
LINE
  5
149
100
AcDbEntity
  8
Calque_1
 62
1
100
AcDbLine
 10
309.195724
 20
693.387828
 30
0.0
 11
309.195724
 21
705.989163
 31
0.0
  0
LINE
  5
14a
100
AcDbEntity
  8
Calque_1
 62
1
100
AcDbLine
 10
309.195724
 20
705.989163
 30
0.0
 11
237.278108
 21
705.989163
 31
0.0
  0
LINE
  5
14b
100
AcDbEntity
  8
Calque_1
 62
1
100
AcDbLine
 10
237.278108
 20
705.989163
 30
0.0
 11
237.278108
 21
693.387828
 31
0.0
  0
LINE
  5
14c
100
AcDbEntity
  8
Calque_1
 62
1
100
AcDbLine
 10
237.278108
 20
693.387828
 30
0.0
 11
197.278075
 21
693.387828
 31
0.0
  0
LINE
  5
14d
100
AcDbEntity
  8
Calque_1
 62
1
100
AcDbLine
 10
197.278075
 20
693.387828
 30
0.0
 11
197.278075
 21
705.989163
 31
0.0
  0
LINE
  5
14e
100
AcDbEntity
  8
Calque_1
 62
1
100
AcDbLine
 10
197.278075
 20
705.989163
 30
0.0
 11
109.245682
 21
705.989163
 31
0.0
  0
LINE
  5
14f
100
AcDbEntity
  8
Calque_1
 62
1
100
AcDbLine
 10
109.245682
 20
705.989163
 30
0.0
 11
109.245682
 21
705.989163
 31
0.0
  0
LINE
  5
150
100
AcDbEntity
  8
Calque_1
 62
1
100
AcDbLine
 10
313.216996
 20
566.211625
 30
0.0
 11
313.216996
 21
522.812790
 31
0.0
  0
LINE
  5
151
100
AcDbEntity
  8
Calque_1
 62
1
100
AcDbLine
 10
313.216996
 20
522.812790
 30
0.0
 11
241.299379
 21
522.812790
 31
0.0
  0
LINE
  5
152
100
AcDbEntity
  8
Calque_1
 62
1
100
AcDbLine
 10
241.299379
 20
522.812790
 30
0.0
 11
241.299379
 21
534.211915
 31
0.0
  0
LINE
  5
153
100
AcDbEntity
  8
Calque_1
 62
1
100
AcDbLine
 10
241.299379
 20
534.211915
 30
0.0
 11
201.299346
 21
534.211915
 31
0.0
  0
LINE
  5
154
100
AcDbEntity
  8
Calque_1
 62
1
100
AcDbLine
 10
201.299346
 20
534.211915
 30
0.0
 11
201.299346
 21
522.812790
 31
0.0
  0
LINE
  5
155
100
AcDbEntity
  8
Calque_1
 62
1
100
AcDbLine
 10
201.299346
 20
522.812790
 30
0.0
 11
113.266954
 21
522.812790
 31
0.0
  0
LINE
  5
156
100
AcDbEntity
  8
Calque_1
 62
1
100
AcDbLine
 10
113.266954
 20
522.812790
 30
0.0
 11
113.266954
 21
492.811242
 31
0.0
  0
LINE
  5
157
100
AcDbEntity
  8
Calque_1
 62
1
100
AcDbLine
 10
113.266954
 20
492.811242
 30
0.0
 11
103.854956
 21
492.811242
 31
0.0
  0
LINE
  5
158
100
AcDbEntity
  8
Calque_1
 62
1
100
AcDbLine
 10
103.854956
 20
492.811242
 30
0.0
 11
103.854956
 21
452.811212
 31
0.0
  0
LINE
  5
159
100
AcDbEntity
  8
Calque_1
 62
1
100
AcDbLine
 10
103.854956
 20
452.811212
 30
0.0
 11
113.266954
 21
452.811212
 31
0.0
  0
LINE
  5
15a
100
AcDbEntity
  8
Calque_1
 62
1
100
AcDbLine
 10
113.266954
 20
452.811212
 30
0.0
 11
113.266954
 21
422.912730
 31
0.0
  0
LINE
  5
15b
100
AcDbEntity
  8
Calque_1
 62
1
100
AcDbLine
 10
113.266954
 20
422.912730
 30
0.0
 11
201.299346
 21
422.912730
 31
0.0
  0
LINE
  5
15c
100
AcDbEntity
  8
Calque_1
 62
1
100
AcDbLine
 10
201.299346
 20
422.912730
 30
0.0
 11
201.299346
 21
411.513606
 31
0.0
  0
LINE
  5
15d
100
AcDbEntity
  8
Calque_1
 62
1
100
AcDbLine
 10
201.299346
 20
411.513606
 30
0.0
 11
241.299379
 21
411.513606
 31
0.0
  0
LINE
  5
15e
100
AcDbEntity
  8
Calque_1
 62
1
100
AcDbLine
 10
241.299379
 20
411.513606
 30
0.0
 11
241.299379
 21
422.912730
 31
0.0
  0
LINE
  5
15f
100
AcDbEntity
  8
Calque_1
 62
1
100
AcDbLine
 10
241.299379
 20
422.912730
 30
0.0
 11
343.216879
 21
422.912730
 31
0.0
  0
LINE
  5
160
100
AcDbEntity
  8
Calque_1
 62
1
100
AcDbLine
 10
343.216879
 20
422.912730
 30
0.0
 11
343.216879
 21
411.513606
 31
0.0
  0
LINE
  5
161
100
AcDbEntity
  8
Calque_1
 62
1
100
AcDbLine
 10
343.216879
 20
411.513606
 30
0.0
 11
383.216940
 21
411.513606
 31
0.0
  0
LINE
  5
162
100
AcDbEntity
  8
Calque_1
 62
1
100
AcDbLine
 10
383.216940
 20
411.513606
 30
0.0
 11
383.216940
 21
422.912730
 31
0.0
  0
LINE
  5
163
100
AcDbEntity
  8
Calque_1
 62
1
100
AcDbLine
 10
383.216940
 20
422.912730
 30
0.0
 11
477.690265
 21
422.912730
 31
0.0
  0
LINE
  5
164
100
AcDbEntity
  8
Calque_1
 62
1
100
AcDbLine
 10
477.690265
 20
422.912730
 30
0.0
 11
477.690265
 21
411.513606
 31
0.0
  0
LINE
  5
165
100
AcDbEntity
  8
Calque_1
 62
1
100
AcDbLine
 10
477.690265
 20
411.513606
 30
0.0
 11
517.690298
 21
411.513606
 31
0.0
  0
LINE
  5
166
100
AcDbEntity
  8
Calque_1
 62
1
100
AcDbLine
 10
517.690298
 20
411.513606
 30
0.0
 11
517.690298
 21
422.912730
 31
0.0
  0
LINE
  5
167
100
AcDbEntity
  8
Calque_1
 62
1
100
AcDbLine
 10
517.690298
 20
422.912730
 30
0.0
 11
613.166866
 21
422.912730
 31
0.0
  0
LINE
  5
168
100
AcDbEntity
  8
Calque_1
 62
1
100
AcDbLine
 10
613.166866
 20
422.912730
 30
0.0
 11
613.166866
 21
452.811212
 31
0.0
  0
LINE
  5
169
100
AcDbEntity
  8
Calque_1
 62
1
100
AcDbLine
 10
613.166866
 20
452.811212
 30
0.0
 11
624.565990
 21
452.811212
 31
0.0
  0
LINE
  5
16a
100
AcDbEntity
  8
Calque_1
 62
1
100
AcDbLine
 10
624.565990
 20
452.811212
 30
0.0
 11
624.565990
 21
492.811242
 31
0.0
  0
LINE
  5
16b
100
AcDbEntity
  8
Calque_1
 62
1
100
AcDbLine
 10
624.565990
 20
492.811242
 30
0.0
 11
613.166866
 21
492.811242
 31
0.0
  0
LINE
  5
16c
100
AcDbEntity
  8
Calque_1
 62
1
100
AcDbLine
 10
613.166866
 20
492.811242
 30
0.0
 11
613.166866
 21
522.812790
 31
0.0
  0
LINE
  5
16d
100
AcDbEntity
  8
Calque_1
 62
1
100
AcDbLine
 10
613.166866
 20
522.812790
 30
0.0
 11
517.690298
 21
522.812790
 31
0.0
  0
LINE
  5
16e
100
AcDbEntity
  8
Calque_1
 62
1
100
AcDbLine
 10
517.690298
 20
522.812790
 30
0.0
 11
517.690298
 21
534.211915
 31
0.0
  0
LINE
  5
16f
100
AcDbEntity
  8
Calque_1
 62
1
100
AcDbLine
 10
517.690298
 20
534.211915
 30
0.0
 11
477.690265
 21
534.211915
 31
0.0
  0
LINE
  5
170
100
AcDbEntity
  8
Calque_1
 62
1
100
AcDbLine
 10
477.690265
 20
534.211915
 30
0.0
 11
477.690265
 21
522.812790
 31
0.0
  0
LINE
  5
171
100
AcDbEntity
  8
Calque_1
 62
1
100
AcDbLine
 10
477.690265
 20
522.812790
 30
0.0
 11
413.216824
 21
522.812790
 31
0.0
  0
LINE
  5
172
100
AcDbEntity
  8
Calque_1
 62
1
100
AcDbLine
 10
413.216824
 20
522.812790
 30
0.0
 11
413.216824
 21
566.211625
 31
0.0
  0
LINE
  5
173
100
AcDbEntity
  8
Calque_1
 62
1
100
AcDbLine
 10
413.216824
 20
566.211625
 30
0.0
 11
313.216996
 21
566.211625
 31
0.0
  0
LINE
  5
174
100
AcDbEntity
  8
Calque_1
 62
1
100
AcDbLine
 10
313.216996
 20
566.211625
 30
0.0
 11
313.216996
 21
566.211625
 31
0.0
  0
SPLINE
  5
175
100
AcDbEntity
  8
Calque_1
 62
1
100
AcDbSpline
 70
8
 71
3
 72
8
 73
4
 74
0
 40
0
 40
0
 40
0
 40
0
 40
1
 40
1
 40
1
 40
1
 10
363.217178
 20
554.211649
 30
0.0
 10
371.173693
 20
554.211637
 30
0.0
 10
378.804319
 20
552.525907
 30
0.0
 10
384.430397
 20
549.525303
 30
0.0
  0
SPLINE
  5
176
100
AcDbEntity
  8
Calque_1
 62
1
100
AcDbSpline
 70
8
 71
3
 72
8
 73
4
 74
0
 40
0
 40
0
 40
0
 40
0
 40
1
 40
1
 40
1
 40
1
 10
384.430397
 20
549.525303
 30
0.0
 10
390.056476
 20
546.524698
 30
0.0
 10
393.217144
 20
542.455015
 30
0.0
 10
393.217090
 20
538.211540
 30
0.0
  0
SPLINE
  5
177
100
AcDbEntity
  8
Calque_1
 62
1
100
AcDbSpline
 70
8
 71
3
 72
8
 73
4
 74
0
 40
0
 40
0
 40
0
 40
0
 40
1
 40
1
 40
1
 40
1
 10
393.217090
 20
538.211540
 30
0.0
 10
393.214207
 20
531.044927
 30
0.0
 10
384.276332
 20
524.753488
 30
0.0
 10
371.341001
 20
522.812790
 30
0.0
  0
LINE
  5
178
100
AcDbEntity
  8
Calque_1
 62
1
100
AcDbLine
 10
371.341001
 20
522.812790
 30
0.0
 11
355.185980
 21
522.812790
 31
0.0
  0
SPLINE
  5
179
100
AcDbEntity
  8
Calque_1
 62
1
100
AcDbSpline
 70
8
 71
3
 72
8
 73
4
 74
0
 40
0
 40
0
 40
0
 40
0
 40
1
 40
1
 40
1
 40
1
 10
355.185980
 20
522.812790
 30
0.0
 10
342.213717
 20
524.734979
 30
0.0
 10
333.231334
 20
531.030945
 30
0.0
 10
333.216758
 20
538.211540
 30
0.0
  0
SPLINE
  5
17a
100
AcDbEntity
  8
Calque_1
 62
1
100
AcDbSpline
 70
8
 71
3
 72
8
 73
4
 74
0
 40
0
 40
0
 40
0
 40
0
 40
1
 40
1
 40
1
 40
1
 10
333.216758
 20
538.211540
 30
0.0
 10
333.216703
 20
542.455062
 30
0.0
 10
336.377442
 20
546.524786
 30
0.0
 10
342.003630
 20
549.525399
 30
0.0
  0
SPLINE
  5
17b
100
AcDbEntity
  8
Calque_1
 62
1
100
AcDbSpline
 70
8
 71
3
 72
8
 73
4
 74
0
 40
0
 40
0
 40
0
 40
0
 40
1
 40
1
 40
1
 40
1
 10
342.003630
 20
549.525399
 30
0.0
 10
347.629818
 20
552.526011
 30
0.0
 10
355.260575
 20
554.211709
 30
0.0
 10
363.217178
 20
554.211649
 30
0.0
  0
LINE
  5
17c
100
AcDbEntity
  8
Calque_1
 62
1
100
AcDbLine
 10
363.217178
 20
554.211649
 30
0.0
 11
363.217178
 21
554.211649
 31
0.0
  0
LINE
  5
17d
100
AcDbEntity
  8
Calque_1
 62
1
100
AcDbLine
 10
324.942454
 20
398.654706
 30
0.0
 11
324.942454
 21
355.255871
 31
0.0
  0
LINE
  5
17e
100
AcDbEntity
  8
Calque_1
 62
1
100
AcDbLine
 10
324.942454
 20
355.255871
 30
0.0
 11
253.024866
 21
355.255871
 31
0.0
  0
LINE
  5
17f
100
AcDbEntity
  8
Calque_1
 62
1
100
AcDbLine
 10
253.024866
 20
355.255871
 30
0.0
 11
253.024866
 21
366.654996
 31
0.0
  0
LINE
  5
180
100
AcDbEntity
  8
Calque_1
 62
1
100
AcDbLine
 10
253.024866
 20
366.654996
 30
0.0
 11
213.024805
 21
366.654996
 31
0.0
  0
LINE
  5
181
100
AcDbEntity
  8
Calque_1
 62
1
100
AcDbLine
 10
213.024805
 20
366.654996
 30
0.0
 11
213.024805
 21
355.255871
 31
0.0
  0
LINE
  5
182
100
AcDbEntity
  8
Calque_1
 62
1
100
AcDbLine
 10
213.024805
 20
355.255871
 30
0.0
 11
124.992412
 21
355.255871
 31
0.0
  0
LINE
  5
183
100
AcDbEntity
  8
Calque_1
 62
1
100
AcDbLine
 10
124.992412
 20
355.255871
 30
0.0
 11
124.992412
 21
325.254322
 31
0.0
  0
LINE
  5
184
100
AcDbEntity
  8
Calque_1
 62
1
100
AcDbLine
 10
124.992412
 20
325.254322
 30
0.0
 11
115.580414
 21
325.254322
 31
0.0
  0
LINE
  5
185
100
AcDbEntity
  8
Calque_1
 62
1
100
AcDbLine
 10
115.580414
 20
325.254322
 30
0.0
 11
115.580414
 21
285.254278
 31
0.0
  0
LINE
  5
186
100
AcDbEntity
  8
Calque_1
 62
1
100
AcDbLine
 10
115.580414
 20
285.254278
 30
0.0
 11
124.992412
 21
285.254278
 31
0.0
  0
LINE
  5
187
100
AcDbEntity
  8
Calque_1
 62
1
100
AcDbLine
 10
124.992412
 20
285.254278
 30
0.0
 11
124.992412
 21
255.355797
 31
0.0
  0
LINE
  5
188
100
AcDbEntity
  8
Calque_1
 62
1
100
AcDbLine
 10
124.992412
 20
255.355797
 30
0.0
 11
213.024805
 21
255.355797
 31
0.0
  0
LINE
  5
189
100
AcDbEntity
  8
Calque_1
 62
1
100
AcDbLine
 10
213.024805
 20
255.355797
 30
0.0
 11
213.024805
 21
243.956672
 31
0.0
  0
LINE
  5
18a
100
AcDbEntity
  8
Calque_1
 62
1
100
AcDbLine
 10
213.024805
 20
243.956672
 30
0.0
 11
253.024866
 21
243.956672
 31
0.0
  0
LINE
  5
18b
100
AcDbEntity
  8
Calque_1
 62
1
100
AcDbLine
 10
253.024866
 20
243.956672
 30
0.0
 11
253.024866
 21
255.355797
 31
0.0
  0
LINE
  5
18c
100
AcDbEntity
  8
Calque_1
 62
1
100
AcDbLine
 10
253.024866
 20
255.355797
 30
0.0
 11
354.942366
 21
255.355797
 31
0.0
  0
LINE
  5
18d
100
AcDbEntity
  8
Calque_1
 62
1
100
AcDbLine
 10
354.942366
 20
255.355797
 30
0.0
 11
354.942366
 21
243.956672
 31
0.0
  0
LINE
  5
18e
100
AcDbEntity
  8
Calque_1
 62
1
100
AcDbLine
 10
354.942366
 20
243.956672
 30
0.0
 11
394.942399
 21
243.956672
 31
0.0
  0
LINE
  5
18f
100
AcDbEntity
  8
Calque_1
 62
1
100
AcDbLine
 10
394.942399
 20
243.956672
 30
0.0
 11
394.942399
 21
255.355797
 31
0.0
  0
LINE
  5
190
100
AcDbEntity
  8
Calque_1
 62
1
100
AcDbLine
 10
394.942399
 20
255.355797
 30
0.0
 11
489.415187
 21
255.355797
 31
0.0
  0
LINE
  5
191
100
AcDbEntity
  8
Calque_1
 62
1
100
AcDbLine
 10
489.415187
 20
255.355797
 30
0.0
 11
489.415187
 21
243.956672
 31
0.0
  0
LINE
  5
192
100
AcDbEntity
  8
Calque_1
 62
1
100
AcDbLine
 10
489.415187
 20
243.956672
 30
0.0
 11
489.415187
 21
243.956672
 31
0.0
  0
LINE
  5
193
100
AcDbEntity
  8
Calque_1
 62
1
100
AcDbLine
 10
489.415187
 20
243.956672
 30
0.0
 11
529.414684
 21
243.956672
 31
0.0
  0
LINE
  5
194
100
AcDbEntity
  8
Calque_1
 62
1
100
AcDbLine
 10
529.414684
 20
243.956672
 30
0.0
 11
529.414684
 21
243.956672
 31
0.0
  0
LINE
  5
195
100
AcDbEntity
  8
Calque_1
 62
1
100
AcDbLine
 10
529.414684
 20
243.956672
 30
0.0
 11
529.414684
 21
255.355797
 31
0.0
  0
LINE
  5
196
100
AcDbEntity
  8
Calque_1
 62
1
100
AcDbLine
 10
529.414684
 20
255.355797
 30
0.0
 11
624.891223
 21
255.355797
 31
0.0
  0
LINE
  5
197
100
AcDbEntity
  8
Calque_1
 62
1
100
AcDbLine
 10
624.891223
 20
255.355797
 30
0.0
 11
624.891223
 21
285.254278
 31
0.0
  0
LINE
  5
198
100
AcDbEntity
  8
Calque_1
 62
1
100
AcDbLine
 10
624.891223
 20
285.254278
 30
0.0
 11
636.290348
 21
285.254278
 31
0.0
  0
LINE
  5
199
100
AcDbEntity
  8
Calque_1
 62
1
100
AcDbLine
 10
636.290348
 20
285.254278
 30
0.0
 11
636.290348
 21
325.254322
 31
0.0
  0
LINE
  5
19a
100
AcDbEntity
  8
Calque_1
 62
1
100
AcDbLine
 10
636.290348
 20
325.254322
 30
0.0
 11
624.891223
 21
325.254322
 31
0.0
  0
LINE
  5
19b
100
AcDbEntity
  8
Calque_1
 62
1
100
AcDbLine
 10
624.891223
 20
325.254322
 30
0.0
 11
624.891223
 21
355.255871
 31
0.0
  0
LINE
  5
19c
100
AcDbEntity
  8
Calque_1
 62
1
100
AcDbLine
 10
624.891223
 20
355.255871
 30
0.0
 11
529.414684
 21
355.255871
 31
0.0
  0
LINE
  5
19d
100
AcDbEntity
  8
Calque_1
 62
1
100
AcDbLine
 10
529.414684
 20
355.255871
 30
0.0
 11
529.414684
 21
366.654996
 31
0.0
  0
LINE
  5
19e
100
AcDbEntity
  8
Calque_1
 62
1
100
AcDbLine
 10
529.414684
 20
366.654996
 30
0.0
 11
529.414684
 21
366.654996
 31
0.0
  0
LINE
  5
19f
100
AcDbEntity
  8
Calque_1
 62
1
100
AcDbLine
 10
529.414684
 20
366.654996
 30
0.0
 11
489.415187
 21
366.654996
 31
0.0
  0
LINE
  5
1a0
100
AcDbEntity
  8
Calque_1
 62
1
100
AcDbLine
 10
489.415187
 20
366.654996
 30
0.0
 11
489.415187
 21
366.654996
 31
0.0
  0
LINE
  5
1a1
100
AcDbEntity
  8
Calque_1
 62
1
100
AcDbLine
 10
489.415187
 20
366.654996
 30
0.0
 11
489.415187
 21
355.255871
 31
0.0
  0
LINE
  5
1a2
100
AcDbEntity
  8
Calque_1
 62
1
100
AcDbLine
 10
489.415187
 20
355.255871
 30
0.0
 11
424.942282
 21
355.255871
 31
0.0
  0
LINE
  5
1a3
100
AcDbEntity
  8
Calque_1
 62
1
100
AcDbLine
 10
424.942282
 20
355.255871
 30
0.0
 11
424.942282
 21
398.654706
 31
0.0
  0
LINE
  5
1a4
100
AcDbEntity
  8
Calque_1
 62
1
100
AcDbLine
 10
424.942282
 20
398.654706
 30
0.0
 11
324.942454
 21
398.654706
 31
0.0
  0
LINE
  5
1a5
100
AcDbEntity
  8
Calque_1
 62
1
100
AcDbLine
 10
324.942454
 20
398.654706
 30
0.0
 11
324.942454
 21
398.654706
 31
0.0
  0
SPLINE
  5
1a6
100
AcDbEntity
  8
Calque_1
 62
1
100
AcDbSpline
 70
8
 71
3
 72
8
 73
4
 74
0
 40
0
 40
0
 40
0
 40
0
 40
1
 40
1
 40
1
 40
1
 10
374.942100
 20
386.654730
 30
0.0
 10
375.942222
 20
386.654728
 30
0.0
 10
376.941718
 20
386.628053
 30
0.0
 10
377.936845
 20
386.574805
 30
0.0
  0
SPLINE
  5
1a7
100
AcDbEntity
  8
Calque_1
 62
1
100
AcDbSpline
 70
8
 71
3
 72
8
 73
4
 74
0
 40
0
 40
0
 40
0
 40
0
 40
1
 40
1
 40
1
 40
1
 10
377.936845
 20
386.574805
 30
0.0
 10
379.928445
 20
386.468302
 30
0.0
 10
381.895060
 20
386.255764
 30
0.0
 10
383.807293
 20
385.940369
 30
0.0
  0
SPLINE
  5
1a8
100
AcDbEntity
  8
Calque_1
 62
1
100
AcDbSpline
 70
8
 71
3
 72
8
 73
4
 74
0
 40
0
 40
0
 40
0
 40
0
 40
1
 40
1
 40
1
 40
1
 10
383.807293
 20
385.940369
 30
0.0
 10
384.762745
 20
385.782701
 30
0.0
 10
385.702816
 20
385.599648
 30
0.0
 10
386.623983
 20
385.391898
 30
0.0
  0
SPLINE
  5
1a9
100
AcDbEntity
  8
Calque_1
 62
1
100
AcDbSpline
 70
8
 71
3
 72
8
 73
4
 74
0
 40
0
 40
0
 40
0
 40
0
 40
1
 40
1
 40
1
 40
1
 10
386.623983
 20
385.391898
 30
0.0
 10
387.545303
 20
385.184180
 30
0.0
 10
388.446567
 20
384.952016
 30
0.0
 10
389.324398
 20
384.696277
 30
0.0
  0
SPLINE
  5
1aa
100
AcDbEntity
  8
Calque_1
 62
1
100
AcDbSpline
 70
8
 71
3
 72
8
 73
4
 74
0
 40
0
 40
0
 40
0
 40
0
 40
1
 40
1
 40
1
 40
1
 10
389.324398
 20
384.696277
 30
0.0
 10
392.846397
 20
383.669897
 30
0.0
 10
395.946441
 20
382.277043
 30
0.0
 10
398.440966
 20
380.600188
 30
0.0
  0
SPLINE
  5
1ab
100
AcDbEntity
  8
Calque_1
 62
1
100
AcDbSpline
 70
8
 71
3
 72
8
 73
4
 74
0
 40
0
 40
0
 40
0
 40
0
 40
1
 40
1
 40
1
 40
1
 10
398.440966
 20
380.600188
 30
0.0
 10
399.062581
 20
380.182523
 30
0.0
 10
399.644657
 20
379.748544
 30
0.0
 10
400.185015
 20
379.299878
 30
0.0
  0
SPLINE
  5
1ac
100
AcDbEntity
  8
Calque_1
 62
1
100
AcDbSpline
 70
8
 71
3
 72
8
 73
4
 74
0
 40
0
 40
0
 40
0
 40
0
 40
1
 40
1
 40
1
 40
1
 10
400.185015
 20
379.299878
 30
0.0
 10
400.190194
 20
379.295100
 30
0.0
 10
400.195368
 20
379.290321
 30
0.0
 10
400.200537
 20
379.285541
 30
0.0
  0
SPLINE
  5
1ad
100
AcDbEntity
  8
Calque_1
 62
1
100
AcDbSpline
 70
8
 71
3
 72
8
 73
4
 74
0
 40
0
 40
0
 40
0
 40
0
 40
1
 40
1
 40
1
 40
1
 10
400.200537
 20
379.285541
 30
0.0
 10
400.230639
 20
379.257658
 30
0.0
 10
400.260583
 20
379.229728
 30
0.0
 10
400.290369
 20
379.201749
 30
0.0
  0
SPLINE
  5
1ae
100
AcDbEntity
  8
Calque_1
 62
1
100
AcDbSpline
 70
8
 71
3
 72
8
 73
4
 74
0
 40
0
 40
0
 40
0
 40
0
 40
1
 40
1
 40
1
 40
1
 10
400.290369
 20
379.201749
 30
0.0
 10
400.789858
 20
378.783681
 30
0.0
 10
401.252646
 20
378.353458
 30
0.0
 10
401.677237
 20
377.912473
 30
0.0
  0
SPLINE
  5
1af
100
AcDbEntity
  8
Calque_1
 62
1
100
AcDbSpline
 70
8
 71
3
 72
8
 73
4
 74
0
 40
0
 40
0
 40
0
 40
0
 40
1
 40
1
 40
1
 40
1
 10
401.677237
 20
377.912473
 30
0.0
 10
401.886803
 20
377.678434
 30
0.0
 10
402.085669
 20
377.441711
 30
0.0
 10
402.273657
 20
377.202515
 30
0.0
  0
SPLINE
  5
1b0
100
AcDbEntity
  8
Calque_1
 62
1
100
AcDbSpline
 70
8
 71
3
 72
8
 73
4
 74
0
 40
0
 40
0
 40
0
 40
0
 40
1
 40
1
 40
1
 40
1
 10
402.273657
 20
377.202515
 30
0.0
 10
402.297138
 20
377.174620
 30
0.0
 10
402.320468
 20
377.146689
 30
0.0
 10
402.343648
 20
377.118723
 30
0.0
  0
SPLINE
  5
1b1
100
AcDbEntity
  8
Calque_1
 62
1
100
AcDbSpline
 70
8
 71
3
 72
8
 73
4
 74
0
 40
0
 40
0
 40
0
 40
0
 40
1
 40
1
 40
1
 40
1
 10
402.343648
 20
377.118723
 30
0.0
 10
402.539427
 20
376.899060
 30
0.0
 10
402.725789
 20
376.677043
 30
0.0
 10
402.902589
 20
376.452848
 30
0.0
  0
SPLINE
  5
1b2
100
AcDbEntity
  8
Calque_1
 62
1
100
AcDbSpline
 70
8
 71
3
 72
8
 73
4
 74
0
 40
0
 40
0
 40
0
 40
0
 40
1
 40
1
 40
1
 40
1
 10
402.902589
 20
376.452848
 30
0.0
 10
403.627962
 20
375.457752
 30
0.0
 10
404.164762
 20
374.426433
 30
0.0
 10
404.504962
 20
373.374312
 30
0.0
  0
SPLINE
  5
1b3
100
AcDbEntity
  8
Calque_1
 62
1
100
AcDbSpline
 70
8
 71
3
 72
8
 73
4
 74
0
 40
0
 40
0
 40
0
 40
0
 40
1
 40
1
 40
1
 40
1
 10
404.504962
 20
373.374312
 30
0.0
 10
404.674850
 20
372.848685
 30
0.0
 10
404.795349
 20
372.318857
 30
0.0
 10
404.866009
 20
371.786812
 30
0.0
  0
SPLINE
  5
1b4
100
AcDbEntity
  8
Calque_1
 62
1
100
AcDbSpline
 70
8
 71
3
 72
8
 73
4
 74
0
 40
0
 40
0
 40
0
 40
0
 40
1
 40
1
 40
1
 40
1
 10
404.866009
 20
371.786812
 30
0.0
 10
404.866974
 20
371.775053
 30
0.0
 10
404.867915
 20
371.763294
 30
0.0
 10
404.868832
 20
371.751534
 30
0.0
  0
SPLINE
  5
1b5
100
AcDbEntity
  8
Calque_1
 62
1
100
AcDbSpline
 70
8
 71
3
 72
8
 73
4
 74
0
 40
0
 40
0
 40
0
 40
0
 40
1
 40
1
 40
1
 40
1
 10
404.868832
 20
371.751534
 30
0.0
 10
404.869804
 20
371.738120
 30
0.0
 10
404.870745
 20
371.724705
 30
0.0
 10
404.871654
 20
371.711289
 30
0.0
  0
SPLINE
  5
1b6
100
AcDbEntity
  8
Calque_1
 62
1
100
AcDbSpline
 70
8
 71
3
 72
8
 73
4
 74
0
 40
0
 40
0
 40
0
 40
0
 40
1
 40
1
 40
1
 40
1
 10
404.871654
 20
371.711289
 30
0.0
 10
404.916993
 20
371.359577
 30
0.0
 10
404.940525
 20
371.007162
 30
0.0
 10
404.942209
 20
370.654621
 30
0.0
  0
SPLINE
  5
1b7
100
AcDbEntity
  8
Calque_1
 62
1
100
AcDbSpline
 70
8
 71
3
 72
8
 73
4
 74
0
 40
0
 40
0
 40
0
 40
0
 40
1
 40
1
 40
1
 40
1
 10
404.942209
 20
370.654621
 30
0.0
 10
404.927723
 20
367.710284
 30
0.0
 10
403.390176
 20
364.825173
 30
0.0
 10
400.498846
 20
362.316930
 30
0.0
  0
SPLINE
  5
1b8
100
AcDbEntity
  8
Calque_1
 62
1
100
AcDbSpline
 70
8
 71
3
 72
8
 73
4
 74
0
 40
0
 40
0
 40
0
 40
0
 40
1
 40
1
 40
1
 40
1
 10
400.498846
 20
362.316930
 30
0.0
 10
400.003728
 20
361.885131
 30
0.0
 10
399.470472
 20
361.466105
 30
0.0
 10
398.900876
 20
361.061267
 30
0.0
  0
SPLINE
  5
1b9
100
AcDbEntity
  8
Calque_1
 62
1
100
AcDbSpline
 70
8
 71
3
 72
8
 73
4
 74
0
 40
0
 40
0
 40
0
 40
0
 40
1
 40
1
 40
1
 40
1
 10
398.900876
 20
361.061267
 30
0.0
 10
398.798953
 20
360.988589
 30
0.0
 10
398.695872
 20
360.916375
 30
0.0
 10
398.591645
 20
360.844633
 30
0.0
  0
SPLINE
  5
1ba
100
AcDbEntity
  8
Calque_1
 62
1
100
AcDbSpline
 70
8
 71
3
 72
8
 73
4
 74
0
 40
0
 40
0
 40
0
 40
0
 40
1
 40
1
 40
1
 40
1
 10
398.591645
 20
360.844633
 30
0.0
 10
398.113412
 20
360.516836
 30
0.0
 10
397.611429
 20
360.199096
 30
0.0
 10
397.086836
 20
359.892133
 30
0.0
  0
SPLINE
  5
1bb
100
AcDbEntity
  8
Calque_1
 62
1
100
AcDbSpline
 70
8
 71
3
 72
8
 73
4
 74
0
 40
0
 40
0
 40
0
 40
0
 40
1
 40
1
 40
1
 40
1
 10
397.086836
 20
359.892133
 30
0.0
 10
393.317460
 20
357.678283
 30
0.0
 10
388.460224
 20
356.072130
 30
0.0
 10
383.066121
 20
355.255871
 30
0.0
  0
LINE
  5
1bc
100
AcDbEntity
  8
Calque_1
 62
1
100
AcDbLine
 10
383.066121
 20
355.255871
 30
0.0
 11
366.911100
 21
355.255871
 31
0.0
  0
SPLINE
  5
1bd
100
AcDbEntity
  8
Calque_1
 62
1
100
AcDbSpline
 70
8
 71
3
 72
8
 73
4
 74
0
 40
0
 40
0
 40
0
 40
0
 40
1
 40
1
 40
1
 40
1
 10
366.911100
 20
355.255871
 30
0.0
 10
365.963767
 20
355.396676
 30
0.0
 10
365.029989
 20
355.562239
 30
0.0
 10
364.113149
 20
355.751961
 30
0.0
  0
SPLINE
  5
1be
100
AcDbEntity
  8
Calque_1
 62
1
100
AcDbSpline
 70
8
 71
3
 72
8
 73
4
 74
0
 40
0
 40
0
 40
0
 40
0
 40
1
 40
1
 40
1
 40
1
 10
364.113149
 20
355.751961
 30
0.0
 10
364.090900
 20
355.756171
 30
0.0
 10
364.068661
 20
355.760395
 30
0.0
 10
364.046431
 20
355.764633
 30
0.0
  0
SPLINE
  5
1bf
100
AcDbEntity
  8
Calque_1
 62
1
100
AcDbSpline
 70
8
 71
3
 72
8
 73
4
 74
0
 40
0
 40
0
 40
0
 40
0
 40
1
 40
1
 40
1
 40
1
 10
364.046431
 20
355.764633
 30
0.0
 10
363.147829
 20
355.952065
 30
0.0
 10
362.266704
 20
356.162508
 30
0.0
 10
361.406130
 20
356.395230
 30
0.0
  0
SPLINE
  5
1c0
100
AcDbEntity
  8
Calque_1
 62
1
100
AcDbSpline
 70
8
 71
3
 72
8
 73
4
 74
0
 40
0
 40
0
 40
0
 40
0
 40
1
 40
1
 40
1
 40
1
 10
361.406130
 20
356.395230
 30
0.0
 10
361.370073
 20
356.404561
 30
0.0
 10
361.334052
 20
356.413931
 30
0.0
 10
361.298067
 20
356.423340
 30
0.0
  0
SPLINE
  5
1c1
100
AcDbEntity
  8
Calque_1
 62
1
100
AcDbSpline
 70
8
 71
3
 72
8
 73
4
 74
0
 40
0
 40
0
 40
0
 40
0
 40
1
 40
1
 40
1
 40
1
 10
361.298067
 20
356.423340
 30
0.0
 10
360.461483
 20
356.652102
 30
0.0
 10
359.645525
 20
356.901711
 30
0.0
 10
358.852893
 20
357.171341
 30
0.0
  0
SPLINE
  5
1c2
100
AcDbEntity
  8
Calque_1
 62
1
100
AcDbSpline
 70
8
 71
3
 72
8
 73
4
 74
0
 40
0
 40
0
 40
0
 40
0
 40
1
 40
1
 40
1
 40
1
 10
358.852893
 20
357.171341
 30
0.0
 10
358.794888
 20
357.190343
 30
0.0
 10
358.737004
 20
357.209449
 30
0.0
 10
358.679242
 20
357.228661
 30
0.0
  0
SPLINE
  5
1c3
100
AcDbEntity
  8
Calque_1
 62
1
100
AcDbSpline
 70
8
 71
3
 72
8
 73
4
 74
0
 40
0
 40
0
 40
0
 40
0
 40
1
 40
1
 40
1
 40
1
 10
358.679242
 20
357.228661
 30
0.0
 10
357.908783
 20
357.495036
 30
0.0
 10
357.161660
 20
357.780136
 30
0.0
 10
356.440232
 20
358.083060
 30
0.0
  0
SPLINE
  5
1c4
100
AcDbEntity
  8
Calque_1
 62
1
100
AcDbSpline
 70
8
 71
3
 72
8
 73
4
 74
0
 40
0
 40
0
 40
0
 40
0
 40
1
 40
1
 40
1
 40
1
 10
356.440232
 20
358.083060
 30
0.0
 10
356.370548
 20
358.111008
 30
0.0
 10
356.301092
 20
358.139117
 30
0.0
 10
356.231867
 20
358.167388
 30
0.0
  0
SPLINE
  5
1c5
100
AcDbEntity
  8
Calque_1
 62
1
100
AcDbSpline
 70
8
 71
3
 72
8
 73
4
 74
0
 40
0
 40
0
 40
0
 40
0
 40
1
 40
1
 40
1
 40
1
 10
356.231867
 20
358.167388
 30
0.0
 10
355.541764
 20
358.462982
 30
0.0
 10
354.876527
 20
358.774719
 30
0.0
 10
354.238108
 20
359.101685
 30
0.0
  0
SPLINE
  5
1c6
100
AcDbEntity
  8
Calque_1
 62
1
100
AcDbSpline
 70
8
 71
3
 72
8
 73
4
 74
0
 40
0
 40
0
 40
0
 40
0
 40
1
 40
1
 40
1
 40
1
 10
354.238108
 20
359.101685
 30
0.0
 10
354.145144
 20
359.147497
 30
0.0
 10
354.052723
 20
359.193622
 30
0.0
 10
353.960853
 20
359.240058
 30
0.0
  0
SPLINE
  5
1c7
100
AcDbEntity
  8
Calque_1
 62
1
100
AcDbSpline
 70
8
 71
3
 72
8
 73
4
 74
0
 40
0
 40
0
 40
0
 40
0
 40
1
 40
1
 40
1
 40
1
 10
353.960853
 20
359.240058
 30
0.0
 10
353.361772
 20
359.555204
 30
0.0
 10
352.787817
 20
359.883653
 30
0.0
 10
352.240511
 20
360.224534
 30
0.0
  0
SPLINE
  5
1c8
100
AcDbEntity
  8
Calque_1
 62
1
100
AcDbSpline
 70
8
 71
3
 72
8
 73
4
 74
0
 40
0
 40
0
 40
0
 40
0
 40
1
 40
1
 40
1
 40
1
 10
352.240511
 20
360.224534
 30
0.0
 10
352.126601
 20
360.292551
 30
0.0
 10
352.013783
 20
360.361087
 30
0.0
 10
351.902070
 20
360.430133
 30
0.0
  0
SPLINE
  5
1c9
100
AcDbEntity
  8
Calque_1
 62
1
100
AcDbSpline
 70
8
 71
3
 72
8
 73
4
 74
0
 40
0
 40
0
 40
0
 40
0
 40
1
 40
1
 40
1
 40
1
 10
351.902070
 20
360.430133
 30
0.0
 10
351.392382
 20
360.759747
 30
0.0
 10
350.907654
 20
361.100116
 30
0.0
 10
350.449049
 20
361.450423
 30
0.0
  0
SPLINE
  5
1ca
100
AcDbEntity
  8
Calque_1
 62
1
100
AcDbSpline
 70
8
 71
3
 72
8
 73
4
 74
0
 40
0
 40
0
 40
0
 40
0
 40
1
 40
1
 40
1
 40
1
 10
350.449049
 20
361.450423
 30
0.0
 10
350.325080
 20
361.540688
 30
0.0
 10
350.202890
 20
361.631643
 30
0.0
 10
350.082499
 20
361.723275
 30
0.0
  0
SPLINE
  5
1cb
100
AcDbEntity
  8
Calque_1
 62
1
100
AcDbSpline
 70
8
 71
3
 72
8
 73
4
 74
0
 40
0
 40
0
 40
0
 40
0
 40
1
 40
1
 40
1
 40
1
 10
350.082499
 20
361.723275
 30
0.0
 10
349.660342
 20
362.061056
 30
0.0
 10
349.262440
 20
362.407283
 30
0.0
 10
348.889659
 20
362.761204
 30
0.0
  0
SPLINE
  5
1cc
100
AcDbEntity
  8
Calque_1
 62
1
100
AcDbSpline
 70
8
 71
3
 72
8
 73
4
 74
0
 40
0
 40
0
 40
0
 40
0
 40
1
 40
1
 40
1
 40
1
 10
348.889659
 20
362.761204
 30
0.0
 10
348.762751
 20
362.875952
 30
0.0
 10
348.638535
 20
362.991540
 30
0.0
 10
348.517041
 20
363.107942
 30
0.0
  0
SPLINE
  5
1cd
100
AcDbEntity
  8
Calque_1
 62
1
100
AcDbSpline
 70
8
 71
3
 72
8
 73
4
 74
0
 40
0
 40
0
 40
0
 40
0
 40
1
 40
1
 40
1
 40
1
 10
348.517041
 20
363.107942
 30
0.0
 10
348.181335
 20
363.447080
 30
0.0
 10
347.868600
 20
363.792546
 30
0.0
 10
347.579442
 20
364.143670
 30
0.0
  0
SPLINE
  5
1ce
100
AcDbEntity
  8
Calque_1
 62
1
100
AcDbSpline
 70
8
 71
3
 72
8
 73
4
 74
0
 40
0
 40
0
 40
0
 40
0
 40
1
 40
1
 40
1
 40
1
 10
347.579442
 20
364.143670
 30
0.0
 10
347.455531
 20
364.285668
 30
0.0
 10
347.335536
 20
364.428629
 30
0.0
 10
347.219496
 20
364.572506
 30
0.0
  0
SPLINE
  5
1cf
100
AcDbEntity
  8
Calque_1
 62
1
100
AcDbSpline
 70
8
 71
3
 72
8
 73
4
 74
0
 40
0
 40
0
 40
0
 40
0
 40
1
 40
1
 40
1
 40
1
 10
347.219496
 20
364.572506
 30
0.0
 10
346.968360
 20
364.904533
 30
0.0
 10
346.738191
 20
365.240962
 30
0.0
 10
346.529378
 20
365.581225
 30
0.0
  0
SPLINE
  5
1d0
100
AcDbEntity
  8
Calque_1
 62
1
100
AcDbSpline
 70
8
 71
3
 72
8
 73
4
 74
0
 40
0
 40
0
 40
0
 40
0
 40
1
 40
1
 40
1
 40
1
 10
346.529378
 20
365.581225
 30
0.0
 10
346.416171
 20
365.753130
 30
0.0
 10
346.308478
 20
365.926054
 30
0.0
 10
346.206346
 20
366.099921
 30
0.0
  0
SPLINE
  5
1d1
100
AcDbEntity
  8
Calque_1
 62
1
100
AcDbSpline
 70
8
 71
3
 72
8
 73
4
 74
0
 40
0
 40
0
 40
0
 40
0
 40
1
 40
1
 40
1
 40
1
 10
346.206346
 20
366.099921
 30
0.0
 10
346.033861
 20
366.418650
 30
0.0
 10
345.880004
 20
366.740162
 30
0.0
 10
345.744998
 20
367.063992
 30
0.0
  0
SPLINE
  5
1d2
100
AcDbEntity
  8
Calque_1
 62
1
100
AcDbSpline
 70
8
 71
3
 72
8
 73
4
 74
0
 40
0
 40
0
 40
0
 40
0
 40
1
 40
1
 40
1
 40
1
 10
345.744998
 20
367.063992
 30
0.0
 10
345.651478
 20
367.267579
 30
0.0
 10
345.565468
 20
367.472126
 30
0.0
 10
345.487018
 20
367.677515
 30
0.0
  0
SPLINE
  5
1d3
100
AcDbEntity
  8
Calque_1
 62
1
100
AcDbSpline
 70
8
 71
3
 72
8
 73
4
 74
0
 40
0
 40
0
 40
0
 40
0
 40
1
 40
1
 40
1
 40
1
 10
345.487018
 20
367.677515
 30
0.0
 10
345.386145
 20
367.976206
 30
0.0
 10
345.301228
 20
368.276367
 30
0.0
 10
345.232369
 20
368.577635
 30
0.0
  0
SPLINE
  5
1d4
100
AcDbEntity
  8
Calque_1
 62
1
100
AcDbSpline
 70
8
 71
3
 72
8
 73
4
 74
0
 40
0
 40
0
 40
0
 40
0
 40
1
 40
1
 40
1
 40
1
 10
345.232369
 20
368.577635
 30
0.0
 10
345.168680
 20
368.812884
 30
0.0
 10
345.114828
 20
369.048862
 30
0.0
 10
345.070853
 20
369.285392
 30
0.0
  0
SPLINE
  5
1d5
100
AcDbEntity
  8
Calque_1
 62
1
100
AcDbSpline
 70
8
 71
3
 72
8
 73
4
 74
0
 40
0
 40
0
 40
0
 40
0
 40
1
 40
1
 40
1
 40
1
 10
345.070853
 20
369.285392
 30
0.0
 10
344.991260
 20
369.740243
 30
0.0
 10
344.948229
 20
370.196704
 30
0.0
 10
344.941878
 20
370.653520
 30
0.0
  0
SPLINE
  5
1d6
100
AcDbEntity
  8
Calque_1
 62
1
100
AcDbSpline
 70
8
 71
3
 72
8
 73
4
 74
0
 40
0
 40
0
 40
0
 40
0
 40
1
 40
1
 40
1
 40
1
 10
344.941878
 20
370.653520
 30
0.0
 10
344.941878
 20
370.653896
 30
0.0
 10
344.941878
 20
370.654273
 30
0.0
 10
344.941878
 20
370.654649
 30
0.0
  0
SPLINE
  5
1d7
100
AcDbEntity
  8
Calque_1
 62
1
100
AcDbSpline
 70
8
 71
3
 72
8
 73
4
 74
0
 40
0
 40
0
 40
0
 40
0
 40
1
 40
1
 40
1
 40
1
 10
344.941878
 20
370.654649
 30
0.0
 10
344.941878
 20
370.654837
 30
0.0
 10
344.941878
 20
370.655025
 30
0.0
 10
344.941878
 20
370.655214
 30
0.0
  0
SPLINE
  5
1d8
100
AcDbEntity
  8
Calque_1
 62
1
100
AcDbSpline
 70
8
 71
3
 72
8
 73
4
 74
0
 40
0
 40
0
 40
0
 40
0
 40
1
 40
1
 40
1
 40
1
 10
344.941878
 20
370.655214
 30
0.0
 10
344.945746
 20
370.700792
 30
0.0
 10
344.949979
 20
370.746362
 30
0.0
 10
344.954578
 20
370.791922
 30
0.0
  0
SPLINE
  5
1d9
100
AcDbEntity
  8
Calque_1
 62
1
100
AcDbSpline
 70
8
 71
3
 72
8
 73
4
 74
0
 40
0
 40
0
 40
0
 40
0
 40
1
 40
1
 40
1
 40
1
 10
344.954578
 20
370.791922
 30
0.0
 10
344.954575
 20
370.795600
 30
0.0
 10
344.954575
 20
370.799279
 30
0.0
 10
344.954578
 20
370.802957
 30
0.0
  0
SPLINE
  5
1da
100
AcDbEntity
  8
Calque_1
 62
1
100
AcDbSpline
 70
8
 71
3
 72
8
 73
4
 74
0
 40
0
 40
0
 40
0
 40
0
 40
1
 40
1
 40
1
 40
1
 10
344.954578
 20
370.802957
 30
0.0
 10
344.962930
 20
371.327223
 30
0.0
 10
345.019593
 20
371.850954
 30
0.0
 10
345.124363
 20
372.372254
 30
0.0
  0
SPLINE
  5
1db
100
AcDbEntity
  8
Calque_1
 62
1
100
AcDbSpline
 70
8
 71
3
 72
8
 73
4
 74
0
 40
0
 40
0
 40
0
 40
0
 40
1
 40
1
 40
1
 40
1
 10
345.124363
 20
372.372254
 30
0.0
 10
345.143661
 20
372.443803
 30
0.0
 10
345.163869
 20
372.515282
 30
0.0
 10
345.184984
 20
372.586686
 30
0.0
  0
SPLINE
  5
1dc
100
AcDbEntity
  8
Calque_1
 62
1
100
AcDbSpline
 70
8
 71
3
 72
8
 73
4
 74
0
 40
0
 40
0
 40
0
 40
0
 40
1
 40
1
 40
1
 40
1
 10
345.184984
 20
372.586686
 30
0.0
 10
345.282900
 20
373.038950
 30
0.0
 10
345.416964
 20
373.488780
 30
0.0
 10
345.586812
 20
373.934946
 30
0.0
  0
SPLINE
  5
1dd
100
AcDbEntity
  8
Calque_1
 62
1
100
AcDbSpline
 70
8
 71
3
 72
8
 73
4
 74
0
 40
0
 40
0
 40
0
 40
0
 40
1
 40
1
 40
1
 40
1
 10
345.586812
 20
373.934946
 30
0.0
 10
345.651465
 20
374.078210
 30
0.0
 10
345.719826
 20
374.220990
 30
0.0
 10
345.791875
 20
374.363247
 30
0.0
  0
SPLINE
  5
1de
100
AcDbEntity
  8
Calque_1
 62
1
100
AcDbSpline
 70
8
 71
3
 72
8
 73
4
 74
0
 40
0
 40
0
 40
0
 40
0
 40
1
 40
1
 40
1
 40
1
 10
345.791875
 20
374.363247
 30
0.0
 10
345.948504
 20
374.733495
 30
0.0
 10
346.129787
 20
375.100654
 30
0.0
 10
346.335378
 20
375.464026
 30
0.0
  0
SPLINE
  5
1df
100
AcDbEntity
  8
Calque_1
 62
1
100
AcDbSpline
 70
8
 71
3
 72
8
 73
4
 74
0
 40
0
 40
0
 40
0
 40
0
 40
1
 40
1
 40
1
 40
1
 10
346.335378
 20
375.464026
 30
0.0
 10
346.617633
 20
375.945811
 30
0.0
 10
346.942477
 20
376.420202
 30
0.0
 10
347.308819
 20
376.885608
 30
0.0
  0
SPLINE
  5
1e0
100
AcDbEntity
  8
Calque_1
 62
1
100
AcDbSpline
 70
8
 71
3
 72
8
 73
4
 74
0
 40
0
 40
0
 40
0
 40
0
 40
1
 40
1
 40
1
 40
1
 10
347.308819
 20
376.885608
 30
0.0
 10
347.698280
 20
377.376829
 30
0.0
 10
348.133549
 20
377.857357
 30
0.0
 10
348.612996
 20
378.325393
 30
0.0
  0
SPLINE
  5
1e1
100
AcDbEntity
  8
Calque_1
 62
1
100
AcDbSpline
 70
8
 71
3
 72
8
 73
4
 74
0
 40
0
 40
0
 40
0
 40
0
 40
1
 40
1
 40
1
 40
1
 10
348.612996
 20
378.325393
 30
0.0
 10
349.092591
 20
378.793614
 30
0.0
 10
349.615798
 20
379.248749
 30
0.0
 10
350.180656
 20
379.689090
 30
0.0
  0
SPLINE
  5
1e2
100
AcDbEntity
  8
Calque_1
 62
1
100
AcDbSpline
 70
8
 71
3
 72
8
 73
4
 74
0
 40
0
 40
0
 40
0
 40
0
 40
1
 40
1
 40
1
 40
1
 10
350.180656
 20
379.689090
 30
0.0
 10
350.745347
 20
380.129392
 30
0.0
 10
351.350971
 20
380.554357
 30
0.0
 10
351.995260
 20
380.962392
 30
0.0
  0
SPLINE
  5
1e3
100
AcDbEntity
  8
Calque_1
 62
1
100
AcDbSpline
 70
8
 71
3
 72
8
 73
4
 74
0
 40
0
 40
0
 40
0
 40
0
 40
1
 40
1
 40
1
 40
1
 10
351.995260
 20
380.962392
 30
0.0
 10
353.536241
 20
381.928210
 30
0.0
 10
355.287054
 20
382.792892
 30
0.0
 10
357.210840
 20
383.538235
 30
0.0
  0
SPLINE
  5
1e4
100
AcDbEntity
  8
Calque_1
 62
1
100
AcDbSpline
 70
8
 71
3
 72
8
 73
4
 74
0
 40
0
 40
0
 40
0
 40
0
 40
1
 40
1
 40
1
 40
1
 10
357.210840
 20
383.538235
 30
0.0
 10
357.214696
 20
383.539891
 30
0.0
 10
357.218553
 20
383.541547
 30
0.0
 10
357.222411
 20
383.543202
 30
0.0
  0
SPLINE
  5
1e5
100
AcDbEntity
  8
Calque_1
 62
1
100
AcDbSpline
 70
8
 71
3
 72
8
 73
4
 74
0
 40
0
 40
0
 40
0
 40
0
 40
1
 40
1
 40
1
 40
1
 10
357.222411
 20
383.543202
 30
0.0
 10
357.714076
 20
383.743085
 30
0.0
 10
358.217208
 20
383.934815
 30
0.0
 10
358.731086
 20
384.118117
 30
0.0
  0
SPLINE
  5
1e6
100
AcDbEntity
  8
Calque_1
 62
1
100
AcDbSpline
 70
8
 71
3
 72
8
 73
4
 74
0
 40
0
 40
0
 40
0
 40
0
 40
1
 40
1
 40
1
 40
1
 10
358.731086
 20
384.118117
 30
0.0
 10
359.320858
 20
384.313305
 30
0.0
 10
359.923154
 20
384.497519
 30
0.0
 10
360.536885
 20
384.670426
 30
0.0
  0
SPLINE
  5
1e7
100
AcDbEntity
  8
Calque_1
 62
1
100
AcDbSpline
 70
8
 71
3
 72
8
 73
4
 74
0
 40
0
 40
0
 40
0
 40
0
 40
1
 40
1
 40
1
 40
1
 10
360.536885
 20
384.670426
 30
0.0
 10
361.013055
 20
384.810616
 30
0.0
 10
361.496285
 20
384.943874
 30
0.0
 10
361.986040
 20
385.070052
 30
0.0
  0
SPLINE
  5
1e8
100
AcDbEntity
  8
Calque_1
 62
1
100
AcDbSpline
 70
8
 71
3
 72
8
 73
4
 74
0
 40
0
 40
0
 40
0
 40
0
 40
1
 40
1
 40
1
 40
1
 10
361.986040
 20
385.070052
 30
0.0
 10
362.875769
 20
385.297615
 30
0.0
 10
363.786007
 20
385.501627
 30
0.0
 10
364.713435
 20
385.681346
 30
0.0
  0
SPLINE
  5
1e9
100
AcDbEntity
  8
Calque_1
 62
1
100
AcDbSpline
 70
8
 71
3
 72
8
 73
4
 74
0
 40
0
 40
0
 40
0
 40
0
 40
1
 40
1
 40
1
 40
1
 10
364.713435
 20
385.681346
 30
0.0
 10
365.270552
 20
385.790001
 30
0.0
 10
365.833588
 20
385.889820
 30
0.0
 10
366.401802
 20
385.980670
 30
0.0
  0
SPLINE
  5
1ea
100
AcDbEntity
  8
Calque_1
 62
1
100
AcDbSpline
 70
8
 71
3
 72
8
 73
4
 74
0
 40
0
 40
0
 40
0
 40
0
 40
1
 40
1
 40
1
 40
1
 10
366.401802
 20
385.980670
 30
0.0
 10
366.405094
 20
385.981235
 30
0.0
 10
366.408387
 20
385.981800
 30
0.0
 10
366.411679
 20
385.982364
 30
0.0
  0
SPLINE
  5
1eb
100
AcDbEntity
  8
Calque_1
 62
1
100
AcDbSpline
 70
8
 71
3
 72
8
 73
4
 74
0
 40
0
 40
0
 40
0
 40
0
 40
1
 40
1
 40
1
 40
1
 10
366.411679
 20
385.982364
 30
0.0
 10
367.210013
 20
386.106602
 30
0.0
 10
368.017687
 20
386.213083
 30
0.0
 10
368.832610
 20
386.301529
 30
0.0
  0
SPLINE
  5
1ec
100
AcDbEntity
  8
Calque_1
 62
1
100
AcDbSpline
 70
8
 71
3
 72
8
 73
4
 74
0
 40
0
 40
0
 40
0
 40
0
 40
1
 40
1
 40
1
 40
1
 10
368.832610
 20
386.301529
 30
0.0
 10
369.080667
 20
386.332984
 30
0.0
 10
369.329466
 20
386.362752
 30
0.0
 10
369.578946
 20
386.390824
 30
0.0
  0
SPLINE
  5
1ed
100
AcDbEntity
  8
Calque_1
 62
1
100
AcDbSpline
 70
8
 71
3
 72
8
 73
4
 74
0
 40
0
 40
0
 40
0
 40
0
 40
1
 40
1
 40
1
 40
1
 10
369.578946
 20
386.390824
 30
0.0
 10
369.726655
 20
386.405744
 30
0.0
 10
369.874572
 20
386.420072
 30
0.0
 10
370.022684
 20
386.433806
 30
0.0
  0
SPLINE
  5
1ee
100
AcDbEntity
  8
Calque_1
 62
1
100
AcDbSpline
 70
8
 71
3
 72
8
 73
4
 74
0
 40
0
 40
0
 40
0
 40
0
 40
1
 40
1
 40
1
 40
1
 10
370.022684
 20
386.433806
 30
0.0
 10
370.997580
 20
386.520817
 30
0.0
 10
371.979942
 20
386.582078
 30
0.0
 10
372.966178
 20
386.617364
 30
0.0
  0
SPLINE
  5
1ef
100
AcDbEntity
  8
Calque_1
 62
1
100
AcDbSpline
 70
8
 71
3
 72
8
 73
4
 74
0
 40
0
 40
0
 40
0
 40
0
 40
1
 40
1
 40
1
 40
1
 10
372.966178
 20
386.617364
 30
0.0
 10
373.623379
 20
386.641415
 30
0.0
 10
374.281888
 20
386.653915
 30
0.0
 10
374.940632
 20
386.654843
 30
0.0
  0
LINE
  5
1f0
100
AcDbEntity
  8
Calque_1
 62
1
100
AcDbLine
 10
374.940632
 20
386.654843
 30
0.0
 11
374.942100
 21
386.654730
 31
0.0
  0
LINE
  5
1f1
100
AcDbEntity
  8
Calque_1
 62
1
100
AcDbLine
 10
388.599341
 20
219.103365
 30
0.0
 11
388.599341
 21
208.127573
 31
0.0
  0
LINE
  5
1f2
100
AcDbEntity
  8
Calque_1
 62
1
100
AcDbLine
 10
388.599341
 20
208.127573
 30
0.0
 11
358.811124
 21
208.127573
 31
0.0
  0
LINE
  5
1f3
100
AcDbEntity
  8
Calque_1
 62
1
100
AcDbLine
 10
358.811124
 20
208.127573
 30
0.0
 11
358.811124
 21
178.127661
 31
0.0
  0
LINE
  5
1f4
100
AcDbEntity
  8
Calque_1
 62
1
100
AcDbLine
 10
358.811124
 20
178.127661
 30
0.0
 11
371.624126
 21
178.127661
 31
0.0
  0
LINE
  5
1f5
100
AcDbEntity
  8
Calque_1
 62
1
100
AcDbLine
 10
371.624126
 20
178.127661
 30
0.0
 11
371.624126
 21
138.127628
 31
0.0
  0
LINE
  5
1f6
100
AcDbEntity
  8
Calque_1
 62
1
100
AcDbLine
 10
371.624126
 20
138.127628
 30
0.0
 11
358.811124
 21
138.127628
 31
0.0
  0
LINE
  5
1f7
100
AcDbEntity
  8
Calque_1
 62
1
100
AcDbLine
 10
358.811124
 20
138.127628
 30
0.0
 11
358.811124
 21
108.127745
 31
0.0
  0
LINE
  5
1f8
100
AcDbEntity
  8
Calque_1
 62
1
100
AcDbLine
 10
358.811124
 20
108.127745
 30
0.0
 11
388.599341
 21
108.127745
 31
0.0
  0
LINE
  5
1f9
100
AcDbEntity
  8
Calque_1
 62
1
100
AcDbLine
 10
388.599341
 20
108.127745
 30
0.0
 11
388.599341
 21
96.728620
 31
0.0
  0
LINE
  5
1fa
100
AcDbEntity
  8
Calque_1
 62
1
100
AcDbLine
 10
388.599341
 20
96.728620
 30
0.0
 11
428.599374
 21
96.728620
 31
0.0
  0
LINE
  5
1fb
100
AcDbEntity
  8
Calque_1
 62
1
100
AcDbLine
 10
428.599374
 20
96.728620
 30
0.0
 11
428.599374
 21
108.127745
 31
0.0
  0
LINE
  5
1fc
100
AcDbEntity
  8
Calque_1
 62
1
100
AcDbLine
 10
428.599374
 20
108.127745
 30
0.0
 11
458.810953
 21
108.127745
 31
0.0
  0
LINE
  5
1fd
100
AcDbEntity
  8
Calque_1
 62
1
100
AcDbLine
 10
458.810953
 20
108.127745
 30
0.0
 11
458.810953
 21
138.127628
 31
0.0
  0
LINE
  5
1fe
100
AcDbEntity
  8
Calque_1
 62
1
100
AcDbLine
 10
458.810953
 20
138.127628
 30
0.0
 11
445.998487
 21
138.127628
 31
0.0
  0
LINE
  5
1ff
100
AcDbEntity
  8
Calque_1
 62
1
100
AcDbLine
 10
445.998487
 20
138.127628
 30
0.0
 11
445.998487
 21
178.127661
 31
0.0
  0
LINE
  5
200
100
AcDbEntity
  8
Calque_1
 62
1
100
AcDbLine
 10
445.998487
 20
178.127661
 30
0.0
 11
458.810953
 21
178.127661
 31
0.0
  0
LINE
  5
201
100
AcDbEntity
  8
Calque_1
 62
1
100
AcDbLine
 10
458.810953
 20
178.127661
 30
0.0
 11
458.810953
 21
208.127573
 31
0.0
  0
LINE
  5
202
100
AcDbEntity
  8
Calque_1
 62
1
100
AcDbLine
 10
458.810953
 20
208.127573
 30
0.0
 11
428.599374
 21
208.127573
 31
0.0
  0
LINE
  5
203
100
AcDbEntity
  8
Calque_1
 62
1
100
AcDbLine
 10
428.599374
 20
208.127573
 30
0.0
 11
428.599374
 21
219.103365
 31
0.0
  0
LINE
  5
204
100
AcDbEntity
  8
Calque_1
 62
1
100
AcDbLine
 10
428.599374
 20
219.103365
 30
0.0
 11
388.599341
 21
219.103365
 31
0.0
  0
LINE
  5
205
100
AcDbEntity
  8
Calque_1
 62
1
100
AcDbLine
 10
388.599341
 20
219.103365
 30
0.0
 11
388.599341
 21
219.103365
 31
0.0
  0
SPLINE
  5
206
100
AcDbEntity
  8
Calque_1
 62
1
100
AcDbSpline
 70
8
 71
3
 72
8
 73
4
 74
0
 40
0
 40
0
 40
0
 40
0
 40
1
 40
1
 40
1
 40
1
 10
408.811307
 20
180.128024
 30
0.0
 10
426.484361
 20
180.127915
 30
0.0
 10
440.811096
 20
170.278152
 30
0.0
 10
440.811017
 20
158.127927
 30
0.0
  0
SPLINE
  5
207
100
AcDbEntity
  8
Calque_1
 62
1
100
AcDbSpline
 70
8
 71
3
 72
8
 73
4
 74
0
 40
0
 40
0
 40
0
 40
0
 40
1
 40
1
 40
1
 40
1
 10
440.811017
 20
158.127927
 30
0.0
 10
440.811096
 20
145.977702
 30
0.0
 10
426.484361
 20
136.127939
 30
0.0
 10
408.811307
 20
136.127830
 30
0.0
  0
SPLINE
  5
208
100
AcDbEntity
  8
Calque_1
 62
1
100
AcDbSpline
 70
8
 71
3
 72
8
 73
4
 74
0
 40
0
 40
0
 40
0
 40
0
 40
1
 40
1
 40
1
 40
1
 10
408.811307
 20
136.127830
 30
0.0
 10
400.324312
 20
136.127785
 30
0.0
 10
392.184901
 20
138.445629
 30
0.0
 10
386.183680
 20
142.571455
 30
0.0
  0
SPLINE
  5
209
100
AcDbEntity
  8
Calque_1
 62
1
100
AcDbSpline
 70
8
 71
3
 72
8
 73
4
 74
0
 40
0
 40
0
 40
0
 40
0
 40
1
 40
1
 40
1
 40
1
 10
386.183680
 20
142.571455
 30
0.0
 10
380.182458
 20
146.697281
 30
0.0
 10
376.811022
 20
152.293118
 30
0.0
 10
376.811060
 20
158.127927
 30
0.0
  0
SPLINE
  5
20a
100
AcDbEntity
  8
Calque_1
 62
1
100
AcDbSpline
 70
8
 71
3
 72
8
 73
4
 74
0
 40
0
 40
0
 40
0
 40
0
 40
1
 40
1
 40
1
 40
1
 10
376.811060
 20
158.127927
 30
0.0
 10
376.811022
 20
163.962736
 30
0.0
 10
380.182458
 20
169.558573
 30
0.0
 10
386.183680
 20
173.684399
 30
0.0
  0
SPLINE
  5
20b
100
AcDbEntity
  8
Calque_1
 62
1
100
AcDbSpline
 70
8
 71
3
 72
8
 73
4
 74
0
 40
0
 40
0
 40
0
 40
0
 40
1
 40
1
 40
1
 40
1
 10
386.183680
 20
173.684399
 30
0.0
 10
392.184901
 20
177.810226
 30
0.0
 10
400.324312
 20
180.128070
 30
0.0
 10
408.811307
 20
180.128024
 30
0.0
  0
LINE
  5
20c
100
AcDbEntity
  8
Calque_1
 62
1
100
AcDbLine
 10
408.811307
 20
180.128024
 30
0.0
 11
408.811307
 21
180.128024
 31
0.0
  0
LINE
  5
20d
100
AcDbEntity
  8
Calque_1
 62
1
100
AcDbLine
 10
236.200132
 20
218.524612
 30
0.0
 11
236.200132
 21
207.548820
 31
0.0
  0
LINE
  5
20e
100
AcDbEntity
  8
Calque_1
 62
1
100
AcDbLine
 10
236.200132
 20
207.548820
 30
0.0
 11
206.411886
 21
207.548820
 31
0.0
  0
LINE
  5
20f
100
AcDbEntity
  8
Calque_1
 62
1
100
AcDbLine
 10
206.411886
 20
207.548820
 30
0.0
 11
206.411886
 21
177.548908
 31
0.0
  0
LINE
  5
210
100
AcDbEntity
  8
Calque_1
 62
1
100
AcDbLine
 10
206.411886
 20
177.548908
 30
0.0
 11
219.224888
 21
177.548908
 31
0.0
  0
LINE
  5
211
100
AcDbEntity
  8
Calque_1
 62
1
100
AcDbLine
 10
219.224888
 20
177.548908
 30
0.0
 11
219.436555
 21
177.548908
 31
0.0
  0
LINE
  5
212
100
AcDbEntity
  8
Calque_1
 62
1
100
AcDbLine
 10
219.436555
 20
177.548908
 30
0.0
 11
219.436555
 21
137.548875
 31
0.0
  0
LINE
  5
213
100
AcDbEntity
  8
Calque_1
 62
1
100
AcDbLine
 10
219.436555
 20
137.548875
 30
0.0
 11
219.224888
 21
137.548875
 31
0.0
  0
LINE
  5
214
100
AcDbEntity
  8
Calque_1
 62
1
100
AcDbLine
 10
219.224888
 20
137.548875
 30
0.0
 11
206.411886
 21
137.548875
 31
0.0
  0
LINE
  5
215
100
AcDbEntity
  8
Calque_1
 62
1
100
AcDbLine
 10
206.411886
 20
137.548875
 30
0.0
 11
206.411886
 21
107.548992
 31
0.0
  0
LINE
  5
216
100
AcDbEntity
  8
Calque_1
 62
1
100
AcDbLine
 10
206.411886
 20
107.548992
 30
0.0
 11
236.200132
 21
107.548992
 31
0.0
  0
LINE
  5
217
100
AcDbEntity
  8
Calque_1
 62
1
100
AcDbLine
 10
236.200132
 20
107.548992
 30
0.0
 11
236.200132
 21
96.149867
 31
0.0
  0
LINE
  5
218
100
AcDbEntity
  8
Calque_1
 62
1
100
AcDbLine
 10
236.200132
 20
96.149867
 30
0.0
 11
236.412334
 21
96.149867
 31
0.0
  0
LINE
  5
219
100
AcDbEntity
  8
Calque_1
 62
1
100
AcDbLine
 10
236.412334
 20
96.149867
 30
0.0
 11
276.200164
 21
96.149867
 31
0.0
  0
LINE
  5
21a
100
AcDbEntity
  8
Calque_1
 62
1
100
AcDbLine
 10
276.200164
 20
96.149867
 30
0.0
 11
276.411831
 21
96.149867
 31
0.0
  0
LINE
  5
21b
100
AcDbEntity
  8
Calque_1
 62
1
100
AcDbLine
 10
276.411831
 20
96.149867
 30
0.0
 11
276.411831
 21
107.548992
 31
0.0
  0
LINE
  5
21c
100
AcDbEntity
  8
Calque_1
 62
1
100
AcDbLine
 10
276.411831
 20
107.548992
 30
0.0
 11
306.411715
 21
107.548992
 31
0.0
  0
LINE
  5
21d
100
AcDbEntity
  8
Calque_1
 62
1
100
AcDbLine
 10
306.411715
 20
107.548992
 30
0.0
 11
306.411715
 21
137.548875
 31
0.0
  0
LINE
  5
21e
100
AcDbEntity
  8
Calque_1
 62
1
100
AcDbLine
 10
306.411715
 20
137.548875
 30
0.0
 11
293.810944
 21
137.548875
 31
0.0
  0
LINE
  5
21f
100
AcDbEntity
  8
Calque_1
 62
1
100
AcDbLine
 10
293.810944
 20
137.548875
 30
0.0
 11
293.599277
 21
137.548875
 31
0.0
  0
LINE
  5
220
100
AcDbEntity
  8
Calque_1
 62
1
100
AcDbLine
 10
293.599277
 20
137.548875
 30
0.0
 11
293.599277
 21
177.548908
 31
0.0
  0
LINE
  5
221
100
AcDbEntity
  8
Calque_1
 62
1
100
AcDbLine
 10
293.599277
 20
177.548908
 30
0.0
 11
293.810944
 21
177.548908
 31
0.0
  0
LINE
  5
222
100
AcDbEntity
  8
Calque_1
 62
1
100
AcDbLine
 10
293.810944
 20
177.548908
 30
0.0
 11
306.411715
 21
177.548908
 31
0.0
  0
LINE
  5
223
100
AcDbEntity
  8
Calque_1
 62
1
100
AcDbLine
 10
306.411715
 20
177.548908
 30
0.0
 11
306.411715
 21
207.548820
 31
0.0
  0
LINE
  5
224
100
AcDbEntity
  8
Calque_1
 62
1
100
AcDbLine
 10
306.411715
 20
207.548820
 30
0.0
 11
276.411831
 21
207.548820
 31
0.0
  0
LINE
  5
225
100
AcDbEntity
  8
Calque_1
 62
1
100
AcDbLine
 10
276.411831
 20
207.548820
 30
0.0
 11
276.411831
 21
218.524612
 31
0.0
  0
LINE
  5
226
100
AcDbEntity
  8
Calque_1
 62
1
100
AcDbLine
 10
276.411831
 20
218.524612
 30
0.0
 11
276.200164
 21
218.524612
 31
0.0
  0
LINE
  5
227
100
AcDbEntity
  8
Calque_1
 62
1
100
AcDbLine
 10
276.200164
 20
218.524612
 30
0.0
 11
236.412334
 21
218.524612
 31
0.0
  0
LINE
  5
228
100
AcDbEntity
  8
Calque_1
 62
1
100
AcDbLine
 10
236.412334
 20
218.524612
 30
0.0
 11
236.200132
 21
218.524612
 31
0.0
  0
LINE
  5
229
100
AcDbEntity
  8
Calque_1
 62
1
100
AcDbLine
 10
236.200132
 20
218.524612
 30
0.0
 11
236.200132
 21
218.524612
 31
0.0
  0
SPLINE
  5
22a
100
AcDbEntity
  8
Calque_1
 62
1
100
AcDbSpline
 70
8
 71
3
 72
8
 73
4
 74
0
 40
0
 40
0
 40
0
 40
0
 40
1
 40
1
 40
1
 40
1
 10
256.412097
 20
179.549271
 30
0.0
 10
274.085140
 20
179.549151
 30
0.0
 10
288.411858
 20
169.699391
 30
0.0
 10
288.411779
 20
157.549174
 30
0.0
  0
SPLINE
  5
22b
100
AcDbEntity
  8
Calque_1
 62
1
100
AcDbSpline
 70
8
 71
3
 72
8
 73
4
 74
0
 40
0
 40
0
 40
0
 40
0
 40
1
 40
1
 40
1
 40
1
 10
288.411779
 20
157.549174
 30
0.0
 10
288.411858
 20
145.398957
 30
0.0
 10
274.085140
 20
135.549197
 30
0.0
 10
256.412097
 20
135.549077
 30
0.0
  0
SPLINE
  5
22c
100
AcDbEntity
  8
Calque_1
 62
1
100
AcDbSpline
 70
8
 71
3
 72
8
 73
4
 74
0
 40
0
 40
0
 40
0
 40
0
 40
1
 40
1
 40
1
 40
1
 10
256.412097
 20
135.549077
 30
0.0
 10
247.925097
 20
135.549026
 30
0.0
 10
239.785679
 20
137.866868
 30
0.0
 10
233.784452
 20
141.992695
 30
0.0
  0
SPLINE
  5
22d
100
AcDbEntity
  8
Calque_1
 62
1
100
AcDbSpline
 70
8
 71
3
 72
8
 73
4
 74
0
 40
0
 40
0
 40
0
 40
0
 40
1
 40
1
 40
1
 40
1
 10
233.784452
 20
141.992695
 30
0.0
 10
227.783224
 20
146.118522
 30
0.0
 10
224.411784
 20
151.714362
 30
0.0
 10
224.411822
 20
157.549174
 30
0.0
  0
SPLINE
  5
22e
100
AcDbEntity
  8
Calque_1
 62
1
100
AcDbSpline
 70
8
 71
3
 72
8
 73
4
 74
0
 40
0
 40
0
 40
0
 40
0
 40
1
 40
1
 40
1
 40
1
 10
224.411822
 20
157.549174
 30
0.0
 10
224.411784
 20
163.383986
 30
0.0
 10
227.783224
 20
168.979826
 30
0.0
 10
233.784452
 20
173.105653
 30
0.0
  0
SPLINE
  5
22f
100
AcDbEntity
  8
Calque_1
 62
1
100
AcDbSpline
 70
8
 71
3
 72
8
 73
4
 74
0
 40
0
 40
0
 40
0
 40
0
 40
1
 40
1
 40
1
 40
1
 10
233.784452
 20
173.105653
 30
0.0
 10
239.785679
 20
177.231480
 30
0.0
 10
247.925097
 20
179.549322
 30
0.0
 10
256.412097
 20
179.549271
 30
0.0
  0
LINE
  5
230
100
AcDbEntity
  8
Calque_1
 62
1
100
AcDbLine
 10
256.412097
 20
179.549271
 30
0.0
 11
256.412097
 21
179.549271
 31
0.0
  0
ENDSEC
  0
SECTION
  2
OBJECTS
  0
DICTIONARY
  5
C
330
0
100
AcDbDictionary
  3
ACAD_GROUP
350
D
  3
ACAD_MLINESTYLE
350
17
  0
DICTIONARY
  5
D
330
C
100
AcDbDictionary
  0
DICTIONARY
  5
1A
330
C
100
AcDbDictionary
  0
DICTIONARY
  5
17
330
C
100
AcDbDictionary
  3
STANDARD
350
18
  0
DICTIONARY
  5
19
330
C
100
AcDbDictionary
  0
ENDSEC
  0
EOF
