  0
SECTION
  2
HEADER
  9
$ACADVER
  1
AC1014
  9
$HANDSEED
  5
FFFF
  9
$MEASUREMENT
 70
     1
  0
ENDSEC
  0
SECTION
  2
TABLES
  0
TABLE
  2
VPORT
  5
8
330
0
100
AcDbSymbolTable
 70
     4
  0
VPORT
  5
2E
330
8
100
AcDbSymbolTableRecord
100
AcDbViewportTableRecord
  2
*ACTIVE
 70
     0
 10
0.0
 20
0.0
 11
1.0
 21
1.0
 12
210.0
 22
148.5
 13
0.0
 23
0.0
 14
10.0
 24
10.0
 15
10.0
 25
10.0
 16
0.0
 26
0.0
 36
1.0
 17
0.0
 27
0.0
 37
0.0
 40
341.0
 41
1.24
 42
50.0
 43
0.0
 44
0.0
 50
0.0
 51
0.0
 71
     0
 72
   100
 73
     1
 74
     3
 75
     0
 76
     0
 77
     0
 78
     0
  0
ENDTAB
  0
TABLE
  2
LTYPE
  5
5
330
0
100
AcDbSymbolTable
 70
     1
  0
LTYPE
  5
14
330
5
100
AcDbSymbolTableRecord
100
AcDbLinetypeTableRecord
  2
BYBLOCK
 70
     0
  3

 72
    65
 73
     0
 40
0.0
  0
LTYPE
  5
15
330
5
100
AcDbSymbolTableRecord
100
AcDbLinetypeTableRecord
  2
BYLAYER
 70
     0
  3

 72
    65
 73
     0
 40
0.0
  0
LTYPE
  5
16
330
5
100
AcDbSymbolTableRecord
100
AcDbLinetypeTableRecord
  2
CONTINUOUS
 70
     0
  3
Solid line
 72
    65
 73
     0
 40
0.0
  0
ENDTAB
  0
TABLE
  2
LAYER
  5
2
100
AcDbSymbolTable
 70
2
  0
LAYER
  5
50
100
AcDbSymbolTableRecord
100
AcDbLayerTableRecord
  2
0
 70
0
  6
CONTINUOUS
  0
LAYER
  5
51
100
AcDbSymbolTableRecord
100
AcDbLayerTableRecord
  2
Calque_1
 70
0
  6
CONTINUOUS
  0
ENDTAB
  0
TABLE
  2
STYLE
  5
3
330
0
100
AcDbSymbolTable
 70
     1
  0
STYLE
  5
11
330
3
100
AcDbSymbolTableRecord
100
AcDbTextStyleTableRecord
  2
STANDARD
 70
     0
 40
0.0
 41
1.0
 50
0.0
 71
     0
 42
2.5
  3
txt
  4

  0
ENDTAB
  0
TABLE
  2
VIEW
  5
6
330
0
100
AcDbSymbolTable
 70
     0
  0
ENDTAB
  0
TABLE
  2
UCS
  5
7
330
0
100
AcDbSymbolTable
 70
     0
  0
ENDTAB
  0
TABLE
  2
APPID
  5
9
330
0
100
AcDbSymbolTable
 70
     2
  0
APPID
  5
12
330
9
100
AcDbSymbolTableRecord
100
AcDbRegAppTableRecord
  2
ACAD
 70
     0
  0
ENDTAB
  0
TABLE
  2
DIMSTYLE
  5
A
330
0
100
AcDbSymbolTable
 70
     1
  0
DIMSTYLE
105
27
330
A
100
AcDbSymbolTableRecord
100
AcDbDimStyleTableRecord
  2
ISO-25
 70
     0
  3

  4

  5

  6

  7

 40
1.0
 41
2.5
 42
0.625
 43
3.75
 44
1.25
 45
0.0
 46
0.0
 47
0.0
 48
0.0
140
2.5
141
2.5
142
0.0
143
0.03937007874016
144
1.0
145
0.0
146
1.0
147
0.625
 71
     0
 72
     0
 73
     0
 74
     0
 75
     0
 76
     0
 77
     1
 78
     8
170
     0
171
     3
172
     1
173
     0
174
     0
175
     0
176
     0
177
     0
178
     0
270
     2
271
     2
272
     2
273
     2
274
     3
340
11
275
     0
280
     0
281
     0
282
     0
283
     0
284
     8
285
     0
286
     0
287
     3
288
     0
  0
ENDTAB
  0
TABLE
  2
BLOCK_RECORD
  5
1
330
0
100
AcDbSymbolTable
 70
     1
  0
BLOCK_RECORD
  5
1F
330
1
100
AcDbSymbolTableRecord
100
AcDbBlockTableRecord
  2
*MODEL_SPACE
  0
BLOCK_RECORD
  5
1B
330
1
100
AcDbSymbolTableRecord
100
AcDbBlockTableRecord
  2
*PAPER_SPACE
  0
ENDTAB
  0
ENDSEC
  0
SECTION
  2
BLOCKS
  0
BLOCK
  5
20
330
1F
100
AcDbEntity
  8
0
100
AcDbBlockBegin
  2
*MODEL_SPACE
 70
     0
 10
0.0
 20
0.0
 30
0.0
  3
*MODEL_SPACE
  1

  0
ENDBLK
  5
21
330
1F
100
AcDbEntity
  8
0
100
AcDbBlockEnd
  0
BLOCK
  5
1C
330
1B
100
AcDbEntity
 67
     1
  8
0
100
AcDbBlockBegin
  2
*PAPER_SPACE
  1

  0
ENDBLK
  5
1D
330
1B
100
AcDbEntity
 67
     1
  8
0
100
AcDbBlockEnd
  0
ENDSEC
  0
SECTION
  2
ENTITIES
  0
LINE
  5
100
100
AcDbEntity
  8
Calque_1
 62
1
100
AcDbLine
 10
165.585936
 20
495.255388
 30
0.0
 11
165.585936
 21
485.769452
 31
0.0
  0
LINE
  5
101
100
AcDbEntity
  8
Calque_1
 62
1
100
AcDbLine
 10
165.585936
 20
485.769452
 30
0.0
 11
113.006248
 21
485.769452
 31
0.0
  0
LINE
  5
102
100
AcDbEntity
  8
Calque_1
 62
1
100
AcDbLine
 10
113.006248
 20
485.769452
 30
0.0
 11
113.006248
 21
494.147580
 31
0.0
  0
LINE
  5
103
100
AcDbEntity
  8
Calque_1
 62
1
100
AcDbLine
 10
113.006248
 20
494.147580
 30
0.0
 11
84.660936
 21
494.147580
 31
0.0
  0
LINE
  5
104
100
AcDbEntity
  8
Calque_1
 62
1
100
AcDbLine
 10
84.660936
 20
494.147580
 30
0.0
 11
84.660936
 21
485.769452
 31
0.0
  0
LINE
  5
105
100
AcDbEntity
  8
Calque_1
 62
1
100
AcDbLine
 10
84.660936
 20
485.769452
 30
0.0
 11
38.026562
 21
485.769452
 31
0.0
  0
LINE
  5
106
100
AcDbEntity
  8
Calque_1
 62
1
100
AcDbLine
 10
38.026562
 20
485.769452
 30
0.0
 11
38.026562
 21
439.136636
 31
0.0
  0
LINE
  5
107
100
AcDbEntity
  8
Calque_1
 62
1
100
AcDbLine
 10
38.026562
 20
439.136636
 30
0.0
 11
47.896875
 21
439.136636
 31
0.0
  0
LINE
  5
108
100
AcDbEntity
  8
Calque_1
 62
1
100
AcDbLine
 10
47.896875
 20
439.136636
 30
0.0
 11
47.896875
 21
410.789764
 31
0.0
  0
LINE
  5
109
100
AcDbEntity
  8
Calque_1
 62
1
100
AcDbLine
 10
47.896875
 20
410.789764
 30
0.0
 11
38.026562
 21
410.789764
 31
0.0
  0
LINE
  5
10a
100
AcDbEntity
  8
Calque_1
 62
1
100
AcDbLine
 10
38.026562
 20
410.789764
 30
0.0
 11
38.026562
 21
358.210076
 31
0.0
  0
LINE
  5
10b
100
AcDbEntity
  8
Calque_1
 62
1
100
AcDbLine
 10
38.026562
 20
358.210076
 30
0.0
 11
46.789062
 21
358.210076
 31
0.0
  0
LINE
  5
10c
100
AcDbEntity
  8
Calque_1
 62
1
100
AcDbLine
 10
46.789062
 20
358.210076
 30
0.0
 11
46.789062
 21
329.863204
 31
0.0
  0
LINE
  5
10d
100
AcDbEntity
  8
Calque_1
 62
1
100
AcDbLine
 10
46.789062
 20
329.863204
 30
0.0
 11
38.026562
 21
329.863204
 31
0.0
  0
LINE
  5
10e
100
AcDbEntity
  8
Calque_1
 62
1
100
AcDbLine
 10
38.026562
 20
329.863204
 30
0.0
 11
38.026562
 21
277.283516
 31
0.0
  0
LINE
  5
10f
100
AcDbEntity
  8
Calque_1
 62
1
100
AcDbLine
 10
38.026562
 20
277.283516
 30
0.0
 11
47.896875
 21
277.283516
 31
0.0
  0
LINE
  5
110
100
AcDbEntity
  8
Calque_1
 62
1
100
AcDbLine
 10
47.896875
 20
277.283516
 30
0.0
 11
47.896875
 21
248.938204
 31
0.0
  0
LINE
  5
111
100
AcDbEntity
  8
Calque_1
 62
1
100
AcDbLine
 10
47.896875
 20
248.938204
 30
0.0
 11
38.026562
 21
248.938204
 31
0.0
  0
LINE
  5
112
100
AcDbEntity
  8
Calque_1
 62
1
100
AcDbLine
 10
38.026562
 20
248.938204
 30
0.0
 11
38.026562
 21
202.303828
 31
0.0
  0
LINE
  5
113
100
AcDbEntity
  8
Calque_1
 62
1
100
AcDbLine
 10
38.026562
 20
202.303828
 30
0.0
 11
84.660936
 21
202.303828
 31
0.0
  0
LINE
  5
114
100
AcDbEntity
  8
Calque_1
 62
1
100
AcDbLine
 10
84.660936
 20
202.303828
 30
0.0
 11
84.660936
 21
194.024140
 31
0.0
  0
LINE
  5
115
100
AcDbEntity
  8
Calque_1
 62
1
100
AcDbLine
 10
84.660936
 20
194.024140
 30
0.0
 11
113.006248
 21
194.024140
 31
0.0
  0
LINE
  5
116
100
AcDbEntity
  8
Calque_1
 62
1
100
AcDbLine
 10
113.006248
 20
194.024140
 30
0.0
 11
113.006248
 21
202.303828
 31
0.0
  0
LINE
  5
117
100
AcDbEntity
  8
Calque_1
 62
1
100
AcDbLine
 10
113.006248
 20
202.303828
 30
0.0
 11
165.585936
 21
202.303828
 31
0.0
  0
LINE
  5
118
100
AcDbEntity
  8
Calque_1
 62
1
100
AcDbLine
 10
165.585936
 20
202.303828
 30
0.0
 11
165.585936
 21
195.133516
 31
0.0
  0
LINE
  5
119
100
AcDbEntity
  8
Calque_1
 62
1
100
AcDbLine
 10
165.585936
 20
195.133516
 30
0.0
 11
193.932816
 21
195.133516
 31
0.0
  0
LINE
  5
11a
100
AcDbEntity
  8
Calque_1
 62
1
100
AcDbLine
 10
193.932816
 20
195.133516
 30
0.0
 11
193.932816
 21
202.303828
 31
0.0
  0
LINE
  5
11b
100
AcDbEntity
  8
Calque_1
 62
1
100
AcDbLine
 10
193.932816
 20
202.303828
 30
0.0
 11
246.512496
 21
202.303828
 31
0.0
  0
LINE
  5
11c
100
AcDbEntity
  8
Calque_1
 62
1
100
AcDbLine
 10
246.512496
 20
202.303828
 30
0.0
 11
246.512496
 21
194.024140
 31
0.0
  0
LINE
  5
11d
100
AcDbEntity
  8
Calque_1
 62
1
100
AcDbLine
 10
246.512496
 20
194.024140
 30
0.0
 11
274.859376
 21
194.024140
 31
0.0
  0
LINE
  5
11e
100
AcDbEntity
  8
Calque_1
 62
1
100
AcDbLine
 10
274.859376
 20
194.024140
 30
0.0
 11
274.859376
 21
202.303828
 31
0.0
  0
LINE
  5
11f
100
AcDbEntity
  8
Calque_1
 62
1
100
AcDbLine
 10
274.859376
 20
202.303828
 30
0.0
 11
321.492184
 21
202.303828
 31
0.0
  0
LINE
  5
120
100
AcDbEntity
  8
Calque_1
 62
1
100
AcDbLine
 10
321.492184
 20
202.303828
 30
0.0
 11
321.492184
 21
248.938204
 31
0.0
  0
LINE
  5
121
100
AcDbEntity
  8
Calque_1
 62
1
100
AcDbLine
 10
321.492184
 20
248.938204
 30
0.0
 11
312.467184
 21
248.938204
 31
0.0
  0
LINE
  5
122
100
AcDbEntity
  8
Calque_1
 62
1
100
AcDbLine
 10
312.467184
 20
248.938204
 30
0.0
 11
312.467184
 21
277.283516
 31
0.0
  0
LINE
  5
123
100
AcDbEntity
  8
Calque_1
 62
1
100
AcDbLine
 10
312.467184
 20
277.283516
 30
0.0
 11
321.492184
 21
277.283516
 31
0.0
  0
LINE
  5
124
100
AcDbEntity
  8
Calque_1
 62
1
100
AcDbLine
 10
321.492184
 20
277.283516
 30
0.0
 11
321.492184
 21
329.863204
 31
0.0
  0
LINE
  5
125
100
AcDbEntity
  8
Calque_1
 62
1
100
AcDbLine
 10
321.492184
 20
329.863204
 30
0.0
 11
311.359376
 21
329.863204
 31
0.0
  0
LINE
  5
126
100
AcDbEntity
  8
Calque_1
 62
1
100
AcDbLine
 10
311.359376
 20
329.863204
 30
0.0
 11
311.359376
 21
358.210076
 31
0.0
  0
LINE
  5
127
100
AcDbEntity
  8
Calque_1
 62
1
100
AcDbLine
 10
311.359376
 20
358.210076
 30
0.0
 11
321.492184
 21
358.210076
 31
0.0
  0
LINE
  5
128
100
AcDbEntity
  8
Calque_1
 62
1
100
AcDbLine
 10
321.492184
 20
358.210076
 30
0.0
 11
321.492184
 21
410.789764
 31
0.0
  0
LINE
  5
129
100
AcDbEntity
  8
Calque_1
 62
1
100
AcDbLine
 10
321.492184
 20
410.789764
 30
0.0
 11
312.467184
 21
410.789764
 31
0.0
  0
LINE
  5
12a
100
AcDbEntity
  8
Calque_1
 62
1
100
AcDbLine
 10
312.467184
 20
410.789764
 30
0.0
 11
312.467184
 21
439.136636
 31
0.0
  0
LINE
  5
12b
100
AcDbEntity
  8
Calque_1
 62
1
100
AcDbLine
 10
312.467184
 20
439.136636
 30
0.0
 11
321.492184
 21
439.136636
 31
0.0
  0
LINE
  5
12c
100
AcDbEntity
  8
Calque_1
 62
1
100
AcDbLine
 10
321.492184
 20
439.136636
 30
0.0
 11
321.492184
 21
485.769452
 31
0.0
  0
LINE
  5
12d
100
AcDbEntity
  8
Calque_1
 62
1
100
AcDbLine
 10
321.492184
 20
485.769452
 30
0.0
 11
274.859376
 21
485.769452
 31
0.0
  0
LINE
  5
12e
100
AcDbEntity
  8
Calque_1
 62
1
100
AcDbLine
 10
274.859376
 20
485.769452
 30
0.0
 11
274.859376
 21
494.147580
 31
0.0
  0
LINE
  5
12f
100
AcDbEntity
  8
Calque_1
 62
1
100
AcDbLine
 10
274.859376
 20
494.147580
 30
0.0
 11
246.512496
 21
494.147580
 31
0.0
  0
LINE
  5
130
100
AcDbEntity
  8
Calque_1
 62
1
100
AcDbLine
 10
246.512496
 20
494.147580
 30
0.0
 11
246.512496
 21
485.769452
 31
0.0
  0
LINE
  5
131
100
AcDbEntity
  8
Calque_1
 62
1
100
AcDbLine
 10
246.512496
 20
485.769452
 30
0.0
 11
193.932816
 21
485.769452
 31
0.0
  0
LINE
  5
132
100
AcDbEntity
  8
Calque_1
 62
1
100
AcDbLine
 10
193.932816
 20
485.769452
 30
0.0
 11
193.932816
 21
495.255388
 31
0.0
  0
LINE
  5
133
100
AcDbEntity
  8
Calque_1
 62
1
100
AcDbLine
 10
193.932816
 20
495.255388
 30
0.0
 11
165.585936
 21
495.255388
 31
0.0
  0
LINE
  5
134
100
AcDbEntity
  8
Calque_1
 62
1
100
AcDbLine
 10
165.585936
 20
495.255388
 30
0.0
 11
165.585936
 21
495.255388
 31
0.0
  0
LINE
  5
135
100
AcDbEntity
  8
Calque_1
 62
1
100
AcDbLine
 10
504.810936
 20
495.255388
 30
0.0
 11
504.810936
 21
485.769452
 31
0.0
  0
LINE
  5
136
100
AcDbEntity
  8
Calque_1
 62
1
100
AcDbLine
 10
504.810936
 20
485.769452
 30
0.0
 11
452.231248
 21
485.769452
 31
0.0
  0
LINE
  5
137
100
AcDbEntity
  8
Calque_1
 62
1
100
AcDbLine
 10
452.231248
 20
485.769452
 30
0.0
 11
452.231248
 21
494.147580
 31
0.0
  0
LINE
  5
138
100
AcDbEntity
  8
Calque_1
 62
1
100
AcDbLine
 10
452.231248
 20
494.147580
 30
0.0
 11
423.884376
 21
494.147580
 31
0.0
  0
LINE
  5
139
100
AcDbEntity
  8
Calque_1
 62
1
100
AcDbLine
 10
423.884376
 20
494.147580
 30
0.0
 11
423.884376
 21
485.769452
 31
0.0
  0
LINE
  5
13a
100
AcDbEntity
  8
Calque_1
 62
1
100
AcDbLine
 10
423.884376
 20
485.769452
 30
0.0
 11
377.251560
 21
485.769452
 31
0.0
  0
LINE
  5
13b
100
AcDbEntity
  8
Calque_1
 62
1
100
AcDbLine
 10
377.251560
 20
485.769452
 30
0.0
 11
377.251560
 21
439.136636
 31
0.0
  0
LINE
  5
13c
100
AcDbEntity
  8
Calque_1
 62
1
100
AcDbLine
 10
377.251560
 20
439.136636
 30
0.0
 11
387.121872
 21
439.136636
 31
0.0
  0
LINE
  5
13d
100
AcDbEntity
  8
Calque_1
 62
1
100
AcDbLine
 10
387.121872
 20
439.136636
 30
0.0
 11
387.121872
 21
410.789764
 31
0.0
  0
LINE
  5
13e
100
AcDbEntity
  8
Calque_1
 62
1
100
AcDbLine
 10
387.121872
 20
410.789764
 30
0.0
 11
377.251560
 21
410.789764
 31
0.0
  0
LINE
  5
13f
100
AcDbEntity
  8
Calque_1
 62
1
100
AcDbLine
 10
377.251560
 20
410.789764
 30
0.0
 11
377.251560
 21
358.210076
 31
0.0
  0
LINE
  5
140
100
AcDbEntity
  8
Calque_1
 62
1
100
AcDbLine
 10
377.251560
 20
358.210076
 30
0.0
 11
386.012496
 21
358.210076
 31
0.0
  0
LINE
  5
141
100
AcDbEntity
  8
Calque_1
 62
1
100
AcDbLine
 10
386.012496
 20
358.210076
 30
0.0
 11
386.012496
 21
329.863204
 31
0.0
  0
LINE
  5
142
100
AcDbEntity
  8
Calque_1
 62
1
100
AcDbLine
 10
386.012496
 20
329.863204
 30
0.0
 11
377.251560
 21
329.863204
 31
0.0
  0
LINE
  5
143
100
AcDbEntity
  8
Calque_1
 62
1
100
AcDbLine
 10
377.251560
 20
329.863204
 30
0.0
 11
377.251560
 21
277.283516
 31
0.0
  0
LINE
  5
144
100
AcDbEntity
  8
Calque_1
 62
1
100
AcDbLine
 10
377.251560
 20
277.283516
 30
0.0
 11
387.121872
 21
277.283516
 31
0.0
  0
LINE
  5
145
100
AcDbEntity
  8
Calque_1
 62
1
100
AcDbLine
 10
387.121872
 20
277.283516
 30
0.0
 11
387.121872
 21
248.938204
 31
0.0
  0
LINE
  5
146
100
AcDbEntity
  8
Calque_1
 62
1
100
AcDbLine
 10
387.121872
 20
248.938204
 30
0.0
 11
377.251560
 21
248.938204
 31
0.0
  0
LINE
  5
147
100
AcDbEntity
  8
Calque_1
 62
1
100
AcDbLine
 10
377.251560
 20
248.938204
 30
0.0
 11
377.251560
 21
202.303828
 31
0.0
  0
LINE
  5
148
100
AcDbEntity
  8
Calque_1
 62
1
100
AcDbLine
 10
377.251560
 20
202.303828
 30
0.0
 11
423.884376
 21
202.303828
 31
0.0
  0
LINE
  5
149
100
AcDbEntity
  8
Calque_1
 62
1
100
AcDbLine
 10
423.884376
 20
202.303828
 30
0.0
 11
423.884376
 21
194.024140
 31
0.0
  0
LINE
  5
14a
100
AcDbEntity
  8
Calque_1
 62
1
100
AcDbLine
 10
423.884376
 20
194.024140
 30
0.0
 11
452.231248
 21
194.024140
 31
0.0
  0
LINE
  5
14b
100
AcDbEntity
  8
Calque_1
 62
1
100
AcDbLine
 10
452.231248
 20
194.024140
 30
0.0
 11
452.231248
 21
202.303828
 31
0.0
  0
LINE
  5
14c
100
AcDbEntity
  8
Calque_1
 62
1
100
AcDbLine
 10
452.231248
 20
202.303828
 30
0.0
 11
504.810936
 21
202.303828
 31
0.0
  0
LINE
  5
14d
100
AcDbEntity
  8
Calque_1
 62
1
100
AcDbLine
 10
504.810936
 20
202.303828
 30
0.0
 11
504.810936
 21
195.133516
 31
0.0
  0
LINE
  5
14e
100
AcDbEntity
  8
Calque_1
 62
1
100
AcDbLine
 10
504.810936
 20
195.133516
 30
0.0
 11
533.157816
 21
195.133516
 31
0.0
  0
LINE
  5
14f
100
AcDbEntity
  8
Calque_1
 62
1
100
AcDbLine
 10
533.157816
 20
195.133516
 30
0.0
 11
533.157816
 21
202.303828
 31
0.0
  0
LINE
  5
150
100
AcDbEntity
  8
Calque_1
 62
1
100
AcDbLine
 10
533.157816
 20
202.303828
 30
0.0
 11
585.737504
 21
202.303828
 31
0.0
  0
LINE
  5
151
100
AcDbEntity
  8
Calque_1
 62
1
100
AcDbLine
 10
585.737504
 20
202.303828
 30
0.0
 11
585.737504
 21
194.024140
 31
0.0
  0
LINE
  5
152
100
AcDbEntity
  8
Calque_1
 62
1
100
AcDbLine
 10
585.737504
 20
194.024140
 30
0.0
 11
614.082816
 21
194.024140
 31
0.0
  0
LINE
  5
153
100
AcDbEntity
  8
Calque_1
 62
1
100
AcDbLine
 10
614.082816
 20
194.024140
 30
0.0
 11
614.082816
 21
202.303828
 31
0.0
  0
LINE
  5
154
100
AcDbEntity
  8
Calque_1
 62
1
100
AcDbLine
 10
614.082816
 20
202.303828
 30
0.0
 11
660.717184
 21
202.303828
 31
0.0
  0
LINE
  5
155
100
AcDbEntity
  8
Calque_1
 62
1
100
AcDbLine
 10
660.717184
 20
202.303828
 30
0.0
 11
660.717184
 21
248.938204
 31
0.0
  0
LINE
  5
156
100
AcDbEntity
  8
Calque_1
 62
1
100
AcDbLine
 10
660.717184
 20
248.938204
 30
0.0
 11
651.692184
 21
248.938204
 31
0.0
  0
LINE
  5
157
100
AcDbEntity
  8
Calque_1
 62
1
100
AcDbLine
 10
651.692184
 20
248.938204
 30
0.0
 11
651.692184
 21
277.283516
 31
0.0
  0
LINE
  5
158
100
AcDbEntity
  8
Calque_1
 62
1
100
AcDbLine
 10
651.692184
 20
277.283516
 30
0.0
 11
660.717184
 21
277.283516
 31
0.0
  0
LINE
  5
159
100
AcDbEntity
  8
Calque_1
 62
1
100
AcDbLine
 10
660.717184
 20
277.283516
 30
0.0
 11
660.717184
 21
329.863204
 31
0.0
  0
LINE
  5
15a
100
AcDbEntity
  8
Calque_1
 62
1
100
AcDbLine
 10
660.717184
 20
329.863204
 30
0.0
 11
650.584376
 21
329.863204
 31
0.0
  0
LINE
  5
15b
100
AcDbEntity
  8
Calque_1
 62
1
100
AcDbLine
 10
650.584376
 20
329.863204
 30
0.0
 11
650.584376
 21
358.210076
 31
0.0
  0
LINE
  5
15c
100
AcDbEntity
  8
Calque_1
 62
1
100
AcDbLine
 10
650.584376
 20
358.210076
 30
0.0
 11
660.717184
 21
358.210076
 31
0.0
  0
LINE
  5
15d
100
AcDbEntity
  8
Calque_1
 62
1
100
AcDbLine
 10
660.717184
 20
358.210076
 30
0.0
 11
660.717184
 21
410.789764
 31
0.0
  0
LINE
  5
15e
100
AcDbEntity
  8
Calque_1
 62
1
100
AcDbLine
 10
660.717184
 20
410.789764
 30
0.0
 11
651.692184
 21
410.789764
 31
0.0
  0
LINE
  5
15f
100
AcDbEntity
  8
Calque_1
 62
1
100
AcDbLine
 10
651.692184
 20
410.789764
 30
0.0
 11
651.692184
 21
439.136636
 31
0.0
  0
LINE
  5
160
100
AcDbEntity
  8
Calque_1
 62
1
100
AcDbLine
 10
651.692184
 20
439.136636
 30
0.0
 11
660.717184
 21
439.136636
 31
0.0
  0
LINE
  5
161
100
AcDbEntity
  8
Calque_1
 62
1
100
AcDbLine
 10
660.717184
 20
439.136636
 30
0.0
 11
660.717184
 21
485.769452
 31
0.0
  0
LINE
  5
162
100
AcDbEntity
  8
Calque_1
 62
1
100
AcDbLine
 10
660.717184
 20
485.769452
 30
0.0
 11
614.082816
 21
485.769452
 31
0.0
  0
LINE
  5
163
100
AcDbEntity
  8
Calque_1
 62
1
100
AcDbLine
 10
614.082816
 20
485.769452
 30
0.0
 11
614.082816
 21
494.147580
 31
0.0
  0
LINE
  5
164
100
AcDbEntity
  8
Calque_1
 62
1
100
AcDbLine
 10
614.082816
 20
494.147580
 30
0.0
 11
585.737504
 21
494.147580
 31
0.0
  0
LINE
  5
165
100
AcDbEntity
  8
Calque_1
 62
1
100
AcDbLine
 10
585.737504
 20
494.147580
 30
0.0
 11
585.737504
 21
485.769452
 31
0.0
  0
LINE
  5
166
100
AcDbEntity
  8
Calque_1
 62
1
100
AcDbLine
 10
585.737504
 20
485.769452
 30
0.0
 11
533.157816
 21
485.769452
 31
0.0
  0
LINE
  5
167
100
AcDbEntity
  8
Calque_1
 62
1
100
AcDbLine
 10
533.157816
 20
485.769452
 30
0.0
 11
533.157816
 21
495.255388
 31
0.0
  0
LINE
  5
168
100
AcDbEntity
  8
Calque_1
 62
1
100
AcDbLine
 10
533.157816
 20
495.255388
 30
0.0
 11
504.810936
 21
495.255388
 31
0.0
  0
LINE
  5
169
100
AcDbEntity
  8
Calque_1
 62
1
100
AcDbLine
 10
504.810936
 20
495.255388
 30
0.0
 11
504.810936
 21
495.255388
 31
0.0
  0
LINE
  5
16a
100
AcDbEntity
  8
Calque_1
 62
1
100
AcDbLine
 10
46.895946
 20
158.738964
 30
0.0
 11
46.895946
 21
112.106156
 31
0.0
  0
LINE
  5
16b
100
AcDbEntity
  8
Calque_1
 62
1
100
AcDbLine
 10
46.895946
 20
112.106156
 30
0.0
 11
56.766258
 21
112.106156
 31
0.0
  0
LINE
  5
16c
100
AcDbEntity
  8
Calque_1
 62
1
100
AcDbLine
 10
56.766258
 20
112.106156
 30
0.0
 11
56.766258
 21
83.759276
 31
0.0
  0
LINE
  5
16d
100
AcDbEntity
  8
Calque_1
 62
1
100
AcDbLine
 10
56.766258
 20
83.759276
 30
0.0
 11
46.895946
 21
83.759276
 31
0.0
  0
LINE
  5
16e
100
AcDbEntity
  8
Calque_1
 62
1
100
AcDbLine
 10
46.895946
 20
83.759276
 30
0.0
 11
46.895946
 21
31.179604
 31
0.0
  0
LINE
  5
16f
100
AcDbEntity
  8
Calque_1
 62
1
100
AcDbLine
 10
46.895946
 20
31.179604
 30
0.0
 11
55.656882
 21
31.179604
 31
0.0
  0
LINE
  5
170
100
AcDbEntity
  8
Calque_1
 62
1
100
AcDbLine
 10
55.656882
 20
31.179604
 30
0.0
 11
55.656882
 21
2.832724
 31
0.0
  0
LINE
  5
171
100
AcDbEntity
  8
Calque_1
 62
1
100
AcDbLine
 10
55.656882
 20
2.832724
 30
0.0
 11
46.895946
 21
2.832724
 31
0.0
  0
LINE
  5
172
100
AcDbEntity
  8
Calque_1
 62
1
100
AcDbLine
 10
46.895946
 20
2.832724
 30
0.0
 11
46.895946
 21
-49.746956
 31
0.0
  0
LINE
  5
173
100
AcDbEntity
  8
Calque_1
 62
1
100
AcDbLine
 10
46.895946
 20
-49.746956
 30
0.0
 11
56.766258
 21
-49.746956
 31
0.0
  0
LINE
  5
174
100
AcDbEntity
  8
Calque_1
 62
1
100
AcDbLine
 10
56.766258
 20
-49.746956
 30
0.0
 11
56.766258
 21
-78.092316
 31
0.0
  0
LINE
  5
175
100
AcDbEntity
  8
Calque_1
 62
1
100
AcDbLine
 10
56.766258
 20
-78.092316
 30
0.0
 11
46.895946
 21
-78.092316
 31
0.0
  0
LINE
  5
176
100
AcDbEntity
  8
Calque_1
 62
1
100
AcDbLine
 10
46.895946
 20
-78.092316
 30
0.0
 11
46.895946
 21
-124.725116
 31
0.0
  0
LINE
  5
177
100
AcDbEntity
  8
Calque_1
 62
1
100
AcDbLine
 10
46.895946
 20
-124.725116
 30
0.0
 11
93.528752
 21
-124.725116
 31
0.0
  0
LINE
  5
178
100
AcDbEntity
  8
Calque_1
 62
1
100
AcDbLine
 10
93.528752
 20
-124.725116
 30
0.0
 11
93.528752
 21
-115.998556
 31
0.0
  0
LINE
  5
179
100
AcDbEntity
  8
Calque_1
 62
1
100
AcDbLine
 10
93.528752
 20
-115.998556
 30
0.0
 11
121.875632
 21
-115.998556
 31
0.0
  0
LINE
  5
17a
100
AcDbEntity
  8
Calque_1
 62
1
100
AcDbLine
 10
121.875632
 20
-115.998556
 30
0.0
 11
121.875632
 21
-124.725116
 31
0.0
  0
LINE
  5
17b
100
AcDbEntity
  8
Calque_1
 62
1
100
AcDbLine
 10
121.875632
 20
-124.725116
 30
0.0
 11
174.455320
 21
-124.725116
 31
0.0
  0
LINE
  5
17c
100
AcDbEntity
  8
Calque_1
 62
1
100
AcDbLine
 10
174.455320
 20
-124.725116
 30
0.0
 11
174.455320
 21
-114.889196
 31
0.0
  0
LINE
  5
17d
100
AcDbEntity
  8
Calque_1
 62
1
100
AcDbLine
 10
174.455320
 20
-114.889196
 30
0.0
 11
202.800632
 21
-114.889196
 31
0.0
  0
LINE
  5
17e
100
AcDbEntity
  8
Calque_1
 62
1
100
AcDbLine
 10
202.800632
 20
-114.889196
 30
0.0
 11
202.800632
 21
-124.725116
 31
0.0
  0
LINE
  5
17f
100
AcDbEntity
  8
Calque_1
 62
1
100
AcDbLine
 10
202.800632
 20
-124.725116
 30
0.0
 11
255.380320
 21
-124.725116
 31
0.0
  0
LINE
  5
180
100
AcDbEntity
  8
Calque_1
 62
1
100
AcDbLine
 10
255.380320
 20
-124.725116
 30
0.0
 11
255.380320
 21
-115.998556
 31
0.0
  0
LINE
  5
181
100
AcDbEntity
  8
Calque_1
 62
1
100
AcDbLine
 10
255.380320
 20
-115.998556
 30
0.0
 11
283.727192
 21
-115.998556
 31
0.0
  0
LINE
  5
182
100
AcDbEntity
  8
Calque_1
 62
1
100
AcDbLine
 10
283.727192
 20
-115.998556
 30
0.0
 11
283.727192
 21
-124.725116
 31
0.0
  0
LINE
  5
183
100
AcDbEntity
  8
Calque_1
 62
1
100
AcDbLine
 10
283.727192
 20
-124.725116
 30
0.0
 11
330.360008
 21
-124.725116
 31
0.0
  0
LINE
  5
184
100
AcDbEntity
  8
Calque_1
 62
1
100
AcDbLine
 10
330.360008
 20
-124.725116
 30
0.0
 11
330.360008
 21
-78.092316
 31
0.0
  0
LINE
  5
185
100
AcDbEntity
  8
Calque_1
 62
1
100
AcDbLine
 10
330.360008
 20
-78.092316
 30
0.0
 11
321.336568
 21
-78.092316
 31
0.0
  0
LINE
  5
186
100
AcDbEntity
  8
Calque_1
 62
1
100
AcDbLine
 10
321.336568
 20
-78.092316
 30
0.0
 11
321.336568
 21
-49.746956
 31
0.0
  0
LINE
  5
187
100
AcDbEntity
  8
Calque_1
 62
1
100
AcDbLine
 10
321.336568
 20
-49.746956
 30
0.0
 11
330.360008
 21
-49.746956
 31
0.0
  0
LINE
  5
188
100
AcDbEntity
  8
Calque_1
 62
1
100
AcDbLine
 10
330.360008
 20
-49.746956
 30
0.0
 11
330.360008
 21
2.832724
 31
0.0
  0
LINE
  5
189
100
AcDbEntity
  8
Calque_1
 62
1
100
AcDbLine
 10
330.360008
 20
2.832724
 30
0.0
 11
320.227192
 21
2.832724
 31
0.0
  0
LINE
  5
18a
100
AcDbEntity
  8
Calque_1
 62
1
100
AcDbLine
 10
320.227192
 20
2.832724
 30
0.0
 11
320.227192
 21
31.179604
 31
0.0
  0
LINE
  5
18b
100
AcDbEntity
  8
Calque_1
 62
1
100
AcDbLine
 10
320.227192
 20
31.179604
 30
0.0
 11
330.360008
 21
31.179604
 31
0.0
  0
LINE
  5
18c
100
AcDbEntity
  8
Calque_1
 62
1
100
AcDbLine
 10
330.360008
 20
31.179604
 30
0.0
 11
330.360008
 21
83.759276
 31
0.0
  0
LINE
  5
18d
100
AcDbEntity
  8
Calque_1
 62
1
100
AcDbLine
 10
330.360008
 20
83.759276
 30
0.0
 11
321.336568
 21
83.759276
 31
0.0
  0
LINE
  5
18e
100
AcDbEntity
  8
Calque_1
 62
1
100
AcDbLine
 10
321.336568
 20
83.759276
 30
0.0
 11
321.336568
 21
112.106156
 31
0.0
  0
LINE
  5
18f
100
AcDbEntity
  8
Calque_1
 62
1
100
AcDbLine
 10
321.336568
 20
112.106156
 30
0.0
 11
330.360008
 21
112.106156
 31
0.0
  0
LINE
  5
190
100
AcDbEntity
  8
Calque_1
 62
1
100
AcDbLine
 10
330.360008
 20
112.106156
 30
0.0
 11
330.360008
 21
158.738964
 31
0.0
  0
LINE
  5
191
100
AcDbEntity
  8
Calque_1
 62
1
100
AcDbLine
 10
330.360008
 20
158.738964
 30
0.0
 11
283.727192
 21
158.738964
 31
0.0
  0
LINE
  5
192
100
AcDbEntity
  8
Calque_1
 62
1
100
AcDbLine
 10
283.727192
 20
158.738964
 30
0.0
 11
283.727192
 21
150.109276
 31
0.0
  0
LINE
  5
193
100
AcDbEntity
  8
Calque_1
 62
1
100
AcDbLine
 10
283.727192
 20
150.109276
 30
0.0
 11
255.380320
 21
150.109276
 31
0.0
  0
LINE
  5
194
100
AcDbEntity
  8
Calque_1
 62
1
100
AcDbLine
 10
255.380320
 20
150.109276
 30
0.0
 11
255.380320
 21
158.738964
 31
0.0
  0
LINE
  5
195
100
AcDbEntity
  8
Calque_1
 62
1
100
AcDbLine
 10
255.380320
 20
158.738964
 30
0.0
 11
202.800632
 21
158.738964
 31
0.0
  0
LINE
  5
196
100
AcDbEntity
  8
Calque_1
 62
1
100
AcDbLine
 10
202.800632
 20
158.738964
 30
0.0
 11
202.800632
 21
151.217092
 31
0.0
  0
LINE
  5
197
100
AcDbEntity
  8
Calque_1
 62
1
100
AcDbLine
 10
202.800632
 20
151.217092
 30
0.0
 11
174.455320
 21
151.217092
 31
0.0
  0
LINE
  5
198
100
AcDbEntity
  8
Calque_1
 62
1
100
AcDbLine
 10
174.455320
 20
151.217092
 30
0.0
 11
174.455320
 21
158.738964
 31
0.0
  0
LINE
  5
199
100
AcDbEntity
  8
Calque_1
 62
1
100
AcDbLine
 10
174.455320
 20
158.738964
 30
0.0
 11
121.875632
 21
158.738964
 31
0.0
  0
LINE
  5
19a
100
AcDbEntity
  8
Calque_1
 62
1
100
AcDbLine
 10
121.875632
 20
158.738964
 30
0.0
 11
121.875632
 21
150.109276
 31
0.0
  0
LINE
  5
19b
100
AcDbEntity
  8
Calque_1
 62
1
100
AcDbLine
 10
121.875632
 20
150.109276
 30
0.0
 11
93.528752
 21
150.109276
 31
0.0
  0
LINE
  5
19c
100
AcDbEntity
  8
Calque_1
 62
1
100
AcDbLine
 10
93.528752
 20
150.109276
 30
0.0
 11
93.528752
 21
158.738964
 31
0.0
  0
LINE
  5
19d
100
AcDbEntity
  8
Calque_1
 62
1
100
AcDbLine
 10
93.528752
 20
158.738964
 30
0.0
 11
46.895946
 21
158.738964
 31
0.0
  0
LINE
  5
19e
100
AcDbEntity
  8
Calque_1
 62
1
100
AcDbLine
 10
46.895946
 20
158.738964
 30
0.0
 11
46.895946
 21
158.738964
 31
0.0
  0
LINE
  5
19f
100
AcDbEntity
  8
Calque_1
 62
1
100
AcDbLine
 10
386.120312
 20
160.955388
 30
0.0
 11
386.120312
 21
114.322580
 31
0.0
  0
LINE
  5
1a0
100
AcDbEntity
  8
Calque_1
 62
1
100
AcDbLine
 10
386.120312
 20
114.322580
 30
0.0
 11
395.990624
 21
114.322580
 31
0.0
  0
LINE
  5
1a1
100
AcDbEntity
  8
Calque_1
 62
1
100
AcDbLine
 10
395.990624
 20
114.322580
 30
0.0
 11
395.990624
 21
85.977268
 31
0.0
  0
LINE
  5
1a2
100
AcDbEntity
  8
Calque_1
 62
1
100
AcDbLine
 10
395.990624
 20
85.977268
 30
0.0
 11
386.120312
 21
85.977268
 31
0.0
  0
LINE
  5
1a3
100
AcDbEntity
  8
Calque_1
 62
1
100
AcDbLine
 10
386.120312
 20
85.977268
 30
0.0
 11
386.120312
 21
33.397604
 31
0.0
  0
LINE
  5
1a4
100
AcDbEntity
  8
Calque_1
 62
1
100
AcDbLine
 10
386.120312
 20
33.397604
 30
0.0
 11
394.881248
 21
33.397604
 31
0.0
  0
LINE
  5
1a5
100
AcDbEntity
  8
Calque_1
 62
1
100
AcDbLine
 10
394.881248
 20
33.397604
 30
0.0
 11
394.881248
 21
5.050724
 31
0.0
  0
LINE
  5
1a6
100
AcDbEntity
  8
Calque_1
 62
1
100
AcDbLine
 10
394.881248
 20
5.050724
 30
0.0
 11
386.120312
 21
5.050724
 31
0.0
  0
LINE
  5
1a7
100
AcDbEntity
  8
Calque_1
 62
1
100
AcDbLine
 10
386.120312
 20
5.050724
 30
0.0
 11
386.120312
 21
-47.528956
 31
0.0
  0
LINE
  5
1a8
100
AcDbEntity
  8
Calque_1
 62
1
100
AcDbLine
 10
386.120312
 20
-47.528956
 30
0.0
 11
395.990624
 21
-47.528956
 31
0.0
  0
LINE
  5
1a9
100
AcDbEntity
  8
Calque_1
 62
1
100
AcDbLine
 10
395.990624
 20
-47.528956
 30
0.0
 11
395.990624
 21
-75.875836
 31
0.0
  0
LINE
  5
1aa
100
AcDbEntity
  8
Calque_1
 62
1
100
AcDbLine
 10
395.990624
 20
-75.875836
 30
0.0
 11
386.120312
 21
-75.875836
 31
0.0
  0
LINE
  5
1ab
100
AcDbEntity
  8
Calque_1
 62
1
100
AcDbLine
 10
386.120312
 20
-75.875836
 30
0.0
 11
386.120312
 21
-122.508636
 31
0.0
  0
LINE
  5
1ac
100
AcDbEntity
  8
Calque_1
 62
1
100
AcDbLine
 10
386.120312
 20
-122.508636
 30
0.0
 11
432.753128
 21
-122.508636
 31
0.0
  0
LINE
  5
1ad
100
AcDbEntity
  8
Calque_1
 62
1
100
AcDbLine
 10
432.753128
 20
-122.508636
 30
0.0
 11
432.753128
 21
-113.780556
 31
0.0
  0
LINE
  5
1ae
100
AcDbEntity
  8
Calque_1
 62
1
100
AcDbLine
 10
432.753128
 20
-113.780556
 30
0.0
 11
461.100000
 21
-113.780556
 31
0.0
  0
LINE
  5
1af
100
AcDbEntity
  8
Calque_1
 62
1
100
AcDbLine
 10
461.100000
 20
-113.780556
 30
0.0
 11
461.100000
 21
-122.508636
 31
0.0
  0
LINE
  5
1b0
100
AcDbEntity
  8
Calque_1
 62
1
100
AcDbLine
 10
461.100000
 20
-122.508636
 30
0.0
 11
513.679688
 21
-122.508636
 31
0.0
  0
LINE
  5
1b1
100
AcDbEntity
  8
Calque_1
 62
1
100
AcDbLine
 10
513.679688
 20
-122.508636
 30
0.0
 11
513.679688
 21
-112.672716
 31
0.0
  0
LINE
  5
1b2
100
AcDbEntity
  8
Calque_1
 62
1
100
AcDbLine
 10
513.679688
 20
-112.672716
 30
0.0
 11
542.026560
 21
-112.672716
 31
0.0
  0
LINE
  5
1b3
100
AcDbEntity
  8
Calque_1
 62
1
100
AcDbLine
 10
542.026560
 20
-112.672716
 30
0.0
 11
542.026560
 21
-122.508636
 31
0.0
  0
LINE
  5
1b4
100
AcDbEntity
  8
Calque_1
 62
1
100
AcDbLine
 10
542.026560
 20
-122.508636
 30
0.0
 11
594.606248
 21
-122.508636
 31
0.0
  0
LINE
  5
1b5
100
AcDbEntity
  8
Calque_1
 62
1
100
AcDbLine
 10
594.606248
 20
-122.508636
 30
0.0
 11
594.606248
 21
-113.780556
 31
0.0
  0
LINE
  5
1b6
100
AcDbEntity
  8
Calque_1
 62
1
100
AcDbLine
 10
594.606248
 20
-113.780556
 30
0.0
 11
622.951560
 21
-113.780556
 31
0.0
  0
LINE
  5
1b7
100
AcDbEntity
  8
Calque_1
 62
1
100
AcDbLine
 10
622.951560
 20
-113.780556
 30
0.0
 11
622.951560
 21
-122.508636
 31
0.0
  0
LINE
  5
1b8
100
AcDbEntity
  8
Calque_1
 62
1
100
AcDbLine
 10
622.951560
 20
-122.508636
 30
0.0
 11
669.584376
 21
-122.508636
 31
0.0
  0
LINE
  5
1b9
100
AcDbEntity
  8
Calque_1
 62
1
100
AcDbLine
 10
669.584376
 20
-122.508636
 30
0.0
 11
669.584376
 21
-75.875836
 31
0.0
  0
LINE
  5
1ba
100
AcDbEntity
  8
Calque_1
 62
1
100
AcDbLine
 10
669.584376
 20
-75.875836
 30
0.0
 11
660.560936
 21
-75.875836
 31
0.0
  0
LINE
  5
1bb
100
AcDbEntity
  8
Calque_1
 62
1
100
AcDbLine
 10
660.560936
 20
-75.875836
 30
0.0
 11
660.560936
 21
-47.528956
 31
0.0
  0
LINE
  5
1bc
100
AcDbEntity
  8
Calque_1
 62
1
100
AcDbLine
 10
660.560936
 20
-47.528956
 30
0.0
 11
669.584376
 21
-47.528956
 31
0.0
  0
LINE
  5
1bd
100
AcDbEntity
  8
Calque_1
 62
1
100
AcDbLine
 10
669.584376
 20
-47.528956
 30
0.0
 11
669.584376
 21
5.050724
 31
0.0
  0
LINE
  5
1be
100
AcDbEntity
  8
Calque_1
 62
1
100
AcDbLine
 10
669.584376
 20
5.050724
 30
0.0
 11
659.453128
 21
5.050724
 31
0.0
  0
LINE
  5
1bf
100
AcDbEntity
  8
Calque_1
 62
1
100
AcDbLine
 10
659.453128
 20
5.050724
 30
0.0
 11
659.453128
 21
33.397604
 31
0.0
  0
LINE
  5
1c0
100
AcDbEntity
  8
Calque_1
 62
1
100
AcDbLine
 10
659.453128
 20
33.397604
 30
0.0
 11
669.584376
 21
33.397604
 31
0.0
  0
LINE
  5
1c1
100
AcDbEntity
  8
Calque_1
 62
1
100
AcDbLine
 10
669.584376
 20
33.397604
 30
0.0
 11
669.584376
 21
85.977268
 31
0.0
  0
LINE
  5
1c2
100
AcDbEntity
  8
Calque_1
 62
1
100
AcDbLine
 10
669.584376
 20
85.977268
 30
0.0
 11
660.560936
 21
85.977268
 31
0.0
  0
LINE
  5
1c3
100
AcDbEntity
  8
Calque_1
 62
1
100
AcDbLine
 10
660.560936
 20
85.977268
 30
0.0
 11
660.560936
 21
114.322580
 31
0.0
  0
LINE
  5
1c4
100
AcDbEntity
  8
Calque_1
 62
1
100
AcDbLine
 10
660.560936
 20
114.322580
 30
0.0
 11
669.584376
 21
114.322580
 31
0.0
  0
LINE
  5
1c5
100
AcDbEntity
  8
Calque_1
 62
1
100
AcDbLine
 10
669.584376
 20
114.322580
 30
0.0
 11
669.584376
 21
160.955388
 31
0.0
  0
LINE
  5
1c6
100
AcDbEntity
  8
Calque_1
 62
1
100
AcDbLine
 10
669.584376
 20
160.955388
 30
0.0
 11
622.951560
 21
160.955388
 31
0.0
  0
LINE
  5
1c7
100
AcDbEntity
  8
Calque_1
 62
1
100
AcDbLine
 10
622.951560
 20
160.955388
 30
0.0
 11
622.951560
 21
152.325700
 31
0.0
  0
LINE
  5
1c8
100
AcDbEntity
  8
Calque_1
 62
1
100
AcDbLine
 10
622.951560
 20
152.325700
 30
0.0
 11
594.606248
 21
152.325700
 31
0.0
  0
LINE
  5
1c9
100
AcDbEntity
  8
Calque_1
 62
1
100
AcDbLine
 10
594.606248
 20
152.325700
 30
0.0
 11
594.606248
 21
160.955388
 31
0.0
  0
LINE
  5
1ca
100
AcDbEntity
  8
Calque_1
 62
1
100
AcDbLine
 10
594.606248
 20
160.955388
 30
0.0
 11
542.026560
 21
160.955388
 31
0.0
  0
LINE
  5
1cb
100
AcDbEntity
  8
Calque_1
 62
1
100
AcDbLine
 10
542.026560
 20
160.955388
 30
0.0
 11
542.026560
 21
153.435076
 31
0.0
  0
LINE
  5
1cc
100
AcDbEntity
  8
Calque_1
 62
1
100
AcDbLine
 10
542.026560
 20
153.435076
 30
0.0
 11
513.679688
 21
153.435076
 31
0.0
  0
LINE
  5
1cd
100
AcDbEntity
  8
Calque_1
 62
1
100
AcDbLine
 10
513.679688
 20
153.435076
 30
0.0
 11
513.679688
 21
160.955388
 31
0.0
  0
LINE
  5
1ce
100
AcDbEntity
  8
Calque_1
 62
1
100
AcDbLine
 10
513.679688
 20
160.955388
 30
0.0
 11
461.100000
 21
160.955388
 31
0.0
  0
LINE
  5
1cf
100
AcDbEntity
  8
Calque_1
 62
1
100
AcDbLine
 10
461.100000
 20
160.955388
 30
0.0
 11
461.100000
 21
152.325700
 31
0.0
  0
LINE
  5
1d0
100
AcDbEntity
  8
Calque_1
 62
1
100
AcDbLine
 10
461.100000
 20
152.325700
 30
0.0
 11
432.753128
 21
152.325700
 31
0.0
  0
LINE
  5
1d1
100
AcDbEntity
  8
Calque_1
 62
1
100
AcDbLine
 10
432.753128
 20
152.325700
 30
0.0
 11
432.753128
 21
160.955388
 31
0.0
  0
LINE
  5
1d2
100
AcDbEntity
  8
Calque_1
 62
1
100
AcDbLine
 10
432.753128
 20
160.955388
 30
0.0
 11
386.120312
 21
160.955388
 31
0.0
  0
LINE
  5
1d3
100
AcDbEntity
  8
Calque_1
 62
1
100
AcDbLine
 10
386.120312
 20
160.955388
 30
0.0
 11
386.120312
 21
160.955388
 31
0.0
  0
LINE
  5
1d4
100
AcDbEntity
  8
Calque_1
 62
1
100
AcDbLine
 10
503.273384
 20
813.008813
 30
0.0
 11
503.273384
 21
803.522877
 31
0.0
  0
LINE
  5
1d5
100
AcDbEntity
  8
Calque_1
 62
1
100
AcDbLine
 10
503.273384
 20
803.522877
 30
0.0
 11
450.693696
 21
803.522877
 31
0.0
  0
LINE
  5
1d6
100
AcDbEntity
  8
Calque_1
 62
1
100
AcDbLine
 10
450.693696
 20
803.522877
 30
0.0
 11
450.693696
 21
811.900997
 31
0.0
  0
LINE
  5
1d7
100
AcDbEntity
  8
Calque_1
 62
1
100
AcDbLine
 10
450.693696
 20
811.900997
 30
0.0
 11
422.348384
 21
811.900997
 31
0.0
  0
LINE
  5
1d8
100
AcDbEntity
  8
Calque_1
 62
1
100
AcDbLine
 10
422.348384
 20
811.900997
 30
0.0
 11
422.348384
 21
803.522877
 31
0.0
  0
LINE
  5
1d9
100
AcDbEntity
  8
Calque_1
 62
1
100
AcDbLine
 10
422.348384
 20
803.522877
 30
0.0
 11
375.714016
 21
803.522877
 31
0.0
  0
LINE
  5
1da
100
AcDbEntity
  8
Calque_1
 62
1
100
AcDbLine
 10
375.714016
 20
803.522877
 30
0.0
 11
375.714016
 21
756.890060
 31
0.0
  0
LINE
  5
1db
100
AcDbEntity
  8
Calque_1
 62
1
100
AcDbLine
 10
375.714016
 20
756.890060
 30
0.0
 11
368.576512
 21
756.890060
 31
0.0
  0
LINE
  5
1dc
100
AcDbEntity
  8
Calque_1
 62
1
100
AcDbLine
 10
368.576512
 20
756.890060
 30
0.0
 11
368.576512
 21
728.543188
 31
0.0
  0
LINE
  5
1dd
100
AcDbEntity
  8
Calque_1
 62
1
100
AcDbLine
 10
368.576512
 20
728.543188
 30
0.0
 11
375.714016
 21
728.543188
 31
0.0
  0
LINE
  5
1de
100
AcDbEntity
  8
Calque_1
 62
1
100
AcDbLine
 10
375.714016
 20
728.543188
 30
0.0
 11
375.714016
 21
675.963500
 31
0.0
  0
LINE
  5
1df
100
AcDbEntity
  8
Calque_1
 62
1
100
AcDbLine
 10
375.714016
 20
675.963500
 30
0.0
 11
367.468704
 21
675.963500
 31
0.0
  0
LINE
  5
1e0
100
AcDbEntity
  8
Calque_1
 62
1
100
AcDbLine
 10
367.468704
 20
675.963500
 30
0.0
 11
367.468704
 21
647.616628
 31
0.0
  0
LINE
  5
1e1
100
AcDbEntity
  8
Calque_1
 62
1
100
AcDbLine
 10
367.468704
 20
647.616628
 30
0.0
 11
375.714016
 21
647.616628
 31
0.0
  0
LINE
  5
1e2
100
AcDbEntity
  8
Calque_1
 62
1
100
AcDbLine
 10
375.714016
 20
647.616628
 30
0.0
 11
375.714016
 21
595.036940
 31
0.0
  0
LINE
  5
1e3
100
AcDbEntity
  8
Calque_1
 62
1
100
AcDbLine
 10
375.714016
 20
595.036940
 30
0.0
 11
368.576512
 21
595.036940
 31
0.0
  0
LINE
  5
1e4
100
AcDbEntity
  8
Calque_1
 62
1
100
AcDbLine
 10
368.576512
 20
595.036940
 30
0.0
 11
368.576512
 21
566.690060
 31
0.0
  0
LINE
  5
1e5
100
AcDbEntity
  8
Calque_1
 62
1
100
AcDbLine
 10
368.576512
 20
566.690060
 30
0.0
 11
375.714016
 21
566.690060
 31
0.0
  0
LINE
  5
1e6
100
AcDbEntity
  8
Calque_1
 62
1
100
AcDbLine
 10
375.714016
 20
566.690060
 30
0.0
 11
375.714016
 21
520.057252
 31
0.0
  0
LINE
  5
1e7
100
AcDbEntity
  8
Calque_1
 62
1
100
AcDbLine
 10
375.714016
 20
520.057252
 30
0.0
 11
422.348384
 21
520.057252
 31
0.0
  0
LINE
  5
1e8
100
AcDbEntity
  8
Calque_1
 62
1
100
AcDbLine
 10
422.348384
 20
520.057252
 30
0.0
 11
422.348384
 21
511.777564
 31
0.0
  0
LINE
  5
1e9
100
AcDbEntity
  8
Calque_1
 62
1
100
AcDbLine
 10
422.348384
 20
511.777564
 30
0.0
 11
450.693696
 21
511.777564
 31
0.0
  0
LINE
  5
1ea
100
AcDbEntity
  8
Calque_1
 62
1
100
AcDbLine
 10
450.693696
 20
511.777564
 30
0.0
 11
450.693696
 21
520.057252
 31
0.0
  0
LINE
  5
1eb
100
AcDbEntity
  8
Calque_1
 62
1
100
AcDbLine
 10
450.693696
 20
520.057252
 30
0.0
 11
503.273384
 21
520.057252
 31
0.0
  0
LINE
  5
1ec
100
AcDbEntity
  8
Calque_1
 62
1
100
AcDbLine
 10
503.273384
 20
520.057252
 30
0.0
 11
503.273384
 21
512.886940
 31
0.0
  0
LINE
  5
1ed
100
AcDbEntity
  8
Calque_1
 62
1
100
AcDbLine
 10
503.273384
 20
512.886940
 30
0.0
 11
531.620264
 21
512.886940
 31
0.0
  0
LINE
  5
1ee
100
AcDbEntity
  8
Calque_1
 62
1
100
AcDbLine
 10
531.620264
 20
512.886940
 30
0.0
 11
531.620264
 21
520.057252
 31
0.0
  0
LINE
  5
1ef
100
AcDbEntity
  8
Calque_1
 62
1
100
AcDbLine
 10
531.620264
 20
520.057252
 30
0.0
 11
584.199952
 21
520.057252
 31
0.0
  0
LINE
  5
1f0
100
AcDbEntity
  8
Calque_1
 62
1
100
AcDbLine
 10
584.199952
 20
520.057252
 30
0.0
 11
584.199952
 21
511.777564
 31
0.0
  0
LINE
  5
1f1
100
AcDbEntity
  8
Calque_1
 62
1
100
AcDbLine
 10
584.199952
 20
511.777564
 30
0.0
 11
612.546824
 21
511.777564
 31
0.0
  0
LINE
  5
1f2
100
AcDbEntity
  8
Calque_1
 62
1
100
AcDbLine
 10
612.546824
 20
511.777564
 30
0.0
 11
612.546824
 21
520.057252
 31
0.0
  0
LINE
  5
1f3
100
AcDbEntity
  8
Calque_1
 62
1
100
AcDbLine
 10
612.546824
 20
520.057252
 30
0.0
 11
659.179640
 21
520.057252
 31
0.0
  0
LINE
  5
1f4
100
AcDbEntity
  8
Calque_1
 62
1
100
AcDbLine
 10
659.179640
 20
520.057252
 30
0.0
 11
659.179640
 21
566.690060
 31
0.0
  0
LINE
  5
1f5
100
AcDbEntity
  8
Calque_1
 62
1
100
AcDbLine
 10
659.179640
 20
566.690060
 30
0.0
 11
667.162448
 21
566.690060
 31
0.0
  0
LINE
  5
1f6
100
AcDbEntity
  8
Calque_1
 62
1
100
AcDbLine
 10
667.162448
 20
566.690060
 30
0.0
 11
667.162448
 21
595.036940
 31
0.0
  0
LINE
  5
1f7
100
AcDbEntity
  8
Calque_1
 62
1
100
AcDbLine
 10
667.162448
 20
595.036940
 30
0.0
 11
659.179640
 21
595.036940
 31
0.0
  0
LINE
  5
1f8
100
AcDbEntity
  8
Calque_1
 62
1
100
AcDbLine
 10
659.179640
 20
595.036940
 30
0.0
 11
659.179640
 21
647.616628
 31
0.0
  0
LINE
  5
1f9
100
AcDbEntity
  8
Calque_1
 62
1
100
AcDbLine
 10
659.179640
 20
647.616628
 30
0.0
 11
666.054640
 21
647.616628
 31
0.0
  0
LINE
  5
1fa
100
AcDbEntity
  8
Calque_1
 62
1
100
AcDbLine
 10
666.054640
 20
647.616628
 30
0.0
 11
666.054640
 21
675.963500
 31
0.0
  0
LINE
  5
1fb
100
AcDbEntity
  8
Calque_1
 62
1
100
AcDbLine
 10
666.054640
 20
675.963500
 30
0.0
 11
659.179640
 21
675.963500
 31
0.0
  0
LINE
  5
1fc
100
AcDbEntity
  8
Calque_1
 62
1
100
AcDbLine
 10
659.179640
 20
675.963500
 30
0.0
 11
659.179640
 21
728.543188
 31
0.0
  0
LINE
  5
1fd
100
AcDbEntity
  8
Calque_1
 62
1
100
AcDbLine
 10
659.179640
 20
728.543188
 30
0.0
 11
667.162448
 21
728.543188
 31
0.0
  0
LINE
  5
1fe
100
AcDbEntity
  8
Calque_1
 62
1
100
AcDbLine
 10
667.162448
 20
728.543188
 30
0.0
 11
667.162448
 21
756.890060
 31
0.0
  0
LINE
  5
1ff
100
AcDbEntity
  8
Calque_1
 62
1
100
AcDbLine
 10
667.162448
 20
756.890060
 30
0.0
 11
659.179640
 21
756.890060
 31
0.0
  0
LINE
  5
200
100
AcDbEntity
  8
Calque_1
 62
1
100
AcDbLine
 10
659.179640
 20
756.890060
 30
0.0
 11
659.179640
 21
803.522877
 31
0.0
  0
LINE
  5
201
100
AcDbEntity
  8
Calque_1
 62
1
100
AcDbLine
 10
659.179640
 20
803.522877
 30
0.0
 11
612.546824
 21
803.522877
 31
0.0
  0
LINE
  5
202
100
AcDbEntity
  8
Calque_1
 62
1
100
AcDbLine
 10
612.546824
 20
803.522877
 30
0.0
 11
612.546824
 21
811.900997
 31
0.0
  0
LINE
  5
203
100
AcDbEntity
  8
Calque_1
 62
1
100
AcDbLine
 10
612.546824
 20
811.900997
 30
0.0
 11
584.199952
 21
811.900997
 31
0.0
  0
LINE
  5
204
100
AcDbEntity
  8
Calque_1
 62
1
100
AcDbLine
 10
584.199952
 20
811.900997
 30
0.0
 11
584.199952
 21
803.522877
 31
0.0
  0
LINE
  5
205
100
AcDbEntity
  8
Calque_1
 62
1
100
AcDbLine
 10
584.199952
 20
803.522877
 30
0.0
 11
531.620264
 21
803.522877
 31
0.0
  0
LINE
  5
206
100
AcDbEntity
  8
Calque_1
 62
1
100
AcDbLine
 10
531.620264
 20
803.522877
 30
0.0
 11
531.620264
 21
813.008813
 31
0.0
  0
LINE
  5
207
100
AcDbEntity
  8
Calque_1
 62
1
100
AcDbLine
 10
531.620264
 20
813.008813
 30
0.0
 11
503.273384
 21
813.008813
 31
0.0
  0
LINE
  5
208
100
AcDbEntity
  8
Calque_1
 62
1
100
AcDbLine
 10
503.273384
 20
813.008813
 30
0.0
 11
503.273384
 21
813.008813
 31
0.0
  0
LINE
  5
209
100
AcDbEntity
  8
Calque_1
 62
1
100
AcDbLine
 10
153.994472
 20
804.743117
 30
0.0
 11
153.994472
 21
795.257181
 31
0.0
  0
LINE
  5
20a
100
AcDbEntity
  8
Calque_1
 62
1
100
AcDbLine
 10
153.994472
 20
795.257181
 30
0.0
 11
101.414784
 21
795.257181
 31
0.0
  0
LINE
  5
20b
100
AcDbEntity
  8
Calque_1
 62
1
100
AcDbLine
 10
101.414784
 20
795.257181
 30
0.0
 11
101.414784
 21
803.635301
 31
0.0
  0
LINE
  5
20c
100
AcDbEntity
  8
Calque_1
 62
1
100
AcDbLine
 10
101.414784
 20
803.635301
 30
0.0
 11
73.069473
 21
803.635301
 31
0.0
  0
LINE
  5
20d
100
AcDbEntity
  8
Calque_1
 62
1
100
AcDbLine
 10
73.069473
 20
803.635301
 30
0.0
 11
73.069473
 21
795.257181
 31
0.0
  0
LINE
  5
20e
100
AcDbEntity
  8
Calque_1
 62
1
100
AcDbLine
 10
73.069473
 20
795.257181
 30
0.0
 11
26.435105
 21
795.257181
 31
0.0
  0
LINE
  5
20f
100
AcDbEntity
  8
Calque_1
 62
1
100
AcDbLine
 10
26.435105
 20
795.257181
 30
0.0
 11
26.435105
 21
748.624364
 31
0.0
  0
LINE
  5
210
100
AcDbEntity
  8
Calque_1
 62
1
100
AcDbLine
 10
26.435105
 20
748.624364
 30
0.0
 11
19.297600
 21
748.624364
 31
0.0
  0
LINE
  5
211
100
AcDbEntity
  8
Calque_1
 62
1
100
AcDbLine
 10
19.297600
 20
748.624364
 30
0.0
 11
19.297600
 21
720.277492
 31
0.0
  0
LINE
  5
212
100
AcDbEntity
  8
Calque_1
 62
1
100
AcDbLine
 10
19.297600
 20
720.277492
 30
0.0
 11
26.435105
 21
720.277492
 31
0.0
  0
LINE
  5
213
100
AcDbEntity
  8
Calque_1
 62
1
100
AcDbLine
 10
26.435105
 20
720.277492
 30
0.0
 11
26.435105
 21
667.697804
 31
0.0
  0
LINE
  5
214
100
AcDbEntity
  8
Calque_1
 62
1
100
AcDbLine
 10
26.435105
 20
667.697804
 30
0.0
 11
18.189792
 21
667.697804
 31
0.0
  0
LINE
  5
215
100
AcDbEntity
  8
Calque_1
 62
1
100
AcDbLine
 10
18.189792
 20
667.697804
 30
0.0
 11
18.189792
 21
639.350932
 31
0.0
  0
LINE
  5
216
100
AcDbEntity
  8
Calque_1
 62
1
100
AcDbLine
 10
18.189792
 20
639.350932
 30
0.0
 11
26.435105
 21
639.350932
 31
0.0
  0
LINE
  5
217
100
AcDbEntity
  8
Calque_1
 62
1
100
AcDbLine
 10
26.435105
 20
639.350932
 30
0.0
 11
26.435105
 21
586.771244
 31
0.0
  0
LINE
  5
218
100
AcDbEntity
  8
Calque_1
 62
1
100
AcDbLine
 10
26.435105
 20
586.771244
 30
0.0
 11
19.297600
 21
586.771244
 31
0.0
  0
LINE
  5
219
100
AcDbEntity
  8
Calque_1
 62
1
100
AcDbLine
 10
19.297600
 20
586.771244
 30
0.0
 11
19.297600
 21
558.424364
 31
0.0
  0
LINE
  5
21a
100
AcDbEntity
  8
Calque_1
 62
1
100
AcDbLine
 10
19.297600
 20
558.424364
 30
0.0
 11
26.435105
 21
558.424364
 31
0.0
  0
LINE
  5
21b
100
AcDbEntity
  8
Calque_1
 62
1
100
AcDbLine
 10
26.435105
 20
558.424364
 30
0.0
 11
26.435105
 21
511.791556
 31
0.0
  0
LINE
  5
21c
100
AcDbEntity
  8
Calque_1
 62
1
100
AcDbLine
 10
26.435105
 20
511.791556
 30
0.0
 11
73.069473
 21
511.791556
 31
0.0
  0
LINE
  5
21d
100
AcDbEntity
  8
Calque_1
 62
1
100
AcDbLine
 10
73.069473
 20
511.791556
 30
0.0
 11
73.069473
 21
503.511868
 31
0.0
  0
LINE
  5
21e
100
AcDbEntity
  8
Calque_1
 62
1
100
AcDbLine
 10
73.069473
 20
503.511868
 30
0.0
 11
101.414784
 21
503.511868
 31
0.0
  0
LINE
  5
21f
100
AcDbEntity
  8
Calque_1
 62
1
100
AcDbLine
 10
101.414784
 20
503.511868
 30
0.0
 11
101.414784
 21
511.791556
 31
0.0
  0
LINE
  5
220
100
AcDbEntity
  8
Calque_1
 62
1
100
AcDbLine
 10
101.414784
 20
511.791556
 30
0.0
 11
153.994472
 21
511.791556
 31
0.0
  0
LINE
  5
221
100
AcDbEntity
  8
Calque_1
 62
1
100
AcDbLine
 10
153.994472
 20
511.791556
 30
0.0
 11
153.994472
 21
504.621244
 31
0.0
  0
LINE
  5
222
100
AcDbEntity
  8
Calque_1
 62
1
100
AcDbLine
 10
153.994472
 20
504.621244
 30
0.0
 11
182.341352
 21
504.621244
 31
0.0
  0
LINE
  5
223
100
AcDbEntity
  8
Calque_1
 62
1
100
AcDbLine
 10
182.341352
 20
504.621244
 30
0.0
 11
182.341352
 21
511.791556
 31
0.0
  0
LINE
  5
224
100
AcDbEntity
  8
Calque_1
 62
1
100
AcDbLine
 10
182.341352
 20
511.791556
 30
0.0
 11
234.921040
 21
511.791556
 31
0.0
  0
LINE
  5
225
100
AcDbEntity
  8
Calque_1
 62
1
100
AcDbLine
 10
234.921040
 20
511.791556
 30
0.0
 11
234.921040
 21
503.511868
 31
0.0
  0
LINE
  5
226
100
AcDbEntity
  8
Calque_1
 62
1
100
AcDbLine
 10
234.921040
 20
503.511868
 30
0.0
 11
263.267912
 21
503.511868
 31
0.0
  0
LINE
  5
227
100
AcDbEntity
  8
Calque_1
 62
1
100
AcDbLine
 10
263.267912
 20
503.511868
 30
0.0
 11
263.267912
 21
511.791556
 31
0.0
  0
LINE
  5
228
100
AcDbEntity
  8
Calque_1
 62
1
100
AcDbLine
 10
263.267912
 20
511.791556
 30
0.0
 11
309.900728
 21
511.791556
 31
0.0
  0
LINE
  5
229
100
AcDbEntity
  8
Calque_1
 62
1
100
AcDbLine
 10
309.900728
 20
511.791556
 30
0.0
 11
309.900728
 21
558.424364
 31
0.0
  0
LINE
  5
22a
100
AcDbEntity
  8
Calque_1
 62
1
100
AcDbLine
 10
309.900728
 20
558.424364
 30
0.0
 11
317.883536
 21
558.424364
 31
0.0
  0
LINE
  5
22b
100
AcDbEntity
  8
Calque_1
 62
1
100
AcDbLine
 10
317.883536
 20
558.424364
 30
0.0
 11
317.883536
 21
586.771244
 31
0.0
  0
LINE
  5
22c
100
AcDbEntity
  8
Calque_1
 62
1
100
AcDbLine
 10
317.883536
 20
586.771244
 30
0.0
 11
309.900728
 21
586.771244
 31
0.0
  0
LINE
  5
22d
100
AcDbEntity
  8
Calque_1
 62
1
100
AcDbLine
 10
309.900728
 20
586.771244
 30
0.0
 11
309.900728
 21
639.350932
 31
0.0
  0
LINE
  5
22e
100
AcDbEntity
  8
Calque_1
 62
1
100
AcDbLine
 10
309.900728
 20
639.350932
 30
0.0
 11
316.775728
 21
639.350932
 31
0.0
  0
LINE
  5
22f
100
AcDbEntity
  8
Calque_1
 62
1
100
AcDbLine
 10
316.775728
 20
639.350932
 30
0.0
 11
316.775728
 21
667.697804
 31
0.0
  0
LINE
  5
230
100
AcDbEntity
  8
Calque_1
 62
1
100
AcDbLine
 10
316.775728
 20
667.697804
 30
0.0
 11
309.900728
 21
667.697804
 31
0.0
  0
LINE
  5
231
100
AcDbEntity
  8
Calque_1
 62
1
100
AcDbLine
 10
309.900728
 20
667.697804
 30
0.0
 11
309.900728
 21
720.277492
 31
0.0
  0
LINE
  5
232
100
AcDbEntity
  8
Calque_1
 62
1
100
AcDbLine
 10
309.900728
 20
720.277492
 30
0.0
 11
317.883536
 21
720.277492
 31
0.0
  0
LINE
  5
233
100
AcDbEntity
  8
Calque_1
 62
1
100
AcDbLine
 10
317.883536
 20
720.277492
 30
0.0
 11
317.883536
 21
748.624364
 31
0.0
  0
LINE
  5
234
100
AcDbEntity
  8
Calque_1
 62
1
100
AcDbLine
 10
317.883536
 20
748.624364
 30
0.0
 11
309.900728
 21
748.624364
 31
0.0
  0
LINE
  5
235
100
AcDbEntity
  8
Calque_1
 62
1
100
AcDbLine
 10
309.900728
 20
748.624364
 30
0.0
 11
309.900728
 21
795.257181
 31
0.0
  0
LINE
  5
236
100
AcDbEntity
  8
Calque_1
 62
1
100
AcDbLine
 10
309.900728
 20
795.257181
 30
0.0
 11
263.267912
 21
795.257181
 31
0.0
  0
LINE
  5
237
100
AcDbEntity
  8
Calque_1
 62
1
100
AcDbLine
 10
263.267912
 20
795.257181
 30
0.0
 11
263.267912
 21
803.635301
 31
0.0
  0
LINE
  5
238
100
AcDbEntity
  8
Calque_1
 62
1
100
AcDbLine
 10
263.267912
 20
803.635301
 30
0.0
 11
234.921040
 21
803.635301
 31
0.0
  0
LINE
  5
239
100
AcDbEntity
  8
Calque_1
 62
1
100
AcDbLine
 10
234.921040
 20
803.635301
 30
0.0
 11
234.921040
 21
795.257181
 31
0.0
  0
LINE
  5
23a
100
AcDbEntity
  8
Calque_1
 62
1
100
AcDbLine
 10
234.921040
 20
795.257181
 30
0.0
 11
182.341352
 21
795.257181
 31
0.0
  0
LINE
  5
23b
100
AcDbEntity
  8
Calque_1
 62
1
100
AcDbLine
 10
182.341352
 20
795.257181
 30
0.0
 11
182.341352
 21
804.743117
 31
0.0
  0
LINE
  5
23c
100
AcDbEntity
  8
Calque_1
 62
1
100
AcDbLine
 10
182.341352
 20
804.743117
 30
0.0
 11
153.994472
 21
804.743117
 31
0.0
  0
LINE
  5
23d
100
AcDbEntity
  8
Calque_1
 62
1
100
AcDbLine
 10
153.994472
 20
804.743117
 30
0.0
 11
153.994472
 21
804.743117
 31
0.0
  0
ENDSEC
  0
SECTION
  2
OBJECTS
  0
DICTIONARY
  5
C
330
0
100
AcDbDictionary
  3
ACAD_GROUP
350
D
  3
ACAD_MLINESTYLE
350
17
  0
DICTIONARY
  5
D
330
C
100
AcDbDictionary
  0
DICTIONARY
  5
1A
330
C
100
AcDbDictionary
  0
DICTIONARY
  5
17
330
C
100
AcDbDictionary
  3
STANDARD
350
18
  0
DICTIONARY
  5
19
330
C
100
AcDbDictionary
  0
ENDSEC
  0
EOF
