  0
SECTION
  2
HEADER
  9
$ACADVER
  1
AC1014
  9
$HANDSEED
  5
FFFF
  9
$MEASUREMENT
 70
     1
  0
ENDSEC
  0
SECTION
  2
TABLES
  0
TABLE
  2
VPORT
  5
8
330
0
100
AcDbSymbolTable
 70
     4
  0
VPORT
  5
2E
330
8
100
AcDbSymbolTableRecord
100
AcDbViewportTableRecord
  2
*ACTIVE
 70
     0
 10
0.0
 20
0.0
 11
1.0
 21
1.0
 12
210.0
 22
148.5
 13
0.0
 23
0.0
 14
10.0
 24
10.0
 15
10.0
 25
10.0
 16
0.0
 26
0.0
 36
1.0
 17
0.0
 27
0.0
 37
0.0
 40
341.0
 41
1.24
 42
50.0
 43
0.0
 44
0.0
 50
0.0
 51
0.0
 71
     0
 72
   100
 73
     1
 74
     3
 75
     0
 76
     0
 77
     0
 78
     0
  0
ENDTAB
  0
TABLE
  2
LTYPE
  5
5
330
0
100
AcDbSymbolTable
 70
     1
  0
LTYPE
  5
14
330
5
100
AcDbSymbolTableRecord
100
AcDbLinetypeTableRecord
  2
BYBLOCK
 70
     0
  3

 72
    65
 73
     0
 40
0.0
  0
LTYPE
  5
15
330
5
100
AcDbSymbolTableRecord
100
AcDbLinetypeTableRecord
  2
BYLAYER
 70
     0
  3

 72
    65
 73
     0
 40
0.0
  0
LTYPE
  5
16
330
5
100
AcDbSymbolTableRecord
100
AcDbLinetypeTableRecord
  2
CONTINUOUS
 70
     0
  3
Solid line
 72
    65
 73
     0
 40
0.0
  0
ENDTAB
  0
TABLE
  2
LAYER
  5
2
100
AcDbSymbolTable
 70
3
  0
LAYER
  5
50
100
AcDbSymbolTableRecord
100
AcDbLayerTableRecord
  2
0
 70
0
  6
CONTINUOUS
  0
LAYER
  5
51
100
AcDbSymbolTableRecord
100
AcDbLayerTableRecord
  2
Calque_1
 70
0
  6
CONTINUOUS
  0
LAYER
  5
52
100
AcDbSymbolTableRecord
100
AcDbLayerTableRecord
  2
Calque_2
 70
0
  6
CONTINUOUS
  0
ENDTAB
  0
TABLE
  2
STYLE
  5
3
330
0
100
AcDbSymbolTable
 70
     1
  0
STYLE
  5
11
330
3
100
AcDbSymbolTableRecord
100
AcDbTextStyleTableRecord
  2
STANDARD
 70
     0
 40
0.0
 41
1.0
 50
0.0
 71
     0
 42
2.5
  3
txt
  4

  0
ENDTAB
  0
TABLE
  2
VIEW
  5
6
330
0
100
AcDbSymbolTable
 70
     0
  0
ENDTAB
  0
TABLE
  2
UCS
  5
7
330
0
100
AcDbSymbolTable
 70
     0
  0
ENDTAB
  0
TABLE
  2
APPID
  5
9
330
0
100
AcDbSymbolTable
 70
     2
  0
APPID
  5
12
330
9
100
AcDbSymbolTableRecord
100
AcDbRegAppTableRecord
  2
ACAD
 70
     0
  0
ENDTAB
  0
TABLE
  2
DIMSTYLE
  5
A
330
0
100
AcDbSymbolTable
 70
     1
  0
DIMSTYLE
105
27
330
A
100
AcDbSymbolTableRecord
100
AcDbDimStyleTableRecord
  2
ISO-25
 70
     0
  3

  4

  5

  6

  7

 40
1.0
 41
2.5
 42
0.625
 43
3.75
 44
1.25
 45
0.0
 46
0.0
 47
0.0
 48
0.0
140
2.5
141
2.5
142
0.0
143
0.03937007874016
144
1.0
145
0.0
146
1.0
147
0.625
 71
     0
 72
     0
 73
     0
 74
     0
 75
     0
 76
     0
 77
     1
 78
     8
170
     0
171
     3
172
     1
173
     0
174
     0
175
     0
176
     0
177
     0
178
     0
270
     2
271
     2
272
     2
273
     2
274
     3
340
11
275
     0
280
     0
281
     0
282
     0
283
     0
284
     8
285
     0
286
     0
287
     3
288
     0
  0
ENDTAB
  0
TABLE
  2
BLOCK_RECORD
  5
1
330
0
100
AcDbSymbolTable
 70
     1
  0
BLOCK_RECORD
  5
1F
330
1
100
AcDbSymbolTableRecord
100
AcDbBlockTableRecord
  2
*MODEL_SPACE
  0
BLOCK_RECORD
  5
1B
330
1
100
AcDbSymbolTableRecord
100
AcDbBlockTableRecord
  2
*PAPER_SPACE
  0
ENDTAB
  0
ENDSEC
  0
SECTION
  2
BLOCKS
  0
BLOCK
  5
20
330
1F
100
AcDbEntity
  8
0
100
AcDbBlockBegin
  2
*MODEL_SPACE
 70
     0
 10
0.0
 20
0.0
 30
0.0
  3
*MODEL_SPACE
  1

  0
ENDBLK
  5
21
330
1F
100
AcDbEntity
  8
0
100
AcDbBlockEnd
  0
BLOCK
  5
1C
330
1B
100
AcDbEntity
 67
     1
  8
0
100
AcDbBlockBegin
  2
*PAPER_SPACE
  1

  0
ENDBLK
  5
1D
330
1B
100
AcDbEntity
 67
     1
  8
0
100
AcDbBlockEnd
  0
ENDSEC
  0
SECTION
  2
ENTITIES
  0
LINE
  5
100
100
AcDbEntity
  8
Calque_2
 62
7
100
AcDbLine
 10
0.000000
 20
0.000000
 30
0.0
 11
0.000000
 21
0.000000
 31
0.0
  0
LINE
  5
101
100
AcDbEntity
  8
Calque_2
 62
7
100
AcDbLine
 10
0.000000
 20
0.000000
 30
0.0
 11
0.000000
 21
0.000000
 31
0.0
  0
LINE
  5
102
100
AcDbEntity
  8
Calque_2
 62
7
100
AcDbLine
 10
0.000000
 20
0.000000
 30
0.0
 11
0.000000
 21
0.000000
 31
0.0
  0
LINE
  5
103
100
AcDbEntity
  8
Calque_2
 62
7
100
AcDbLine
 10
0.000000
 20
0.000000
 30
0.0
 11
0.000000
 21
0.000000
 31
0.0
  0
LINE
  5
104
100
AcDbEntity
  8
Calque_2
 62
7
100
AcDbLine
 10
0.000000
 20
0.000000
 30
0.0
 11
0.000000
 21
0.000000
 31
0.0
  0
LINE
  5
105
100
AcDbEntity
  8
Calque_2
 62
7
100
AcDbLine
 10
0.000000
 20
0.000000
 30
0.0
 11
0.000000
 21
0.000000
 31
0.0
  0
LINE
  5
106
100
AcDbEntity
  8
Calque_2
 62
7
100
AcDbLine
 10
0.000000
 20
0.000000
 30
0.0
 11
0.000000
 21
0.000000
 31
0.0
  0
LINE
  5
107
100
AcDbEntity
  8
Calque_2
 62
7
100
AcDbLine
 10
0.000000
 20
0.000000
 30
0.0
 11
0.000000
 21
0.000000
 31
0.0
  0
LINE
  5
108
100
AcDbEntity
  8
Calque_2
 62
7
100
AcDbLine
 10
0.000000
 20
0.000000
 30
0.0
 11
0.000000
 21
0.000000
 31
0.0
  0
LINE
  5
109
100
AcDbEntity
  8
Calque_2
 62
7
100
AcDbLine
 10
0.000000
 20
0.000000
 30
0.0
 11
0.000000
 21
0.000000
 31
0.0
  0
LINE
  5
10a
100
AcDbEntity
  8
Calque_2
 62
7
100
AcDbLine
 10
0.000000
 20
0.000000
 30
0.0
 11
0.000000
 21
0.000000
 31
0.0
  0
LINE
  5
10b
100
AcDbEntity
  8
Calque_2
 62
7
100
AcDbLine
 10
0.000000
 20
0.000000
 30
0.0
 11
0.000000
 21
0.000000
 31
0.0
  0
LINE
  5
10c
100
AcDbEntity
  8
Calque_2
 62
7
100
AcDbLine
 10
0.000000
 20
0.000000
 30
0.0
 11
0.000000
 21
0.000000
 31
0.0
  0
LINE
  5
10d
100
AcDbEntity
  8
Calque_2
 62
7
100
AcDbLine
 10
0.000000
 20
0.000000
 30
0.0
 11
0.000000
 21
0.000000
 31
0.0
  0
LINE
  5
10e
100
AcDbEntity
  8
Calque_2
 62
7
100
AcDbLine
 10
0.000000
 20
0.000000
 30
0.0
 11
0.000000
 21
0.000000
 31
0.0
  0
LINE
  5
10f
100
AcDbEntity
  8
Calque_2
 62
7
100
AcDbLine
 10
0.000000
 20
0.000000
 30
0.0
 11
0.000000
 21
0.000000
 31
0.0
  0
LINE
  5
110
100
AcDbEntity
  8
Calque_2
 62
7
100
AcDbLine
 10
0.000000
 20
0.000000
 30
0.0
 11
0.000000
 21
0.000000
 31
0.0
  0
LINE
  5
111
100
AcDbEntity
  8
Calque_2
 62
7
100
AcDbLine
 10
0.000000
 20
0.000000
 30
0.0
 11
0.000000
 21
0.000000
 31
0.0
  0
LINE
  5
112
100
AcDbEntity
  8
Calque_2
 62
7
100
AcDbLine
 10
0.000000
 20
0.000000
 30
0.0
 11
0.000000
 21
0.000000
 31
0.0
  0
LINE
  5
113
100
AcDbEntity
  8
Calque_2
 62
7
100
AcDbLine
 10
0.000000
 20
0.000000
 30
0.0
 11
0.000000
 21
0.000000
 31
0.0
  0
LINE
  5
114
100
AcDbEntity
  8
Calque_2
 62
7
100
AcDbLine
 10
0.000000
 20
0.000000
 30
0.0
 11
0.000000
 21
0.000000
 31
0.0
  0
LINE
  5
115
100
AcDbEntity
  8
Calque_2
 62
7
100
AcDbLine
 10
0.000000
 20
0.000000
 30
0.0
 11
0.000000
 21
0.000000
 31
0.0
  0
LINE
  5
116
100
AcDbEntity
  8
Calque_2
 62
7
100
AcDbLine
 10
0.000000
 20
0.000000
 30
0.0
 11
0.000000
 21
0.000000
 31
0.0
  0
LINE
  5
117
100
AcDbEntity
  8
Calque_2
 62
7
100
AcDbLine
 10
0.000000
 20
0.000000
 30
0.0
 11
0.000000
 21
0.000000
 31
0.0
  0
LINE
  5
118
100
AcDbEntity
  8
Calque_2
 62
7
100
AcDbLine
 10
0.000000
 20
0.000000
 30
0.0
 11
0.000000
 21
0.000000
 31
0.0
  0
LINE
  5
119
100
AcDbEntity
  8
Calque_2
 62
7
100
AcDbLine
 10
0.000000
 20
0.000000
 30
0.0
 11
0.000000
 21
0.000000
 31
0.0
  0
LINE
  5
11a
100
AcDbEntity
  8
Calque_2
 62
7
100
AcDbLine
 10
0.000000
 20
0.000000
 30
0.0
 11
0.000000
 21
0.000000
 31
0.0
  0
LINE
  5
11b
100
AcDbEntity
  8
Calque_2
 62
7
100
AcDbLine
 10
0.000000
 20
0.000000
 30
0.0
 11
0.000000
 21
0.000000
 31
0.0
  0
LINE
  5
11c
100
AcDbEntity
  8
Calque_2
 62
7
100
AcDbLine
 10
0.000000
 20
0.000000
 30
0.0
 11
0.000000
 21
0.000000
 31
0.0
  0
LINE
  5
11d
100
AcDbEntity
  8
Calque_2
 62
7
100
AcDbLine
 10
0.000000
 20
0.000000
 30
0.0
 11
0.000000
 21
0.000000
 31
0.0
  0
LINE
  5
11e
100
AcDbEntity
  8
Calque_2
 62
7
100
AcDbLine
 10
0.000000
 20
0.000000
 30
0.0
 11
0.000000
 21
0.000000
 31
0.0
  0
LINE
  5
11f
100
AcDbEntity
  8
Calque_2
 62
7
100
AcDbLine
 10
0.000000
 20
0.000000
 30
0.0
 11
0.000000
 21
0.000000
 31
0.0
  0
LINE
  5
120
100
AcDbEntity
  8
Calque_2
 62
7
100
AcDbLine
 10
0.000000
 20
0.000000
 30
0.0
 11
0.000000
 21
0.000000
 31
0.0
  0
LINE
  5
121
100
AcDbEntity
  8
Calque_2
 62
7
100
AcDbLine
 10
0.000000
 20
0.000000
 30
0.0
 11
0.000000
 21
0.000000
 31
0.0
  0
LINE
  5
122
100
AcDbEntity
  8
Calque_2
 62
7
100
AcDbLine
 10
0.000000
 20
0.000000
 30
0.0
 11
0.000000
 21
0.000000
 31
0.0
  0
LINE
  5
123
100
AcDbEntity
  8
Calque_2
 62
7
100
AcDbLine
 10
0.000000
 20
0.000000
 30
0.0
 11
0.000000
 21
0.000000
 31
0.0
  0
LINE
  5
124
100
AcDbEntity
  8
Calque_2
 62
7
100
AcDbLine
 10
0.000000
 20
0.000000
 30
0.0
 11
0.000000
 21
0.000000
 31
0.0
  0
LINE
  5
125
100
AcDbEntity
  8
Calque_2
 62
7
100
AcDbLine
 10
0.000000
 20
0.000000
 30
0.0
 11
0.000000
 21
0.000000
 31
0.0
  0
LINE
  5
126
100
AcDbEntity
  8
Calque_2
 62
1
100
AcDbLine
 10
0.000000
 20
0.000000
 30
0.0
 11
0.000000
 21
0.000000
 31
0.0
  0
LINE
  5
127
100
AcDbEntity
  8
Calque_2
 62
1
100
AcDbLine
 10
0.000000
 20
0.000000
 30
0.0
 11
0.000000
 21
0.000000
 31
0.0
  0
LINE
  5
128
100
AcDbEntity
  8
Calque_2
 62
1
100
AcDbLine
 10
0.000000
 20
0.000000
 30
0.0
 11
0.000000
 21
0.000000
 31
0.0
  0
LINE
  5
129
100
AcDbEntity
  8
Calque_2
 62
1
100
AcDbLine
 10
0.000000
 20
0.000000
 30
0.0
 11
0.000000
 21
0.000000
 31
0.0
  0
LINE
  5
12a
100
AcDbEntity
  8
Calque_2
 62
1
100
AcDbLine
 10
0.000000
 20
0.000000
 30
0.0
 11
0.000000
 21
0.000000
 31
0.0
  0
LINE
  5
12b
100
AcDbEntity
  8
Calque_2
 62
7
100
AcDbLine
 10
0.000000
 20
0.000000
 30
0.0
 11
0.000000
 21
0.000000
 31
0.0
  0
LINE
  5
12c
100
AcDbEntity
  8
Calque_2
 62
7
100
AcDbLine
 10
0.000000
 20
0.000000
 30
0.0
 11
0.000000
 21
0.000000
 31
0.0
  0
LINE
  5
12d
100
AcDbEntity
  8
Calque_2
 62
7
100
AcDbLine
 10
0.000000
 20
0.000000
 30
0.0
 11
0.000000
 21
0.000000
 31
0.0
  0
LINE
  5
12e
100
AcDbEntity
  8
Calque_2
 62
7
100
AcDbLine
 10
0.000000
 20
0.000000
 30
0.0
 11
0.000000
 21
0.000000
 31
0.0
  0
LINE
  5
12f
100
AcDbEntity
  8
Calque_2
 62
7
100
AcDbLine
 10
0.000000
 20
0.000000
 30
0.0
 11
0.000000
 21
0.000000
 31
0.0
  0
LINE
  5
130
100
AcDbEntity
  8
Calque_2
 62
5
100
AcDbLine
 10
0.000000
 20
0.000000
 30
0.0
 11
0.000000
 21
0.000000
 31
0.0
  0
LINE
  5
131
100
AcDbEntity
  8
Calque_2
 62
5
100
AcDbLine
 10
0.000000
 20
0.000000
 30
0.0
 11
0.000000
 21
0.000000
 31
0.0
  0
LINE
  5
132
100
AcDbEntity
  8
Calque_2
 62
5
100
AcDbLine
 10
0.000000
 20
0.000000
 30
0.0
 11
0.000000
 21
0.000000
 31
0.0
  0
LINE
  5
133
100
AcDbEntity
  8
Calque_2
 62
5
100
AcDbLine
 10
0.000000
 20
0.000000
 30
0.0
 11
0.000000
 21
0.000000
 31
0.0
  0
LINE
  5
134
100
AcDbEntity
  8
Calque_2
 62
5
100
AcDbLine
 10
0.000000
 20
0.000000
 30
0.0
 11
0.000000
 21
0.000000
 31
0.0
  0
LINE
  5
135
100
AcDbEntity
  8
Calque_2
 62
7
100
AcDbLine
 10
398.856908
 20
554.295776
 30
0.0
 11
399.353310
 21
554.556926
 31
0.0
  0
LINE
  5
136
100
AcDbEntity
  8
Calque_2
 62
7
100
AcDbLine
 10
244.686720
 20
661.612226
 30
0.0
 11
244.686720
 21
661.612226
 31
0.0
  0
SPLINE
  5
137
100
AcDbEntity
  8
Calque_2
 62
7
100
AcDbSpline
 70
8
 71
3
 72
8
 73
4
 74
0
 40
0
 40
0
 40
0
 40
0
 40
1
 40
1
 40
1
 40
1
 10
244.707127
 20
659.682701
 30
0.0
 10
266.583060
 20
660.141926
 30
0.0
 10
286.939200
 20
655.873751
 30
0.0
 10
305.498258
 20
648.920276
 30
0.0
  0
SPLINE
  5
138
100
AcDbEntity
  8
Calque_2
 62
7
100
AcDbSpline
 70
8
 71
3
 72
8
 73
4
 74
0
 40
0
 40
0
 40
0
 40
0
 40
1
 40
1
 40
1
 40
1
 10
305.498258
 20
648.920276
 30
0.0
 10
335.192715
 20
637.794701
 30
0.0
 10
360.282615
 20
619.735376
 30
0.0
 10
379.502625
 20
603.048401
 30
0.0
  0
SPLINE
  5
139
100
AcDbEntity
  8
Calque_2
 62
7
100
AcDbSpline
 70
8
 71
3
 72
8
 73
4
 74
0
 40
0
 40
0
 40
0
 40
0
 40
1
 40
1
 40
1
 40
1
 10
379.502625
 20
603.048401
 30
0.0
 10
398.075722
 20
586.922951
 30
0.0
 10
410.772735
 20
572.524151
 30
0.0
 10
417.385282
 20
566.379626
 30
0.0
  0
LINE
  5
13a
100
AcDbEntity
  8
Calque_2
 62
7
100
AcDbLine
 10
417.385282
 20
566.379626
 30
0.0
 11
398.897025
 21
556.580051
 31
0.0
  0
LINE
  5
13b
100
AcDbEntity
  8
Calque_2
 62
7
100
AcDbLine
 10
398.897025
 20
556.580051
 30
0.0
 11
250.494315
 21
641.404901
 31
0.0
  0
LINE
  5
13c
100
AcDbEntity
  8
Calque_2
 62
7
100
AcDbLine
 10
250.494315
 20
641.404901
 30
0.0
 11
197.503477
 21
612.602426
 31
0.0
  0
LINE
  5
13d
100
AcDbEntity
  8
Calque_2
 62
7
100
AcDbLine
 10
197.503477
 20
612.602426
 30
0.0
 11
218.450055
 21
596.484101
 31
0.0
  0
LINE
  5
13e
100
AcDbEntity
  8
Calque_2
 62
7
100
AcDbLine
 10
218.450055
 20
596.484101
 30
0.0
 11
218.808533
 21
596.493101
 31
0.0
  0
SPLINE
  5
13f
100
AcDbEntity
  8
Calque_2
 62
7
100
AcDbSpline
 70
8
 71
3
 72
8
 73
4
 74
0
 40
0
 40
0
 40
0
 40
0
 40
1
 40
1
 40
1
 40
1
 10
218.808533
 20
596.493176
 30
0.0
 10
272.662672
 20
597.821651
 30
0.0
 10
299.141512
 20
587.010251
 30
0.0
 10
308.062890
 20
572.980301
 30
0.0
  0
SPLINE
  5
140
100
AcDbEntity
  8
Calque_2
 62
7
100
AcDbSpline
 70
8
 71
3
 72
8
 73
4
 74
0
 40
0
 40
0
 40
0
 40
0
 40
1
 40
1
 40
1
 40
1
 10
308.062890
 20
572.980301
 30
0.0
 10
312.523597
 20
565.965326
 30
0.0
 10
312.758332
 20
558.094001
 30
0.0
 10
309.867195
 20
550.126151
 30
0.0
  0
SPLINE
  5
141
100
AcDbEntity
  8
Calque_2
 62
7
100
AcDbSpline
 70
8
 71
3
 72
8
 73
4
 74
0
 40
0
 40
0
 40
0
 40
0
 40
1
 40
1
 40
1
 40
1
 10
309.867195
 20
550.126151
 30
0.0
 10
306.976088
 20
542.158376
 30
0.0
 10
300.909758
 20
534.151451
 30
0.0
 10
292.820790
 20
527.213576
 30
0.0
  0
SPLINE
  5
142
100
AcDbEntity
  8
Calque_2
 62
7
100
AcDbSpline
 70
8
 71
3
 72
8
 73
4
 74
0
 40
0
 40
0
 40
0
 40
0
 40
1
 40
1
 40
1
 40
1
 10
292.820790
 20
527.213576
 30
0.0
 10
276.642877
 20
513.337901
 30
0.0
 10
252.427028
 20
503.773526
 30
0.0
 10
229.843222
 20
506.647601
 30
0.0
  0
SPLINE
  5
143
100
AcDbEntity
  8
Calque_2
 62
7
100
AcDbSpline
 70
8
 71
3
 72
8
 73
4
 74
0
 40
0
 40
0
 40
0
 40
0
 40
1
 40
1
 40
1
 40
1
 10
229.843222
 20
506.647601
 30
0.0
 10
207.259417
 20
509.521676
 30
0.0
 10
186.182738
 20
524.644301
 30
0.0
 10
175.812360
 20
560.701526
 30
0.0
  0
LINE
  5
144
100
AcDbEntity
  8
Calque_2
 62
7
100
AcDbLine
 10
175.812360
 20
560.701526
 30
0.0
 11
175.713938
 21
561.040676
 31
0.0
  0
LINE
  5
145
100
AcDbEntity
  8
Calque_2
 62
7
100
AcDbLine
 10
175.713937
 20
561.040676
 30
0.0
 11
145.355790
 21
582.284876
 31
0.0
  0
LINE
  5
146
100
AcDbEntity
  8
Calque_2
 62
7
100
AcDbLine
 10
145.355790
 20
582.284876
 30
0.0
 11
97.844850
 21
554.507576
 31
0.0
  0
LINE
  5
147
100
AcDbEntity
  8
Calque_2
 62
7
100
AcDbLine
 10
97.844850
 20
554.507576
 30
0.0
 11
81.944850
 21
566.961776
 31
0.0
  0
SPLINE
  5
148
100
AcDbEntity
  8
Calque_2
 62
7
100
AcDbSpline
 70
8
 71
3
 72
8
 73
4
 74
0
 40
0
 40
0
 40
0
 40
0
 40
1
 40
1
 40
1
 40
1
 10
81.944850
 20
566.961776
 30
0.0
 10
141.536362
 20
634.917176
 30
0.0
 10
196.771658
 20
658.677776
 30
0.0
 10
244.707218
 20
659.683976
 30
0.0
  0
LINE
  5
149
100
AcDbEntity
  8
Calque_2
 62
7
100
AcDbLine
 10
244.707218
 20
659.683976
 30
0.0
 11
244.707128
 21
659.683976
 31
0.0
  0
LINE
  5
14a
100
AcDbEntity
  8
Calque_2
 62
7
100
AcDbLine
 10
74.502272
 20
551.746451
 30
0.0
 11
90.981405
 21
540.660476
 31
0.0
  0
LINE
  5
14b
100
AcDbEntity
  8
Calque_2
 62
7
100
AcDbLine
 10
90.981405
 20
540.660476
 30
0.0
 11
88.097662
 21
371.689001
 31
0.0
  0
LINE
  5
14c
100
AcDbEntity
  8
Calque_2
 62
7
100
AcDbLine
 10
88.097662
 20
371.689001
 30
0.0
 11
137.633512
 21
342.726701
 31
0.0
  0
LINE
  5
14d
100
AcDbEntity
  8
Calque_2
 62
7
100
AcDbLine
 10
137.633512
 20
342.726701
 30
0.0
 11
138.393855
 21
380.276351
 31
0.0
  0
LINE
  5
14e
100
AcDbEntity
  8
Calque_2
 62
7
100
AcDbLine
 10
138.393855
 20
380.276351
 30
0.0
 11
138.314940
 21
380.467301
 31
0.0
  0
SPLINE
  5
14f
100
AcDbEntity
  8
Calque_2
 62
7
100
AcDbSpline
 70
8
 71
3
 72
8
 73
4
 74
0
 40
0
 40
0
 40
0
 40
0
 40
1
 40
1
 40
1
 40
1
 10
138.314940
 20
380.467301
 30
0.0
 10
118.171755
 20
429.832076
 30
0.0
 10
117.663922
 20
458.257676
 30
0.0
 10
126.220545
 20
471.521201
 30
0.0
  0
SPLINE
  5
150
100
AcDbEntity
  8
Calque_2
 62
7
100
AcDbSpline
 70
8
 71
3
 72
8
 73
4
 74
0
 40
0
 40
0
 40
0
 40
0
 40
1
 40
1
 40
1
 40
1
 10
126.220545
 20
471.521201
 30
0.0
 10
130.498845
 20
478.153001
 30
0.0
 10
136.972590
 20
481.165601
 30
0.0
 10
144.767910
 20
481.379351
 30
0.0
  0
SPLINE
  5
151
100
AcDbEntity
  8
Calque_2
 62
7
100
AcDbSpline
 70
8
 71
3
 72
8
 73
4
 74
0
 40
0
 40
0
 40
0
 40
0
 40
1
 40
1
 40
1
 40
1
 10
144.767910
 20
481.379351
 30
0.0
 10
152.563252
 20
481.592951
 30
0.0
 10
161.646795
 20
478.908851
 30
0.0
 10
170.721653
 20
473.992526
 30
0.0
  0
SPLINE
  5
152
100
AcDbEntity
  8
Calque_2
 62
7
100
AcDbSpline
 70
8
 71
3
 72
8
 73
4
 74
0
 40
0
 40
0
 40
0
 40
0
 40
1
 40
1
 40
1
 40
1
 10
170.721653
 20
473.992526
 30
0.0
 10
188.871345
 20
464.159951
 30
0.0
 10
206.936678
 20
445.430201
 30
0.0
 10
215.033670
 20
423.887351
 30
0.0
  0
SPLINE
  5
153
100
AcDbEntity
  8
Calque_2
 62
7
100
AcDbSpline
 70
8
 71
3
 72
8
 73
4
 74
0
 40
0
 40
0
 40
0
 40
0
 40
1
 40
1
 40
1
 40
1
 10
215.033670
 20
423.887351
 30
0.0
 10
223.130670
 20
402.344501
 30
0.0
 10
221.417723
 20
378.087626
 30
0.0
 10
200.055518
 20
356.556851
 30
0.0
  0
LINE
  5
154
100
AcDbEntity
  8
Calque_2
 62
7
100
AcDbLine
 10
200.055517
 20
356.556851
 30
0.0
 11
199.744275
 21
356.248901
 31
0.0
  0
LINE
  5
155
100
AcDbEntity
  8
Calque_2
 62
7
100
AcDbLine
 10
199.744275
 20
356.248901
 30
0.0
 11
201.950423
 21
308.950271
 31
0.0
  0
LINE
  5
156
100
AcDbEntity
  8
Calque_2
 62
7
100
AcDbLine
 10
201.950423
 20
308.950271
 30
0.0
 11
243.619012
 21
284.069179
 31
0.0
  0
LINE
  5
157
100
AcDbEntity
  8
Calque_2
 62
7
100
AcDbLine
 10
243.619012
 20
284.069179
 30
0.0
 11
240.991335
 21
266.500796
 31
0.0
  0
SPLINE
  5
158
100
AcDbEntity
  8
Calque_2
 62
7
100
AcDbSpline
 70
8
 71
3
 72
8
 73
4
 74
0
 40
0
 40
0
 40
0
 40
0
 40
1
 40
1
 40
1
 40
1
 10
240.991335
 20
266.500796
 30
0.0
 10
171.992137
 20
276.447454
 30
0.0
 10
113.493210
 20
305.865019
 30
0.0
 10
80.699078
 20
353.672276
 30
0.0
  0
SPLINE
  5
159
100
AcDbEntity
  8
Calque_2
 62
7
100
AcDbSpline
 70
8
 71
3
 72
8
 73
4
 74
0
 40
0
 40
0
 40
0
 40
0
 40
1
 40
1
 40
1
 40
1
 10
80.699078
 20
353.672276
 30
0.0
 10
47.903567
 20
401.481551
 30
0.0
 10
40.722572
 20
467.760176
 30
0.0
 10
74.502160
 20
551.746376
 30
0.0
  0
LINE
  5
15a
100
AcDbEntity
  8
Calque_2
 62
7
100
AcDbLine
 10
74.502160
 20
551.746376
 30
0.0
 11
74.502272
 21
551.746451
 31
0.0
  0
LINE
  5
15b
100
AcDbEntity
  8
Calque_2
 62
7
100
AcDbLine
 10
421.666800
 20
553.995626
 30
0.0
 11
421.666890
 21
553.995626
 31
0.0
  0
SPLINE
  5
15c
100
AcDbEntity
  8
Calque_2
 62
7
100
AcDbSpline
 70
8
 71
3
 72
8
 73
4
 74
0
 40
0
 40
0
 40
0
 40
0
 40
1
 40
1
 40
1
 40
1
 10
420.705653
 20
551.150051
 30
0.0
 10
461.025810
 20
463.019126
 30
0.0
 10
449.569875
 20
399.983276
 30
0.0
 10
413.500207
 20
354.923651
 30
0.0
  0
SPLINE
  5
15d
100
AcDbEntity
  8
Calque_2
 62
7
100
AcDbSpline
 70
8
 71
3
 72
8
 73
4
 74
0
 40
0
 40
0
 40
0
 40
0
 40
1
 40
1
 40
1
 40
1
 10
413.500207
 20
354.923651
 30
0.0
 10
377.496465
 20
309.946301
 30
0.0
 10
316.810080
 20
282.882874
 30
0.0
 10
258.447563
 20
267.307766
 30
0.0
  0
LINE
  5
15e
100
AcDbEntity
  8
Calque_2
 62
7
100
AcDbLine
 10
258.447563
 20
267.307766
 30
0.0
 11
255.930195
 21
279.130459
 31
0.0
  0
LINE
  5
15f
100
AcDbEntity
  8
Calque_2
 62
7
100
AcDbLine
 10
255.930195
 20
279.130459
 30
0.0
 11
404.908058
 21
375.976826
 31
0.0
  0
LINE
  5
160
100
AcDbEntity
  8
Calque_2
 62
7
100
AcDbLine
 10
404.908058
 20
375.976826
 30
0.0
 11
407.165430
 21
432.556676
 31
0.0
  0
LINE
  5
161
100
AcDbEntity
  8
Calque_2
 62
7
100
AcDbLine
 10
407.165430
 20
432.556676
 30
0.0
 11
377.977313
 21
414.317801
 31
0.0
  0
LINE
  5
162
100
AcDbEntity
  8
Calque_2
 62
7
100
AcDbLine
 10
377.977312
 20
414.317801
 30
0.0
 11
377.855310
 21
414.126851
 31
0.0
  0
SPLINE
  5
163
100
AcDbEntity
  8
Calque_2
 62
7
100
AcDbSpline
 70
8
 71
3
 72
8
 73
4
 74
0
 40
0
 40
0
 40
0
 40
0
 40
1
 40
1
 40
1
 40
1
 10
377.855310
 20
414.126851
 30
0.0
 10
363.071497
 20
391.065326
 30
0.0
 10
349.811295
 20
375.588551
 30
0.0
 10
338.254995
 20
366.056426
 30
0.0
  0
SPLINE
  5
164
100
AcDbEntity
  8
Calque_2
 62
7
100
AcDbSpline
 70
8
 71
3
 72
8
 73
4
 74
0
 40
0
 40
0
 40
0
 40
0
 40
1
 40
1
 40
1
 40
1
 10
338.254995
 20
366.056426
 30
0.0
 10
326.698733
 20
356.524301
 30
0.0
 10
316.889453
 20
352.968926
 30
0.0
 10
308.948723
 20
353.516501
 30
0.0
  0
SPLINE
  5
165
100
AcDbEntity
  8
Calque_2
 62
7
100
AcDbSpline
 70
8
 71
3
 72
8
 73
4
 74
0
 40
0
 40
0
 40
0
 40
0
 40
1
 40
1
 40
1
 40
1
 10
308.948722
 20
353.516501
 30
0.0
 10
301.008000
 20
354.064076
 30
0.0
 10
294.770715
 20
358.659701
 30
0.0
 10
290.204370
 20
365.962901
 30
0.0
  0
SPLINE
  5
166
100
AcDbEntity
  8
Calque_2
 62
7
100
AcDbSpline
 70
8
 71
3
 72
8
 73
4
 74
0
 40
0
 40
0
 40
0
 40
0
 40
1
 40
1
 40
1
 40
1
 10
290.204370
 20
365.962901
 30
0.0
 10
285.638025
 20
373.265951
 30
0.0
 10
282.837735
 20
383.260151
 30
0.0
 10
282.010110
 20
394.270301
 30
0.0
  0
SPLINE
  5
167
100
AcDbEntity
  8
Calque_2
 62
7
100
AcDbSpline
 70
8
 71
3
 72
8
 73
4
 74
0
 40
0
 40
0
 40
0
 40
0
 40
1
 40
1
 40
1
 40
1
 10
282.010110
 20
394.270301
 30
0.0
 10
280.354860
 20
416.290601
 30
0.0
 10
286.595093
 20
442.332326
 30
0.0
 10
301.479345
 20
459.168476
 30
0.0
  0
SPLINE
  5
168
100
AcDbEntity
  8
Calque_2
 62
7
100
AcDbSpline
 70
8
 71
3
 72
8
 73
4
 74
0
 40
0
 40
0
 40
0
 40
0
 40
1
 40
1
 40
1
 40
1
 10
301.479345
 20
459.168476
 30
0.0
 10
316.363590
 20
476.004626
 30
0.0
 10
339.735675
 20
483.875351
 30
0.0
 10
373.265745
 20
469.697051
 30
0.0
  0
LINE
  5
169
100
AcDbEntity
  8
Calque_2
 62
7
100
AcDbLine
 10
373.265745
 20
469.697051
 30
0.0
 11
373.766070
 21
469.486601
 31
0.0
  0
LINE
  5
16a
100
AcDbEntity
  8
Calque_2
 62
7
100
AcDbLine
 10
373.766070
 20
469.486601
 30
0.0
 11
406.417020
 21
490.781501
 31
0.0
  0
LINE
  5
16b
100
AcDbEntity
  8
Calque_2
 62
7
100
AcDbLine
 10
406.417020
 20
490.781501
 30
0.0
 11
402.099285
 21
540.633326
 31
0.0
  0
LINE
  5
16c
100
AcDbEntity
  8
Calque_2
 62
7
100
AcDbLine
 10
402.099285
 20
540.633326
 30
0.0
 11
420.705765
 21
551.150201
 31
0.0
  0
LINE
  5
16d
100
AcDbEntity
  8
Calque_2
 62
7
100
AcDbLine
 10
420.705765
 20
551.150201
 30
0.0
 11
420.705653
 21
551.150051
 31
0.0
  0
ENDSEC
  0
SECTION
  2
OBJECTS
  0
DICTIONARY
  5
C
330
0
100
AcDbDictionary
  3
ACAD_GROUP
350
D
  3
ACAD_MLINESTYLE
350
17
  0
DICTIONARY
  5
D
330
C
100
AcDbDictionary
  0
DICTIONARY
  5
1A
330
C
100
AcDbDictionary
  0
DICTIONARY
  5
17
330
C
100
AcDbDictionary
  3
STANDARD
350
18
  0
DICTIONARY
  5
19
330
C
100
AcDbDictionary
  0
ENDSEC
  0
EOF
