  0
SECTION
  2
HEADER
  9
$ACADVER
  1
AC1014
  9
$HANDSEED
  5
FFFF
  9
$MEASUREMENT
 70
     1
  0
ENDSEC
  0
SECTION
  2
TABLES
  0
TABLE
  2
VPORT
  5
8
330
0
100
AcDbSymbolTable
 70
     4
  0
VPORT
  5
2E
330
8
100
AcDbSymbolTableRecord
100
AcDbViewportTableRecord
  2
*ACTIVE
 70
     0
 10
0.0
 20
0.0
 11
1.0
 21
1.0
 12
210.0
 22
148.5
 13
0.0
 23
0.0
 14
10.0
 24
10.0
 15
10.0
 25
10.0
 16
0.0
 26
0.0
 36
1.0
 17
0.0
 27
0.0
 37
0.0
 40
341.0
 41
1.24
 42
50.0
 43
0.0
 44
0.0
 50
0.0
 51
0.0
 71
     0
 72
   100
 73
     1
 74
     3
 75
     0
 76
     0
 77
     0
 78
     0
  0
ENDTAB
  0
TABLE
  2
LTYPE
  5
5
330
0
100
AcDbSymbolTable
 70
     1
  0
LTYPE
  5
14
330
5
100
AcDbSymbolTableRecord
100
AcDbLinetypeTableRecord
  2
BYBLOCK
 70
     0
  3

 72
    65
 73
     0
 40
0.0
  0
LTYPE
  5
15
330
5
100
AcDbSymbolTableRecord
100
AcDbLinetypeTableRecord
  2
BYLAYER
 70
     0
  3

 72
    65
 73
     0
 40
0.0
  0
LTYPE
  5
16
330
5
100
AcDbSymbolTableRecord
100
AcDbLinetypeTableRecord
  2
CONTINUOUS
 70
     0
  3
Solid line
 72
    65
 73
     0
 40
0.0
  0
ENDTAB
  0
TABLE
  2
LAYER
  5
2
100
AcDbSymbolTable
 70
2
  0
LAYER
  5
50
100
AcDbSymbolTableRecord
100
AcDbLayerTableRecord
  2
0
 70
0
  6
CONTINUOUS
  0
LAYER
  5
51
100
AcDbSymbolTableRecord
100
AcDbLayerTableRecord
  2
Calque_1
 70
0
  6
CONTINUOUS
  0
ENDTAB
  0
TABLE
  2
STYLE
  5
3
330
0
100
AcDbSymbolTable
 70
     1
  0
STYLE
  5
11
330
3
100
AcDbSymbolTableRecord
100
AcDbTextStyleTableRecord
  2
STANDARD
 70
     0
 40
0.0
 41
1.0
 50
0.0
 71
     0
 42
2.5
  3
txt
  4

  0
ENDTAB
  0
TABLE
  2
VIEW
  5
6
330
0
100
AcDbSymbolTable
 70
     0
  0
ENDTAB
  0
TABLE
  2
UCS
  5
7
330
0
100
AcDbSymbolTable
 70
     0
  0
ENDTAB
  0
TABLE
  2
APPID
  5
9
330
0
100
AcDbSymbolTable
 70
     2
  0
APPID
  5
12
330
9
100
AcDbSymbolTableRecord
100
AcDbRegAppTableRecord
  2
ACAD
 70
     0
  0
ENDTAB
  0
TABLE
  2
DIMSTYLE
  5
A
330
0
100
AcDbSymbolTable
 70
     1
  0
DIMSTYLE
105
27
330
A
100
AcDbSymbolTableRecord
100
AcDbDimStyleTableRecord
  2
ISO-25
 70
     0
  3

  4

  5

  6

  7

 40
1.0
 41
2.5
 42
0.625
 43
3.75
 44
1.25
 45
0.0
 46
0.0
 47
0.0
 48
0.0
140
2.5
141
2.5
142
0.0
143
0.03937007874016
144
1.0
145
0.0
146
1.0
147
0.625
 71
     0
 72
     0
 73
     0
 74
     0
 75
     0
 76
     0
 77
     1
 78
     8
170
     0
171
     3
172
     1
173
     0
174
     0
175
     0
176
     0
177
     0
178
     0
270
     2
271
     2
272
     2
273
     2
274
     3
340
11
275
     0
280
     0
281
     0
282
     0
283
     0
284
     8
285
     0
286
     0
287
     3
288
     0
  0
ENDTAB
  0
TABLE
  2
BLOCK_RECORD
  5
1
330
0
100
AcDbSymbolTable
 70
     1
  0
BLOCK_RECORD
  5
1F
330
1
100
AcDbSymbolTableRecord
100
AcDbBlockTableRecord
  2
*MODEL_SPACE
  0
BLOCK_RECORD
  5
1B
330
1
100
AcDbSymbolTableRecord
100
AcDbBlockTableRecord
  2
*PAPER_SPACE
  0
ENDTAB
  0
ENDSEC
  0
SECTION
  2
BLOCKS
  0
BLOCK
  5
20
330
1F
100
AcDbEntity
  8
0
100
AcDbBlockBegin
  2
*MODEL_SPACE
 70
     0
 10
0.0
 20
0.0
 30
0.0
  3
*MODEL_SPACE
  1

  0
ENDBLK
  5
21
330
1F
100
AcDbEntity
  8
0
100
AcDbBlockEnd
  0
BLOCK
  5
1C
330
1B
100
AcDbEntity
 67
     1
  8
0
100
AcDbBlockBegin
  2
*PAPER_SPACE
  1

  0
ENDBLK
  5
1D
330
1B
100
AcDbEntity
 67
     1
  8
0
100
AcDbBlockEnd
  0
ENDSEC
  0
SECTION
  2
ENTITIES
  0
LWPOLYLINE
  5
100
100
AcDbEntity
  8
Calque_1
 62
1
100
AcDbPolyline
 90
22
 70
0
 10
45.354687
 20
793.700701
 30
0.0
 10
45.354687
 20
731.222580
 30
0.0
 10
73.400000
 20
731.222580
 30
0.0
 10
73.400000
 20
725.552260
 30
0.0
 10
45.354687
 20
725.552260
 30
0.0
 10
45.354687
 20
651.967892
 30
0.0
 10
113.385936
 20
651.967892
 30
0.0
 10
113.385936
 20
684.416324
 30
0.0
 10
119.054688
 20
684.416324
 30
0.0
 10
119.054688
 20
651.967892
 30
0.0
 10
187.085936
 20
651.967892
 30
0.0
 10
187.085936
 20
722.416324
 30
0.0
 10
153.103128
 20
722.416324
 30
0.0
 10
153.103128
 20
728.086636
 30
0.0
 10
187.085936
 20
728.086636
 30
0.0
 10
187.085936
 20
793.700701
 30
0.0
 10
119.054688
 20
793.700701
 30
0.0
 10
119.054688
 20
764.119451
 30
0.0
 10
113.385936
 20
764.119451
 30
0.0
 10
113.385936
 20
793.700701
 30
0.0
 10
45.354687
 20
793.700701
 30
0.0
 10
45.354687
 20
793.700701
 30
0.0
  0
LWPOLYLINE
  5
101
100
AcDbEntity
  8
Calque_1
 62
1
100
AcDbPolyline
 90
26
 70
0
 10
34.379687
 20
558.536636
 30
0.0
 10
34.379687
 20
496.058516
 30
0.0
 10
62.425000
 20
496.058516
 30
0.0
 10
62.425000
 20
496.056948
 30
0.0
 10
62.425000
 20
490.388204
 30
0.0
 10
34.379687
 20
490.388204
 30
0.0
 10
34.379687
 20
416.803828
 30
0.0
 10
102.410936
 20
416.803828
 30
0.0
 10
102.410936
 20
449.252260
 30
0.0
 10
108.079688
 20
449.252260
 30
0.0
 10
108.081248
 20
449.252260
 30
0.0
 10
108.081248
 20
416.803828
 30
0.0
 10
176.110936
 20
416.803828
 30
0.0
 10
176.110936
 20
487.252260
 30
0.0
 10
142.128128
 20
487.252260
 30
0.0
 10
142.128128
 20
492.921012
 30
0.0
 10
142.128128
 20
492.922580
 30
0.0
 10
176.110936
 20
492.922580
 30
0.0
 10
176.110936
 20
558.536636
 30
0.0
 10
108.081248
 20
558.536636
 30
0.0
 10
108.081248
 20
528.953828
 30
0.0
 10
102.410936
 20
528.953828
 30
0.0
 10
102.410936
 20
528.955388
 30
0.0
 10
102.410936
 20
558.536636
 30
0.0
 10
34.379687
 20
558.536636
 30
0.0
 10
34.379687
 20
558.536636
 30
0.0
  0
LWPOLYLINE
  5
102
100
AcDbEntity
  8
Calque_1
 62
1
100
AcDbPolyline
 90
26
 70
0
 10
32.812500
 20
121.128828
 30
0.0
 10
32.812500
 20
58.650700
 30
0.0
 10
60.857813
 20
58.650700
 30
0.0
 10
60.857813
 20
52.981948
 30
0.0
 10
60.857813
 20
52.980388
 30
0.0
 10
32.812500
 20
52.980388
 30
0.0
 10
32.812500
 20
-20.603996
 30
0.0
 10
100.843752
 20
-20.603996
 30
0.0
 10
100.843752
 20
11.844484
 30
0.0
 10
100.843752
 20
11.846004
 30
0.0
 10
106.512496
 20
11.846004
 30
0.0
 10
106.512496
 20
11.844484
 30
0.0
 10
106.512496
 20
-20.603996
 30
0.0
 10
174.543752
 20
-20.603996
 30
0.0
 10
174.543752
 20
49.844452
 30
0.0
 10
140.560936
 20
49.844452
 30
0.0
 10
140.560936
 20
49.846012
 30
0.0
 10
140.560936
 20
55.514764
 30
0.0
 10
174.543752
 20
55.514764
 30
0.0
 10
174.543752
 20
121.128828
 30
0.0
 10
106.512496
 20
121.128828
 30
0.0
 10
106.512496
 20
91.547580
 30
0.0
 10
100.843752
 20
91.547580
 30
0.0
 10
100.843752
 20
121.128828
 30
0.0
 10
32.812500
 20
121.128828
 30
0.0
 10
32.812500
 20
121.128828
 30
0.0
  0
SPLINE
  5
103
100
AcDbEntity
  8
Calque_1
 62
1
100
AcDbSpline
 70
8
 71
3
 72
8
 73
4
 74
0
 40
0
 40
0
 40
0
 40
0
 40
1
 40
1
 40
1
 40
1
 10
464.881248
 20
657.638204
 30
0.0
 10
445.438948
 20
657.608868
 30
0.0
 10
426.683667
 20
650.444353
 30
0.0
 10
412.173440
 20
637.503828
 30
0.0
  0
LWPOLYLINE
  5
104
100
AcDbEntity
  8
Calque_1
 62
1
100
AcDbPolyline
 90
25
 70
0
 10
35.948438
 20
334.346012
 30
0.0
 10
35.948438
 20
271.867892
 30
0.0
 10
63.993750
 20
271.867892
 30
0.0
 10
63.993750
 20
271.866324
 30
0.0
 10
63.993750
 20
266.197580
 30
0.0
 10
35.948438
 20
266.197580
 30
0.0
 10
35.948438
 20
192.613204
 30
0.0
 10
103.979688
 20
192.613204
 30
0.0
 10
103.979688
 20
225.061636
 30
0.0
 10
109.648440
 20
225.061636
 30
0.0
 10
109.648440
 20
192.613204
 30
0.0
 10
177.679688
 20
192.613204
 30
0.0
 10
177.679688
 20
263.061636
 30
0.0
 10
143.696872
 20
263.061636
 30
0.0
 10
143.695312
 20
263.061636
 30
0.0
 10
143.695312
 20
268.731948
 30
0.0
 10
143.696872
 20
268.731948
 30
0.0
 10
177.679688
 20
268.731948
 30
0.0
 10
177.679688
 20
334.346012
 30
0.0
 10
109.648440
 20
334.346012
 30
0.0
 10
109.648440
 20
304.764764
 30
0.0
 10
103.979688
 20
304.764764
 30
0.0
 10
103.979688
 20
334.346012
 30
0.0
 10
35.948438
 20
334.346012
 30
0.0
 10
35.948438
 20
334.346012
 30
0.0
  0
SPLINE
  5
105
100
AcDbEntity
  8
Calque_1
 62
1
100
AcDbSpline
 70
8
 71
3
 72
8
 73
4
 74
0
 40
0
 40
0
 40
0
 40
0
 40
1
 40
1
 40
1
 40
1
 10
407.985936
 20
633.602260
 30
0.0
 10
393.576211
 20
618.786886
 30
0.0
 10
385.513648
 20
598.935148
 30
0.0
 10
385.512496
 20
578.267892
 30
0.0
  0
SPLINE
  5
106
100
AcDbEntity
  8
Calque_1
 62
1
100
AcDbSpline
 70
8
 71
3
 72
8
 73
4
 74
0
 40
0
 40
0
 40
0
 40
0
 40
1
 40
1
 40
1
 40
1
 10
385.512496
 20
578.267892
 30
0.0
 10
385.512367
 20
534.439536
 30
0.0
 10
421.037269
 20
498.906941
 30
0.0
 10
464.865624
 20
498.897580
 30
0.0
  0
LWPOLYLINE
  5
107
100
AcDbEntity
  8
Calque_1
 62
1
100
AcDbPolyline
 90
4
 70
0
 10
412.173440
 20
637.503828
 30
0.0
 10
431.229688
 20
610.272580
 30
0.0
 10
426.584376
 20
607.022580
 30
0.0
 10
407.985936
 20
633.602260
 30
0.0
  0
SPLINE
  5
108
100
AcDbEntity
  8
Calque_1
 62
1
100
AcDbSpline
 70
8
 71
3
 72
8
 73
4
 74
0
 40
0
 40
0
 40
0
 40
0
 40
1
 40
1
 40
1
 40
1
 10
470.535936
 20
499.180388
 30
0.0
 10
512.039864
 20
502.144707
 30
0.0
 10
544.209145
 20
536.658261
 30
0.0
 10
544.251560
 20
578.267892
 30
0.0
  0
SPLINE
  5
109
100
AcDbEntity
  8
Calque_1
 62
1
100
AcDbSpline
 70
8
 71
3
 72
8
 73
4
 74
0
 40
0
 40
0
 40
0
 40
0
 40
1
 40
1
 40
1
 40
1
 10
544.251560
 20
578.267892
 30
0.0
 10
544.221259
 20
599.688392
 30
0.0
 10
535.534179
 20
620.187219
 30
0.0
 10
520.164064
 20
635.106948
 30
0.0
  0
LWPOLYLINE
  5
10a
100
AcDbEntity
  8
Calque_1
 62
1
100
AcDbPolyline
 90
4
 70
0
 10
464.865624
 20
498.897580
 30
0.0
 10
464.865624
 20
532.058516
 30
0.0
 10
470.535936
 20
532.058516
 30
0.0
 10
470.535936
 20
499.180388
 30
0.0
  0
SPLINE
  5
10b
100
AcDbEntity
  8
Calque_1
 62
1
100
AcDbSpline
 70
8
 71
3
 72
8
 73
4
 74
0
 40
0
 40
0
 40
0
 40
0
 40
1
 40
1
 40
1
 40
1
 10
516.015624
 20
638.971012
 30
0.0
 10
501.704246
 20
651.026610
 30
0.0
 10
483.593623
 20
657.638101
 30
0.0
 10
464.881248
 20
657.638204
 30
0.0
  0
LWPOLYLINE
  5
10c
100
AcDbEntity
  8
Calque_1
 62
1
100
AcDbPolyline
 90
4
 70
0
 10
520.164064
 20
635.106948
 30
0.0
 10
497.068752
 20
609.235076
 30
0.0
 10
492.839064
 20
613.010076
 30
0.0
 10
516.015624
 20
638.971012
 30
0.0
  0
SPLINE
  5
10d
100
AcDbEntity
  8
Calque_1
 62
1
100
AcDbSpline
 70
8
 71
3
 72
8
 73
4
 74
0
 40
0
 40
0
 40
0
 40
0
 40
1
 40
1
 40
1
 40
1
 10
356.484480
 20
519.722060
 30
0.0
 10
337.041845
 20
519.693540
 30
0.0
 10
318.285966
 20
512.529567
 30
0.0
 10
303.775104
 20
499.589252
 30
0.0
  0
LWPOLYLINE
  5
10e
100
AcDbEntity
  8
Calque_1
 62
1
100
AcDbPolyline
 90
2
 70
0
 10
464.881248
 20
657.638204
 30
0.0
 10
464.881248
 20
657.638204
 30
0.0
  0
SPLINE
  5
10f
100
AcDbEntity
  8
Calque_1
 62
1
100
AcDbSpline
 70
8
 71
3
 72
8
 73
4
 74
0
 40
0
 40
0
 40
0
 40
0
 40
1
 40
1
 40
1
 40
1
 10
318.186040
 20
469.106436
 30
0.0
 10
318.186040
 20
469.106436
 30
0.0
 10
299.587608
 20
495.686124
 30
0.0
 10
299.587608
 20
495.686124
 30
0.0
  0
SPLINE
  5
110
100
AcDbEntity
  8
Calque_1
 62
1
100
AcDbSpline
 70
8
 71
3
 72
8
 73
4
 74
0
 40
0
 40
0
 40
0
 40
0
 40
1
 40
1
 40
1
 40
1
 10
299.587608
 20
495.686124
 30
0.0
 10
285.177882
 20
480.870748
 30
0.0
 10
277.115318
 20
461.019007
 30
0.0
 10
277.114168
 20
440.351748
 30
0.0
  0
SPLINE
  5
111
100
AcDbEntity
  8
Calque_1
 62
1
100
AcDbSpline
 70
8
 71
3
 72
8
 73
4
 74
0
 40
0
 40
0
 40
0
 40
0
 40
1
 40
1
 40
1
 40
1
 10
277.114168
 20
440.351748
 30
0.0
 10
277.114040
 20
396.522783
 30
0.0
 10
312.639892
 20
360.989936
 30
0.0
 10
356.468856
 20
360.981436
 30
0.0
  0
LWPOLYLINE
  5
112
100
AcDbEntity
  8
Calque_1
 62
1
100
AcDbPolyline
 90
3
 70
1
 10
303.775104
 20
499.589252
 30
0.0
 10
322.831360
 20
472.356436
 30
0.0
 10
318.186040
 20
469.106436
 30
0.0
  0
SPLINE
  5
113
100
AcDbEntity
  8
Calque_1
 62
1
100
AcDbSpline
 70
8
 71
3
 72
8
 73
4
 74
0
 40
0
 40
0
 40
0
 40
0
 40
1
 40
1
 40
1
 40
1
 10
362.137608
 20
361.264252
 30
0.0
 10
403.642149
 20
364.227793
 30
0.0
 10
435.812313
 20
398.741561
 30
0.0
 10
435.854792
 20
440.351748
 30
0.0
  0
SPLINE
  5
114
100
AcDbEntity
  8
Calque_1
 62
1
100
AcDbSpline
 70
8
 71
3
 72
8
 73
4
 74
0
 40
0
 40
0
 40
0
 40
0
 40
1
 40
1
 40
1
 40
1
 10
435.854792
 20
440.351748
 30
0.0
 10
435.824493
 20
461.772251
 30
0.0
 10
427.137413
 20
482.271081
 30
0.0
 10
411.767296
 20
497.190812
 30
0.0
  0
LWPOLYLINE
  5
115
100
AcDbEntity
  8
Calque_1
 62
1
100
AcDbPolyline
 90
4
 70
1
 10
356.468856
 20
360.981436
 30
0.0
 10
356.468856
 20
394.142372
 30
0.0
 10
362.137608
 20
394.142372
 30
0.0
 10
362.137608
 20
361.264252
 30
0.0
  0
SPLINE
  5
116
100
AcDbEntity
  8
Calque_1
 62
1
100
AcDbSpline
 70
8
 71
3
 72
8
 73
4
 74
0
 40
0
 40
0
 40
0
 40
0
 40
1
 40
1
 40
1
 40
1
 10
407.617296
 20
501.056436
 30
0.0
 10
393.306109
 20
513.111123
 30
0.0
 10
375.196122
 20
519.722028
 30
0.0
 10
356.484480
 20
519.722060
 30
0.0
  0
LWPOLYLINE
  5
117
100
AcDbEntity
  8
Calque_1
 62
1
100
AcDbPolyline
 90
4
 70
1
 10
411.767296
 20
497.190812
 30
0.0
 10
388.670416
 20
471.318940
 30
0.0
 10
384.442296
 20
475.093932
 30
0.0
 10
407.617296
 20
501.056436
 30
0.0
  0
SPLINE
  5
118
100
AcDbEntity
  8
Calque_1
 62
1
100
AcDbSpline
 70
8
 71
3
 72
8
 73
4
 74
0
 40
0
 40
0
 40
0
 40
0
 40
1
 40
1
 40
1
 40
1
 10
456.377896
 20
354.045844
 30
0.0
 10
436.937315
 20
354.009531
 30
0.0
 10
418.186131
 20
346.839536
 30
0.0
 10
403.681016
 20
333.895844
 30
0.0
  0
LWPOLYLINE
  5
119
100
AcDbEntity
  8
Calque_1
 62
1
100
AcDbPolyline
 90
2
 70
1
 10
356.484480
 20
519.722060
 30
0.0
 10
356.484480
 20
519.722060
 30
0.0
  0
SPLINE
  5
11a
100
AcDbEntity
  8
Calque_1
 62
1
100
AcDbSpline
 70
8
 71
3
 72
8
 73
4
 74
0
 40
0
 40
0
 40
0
 40
0
 40
1
 40
1
 40
1
 40
1
 10
399.526328
 20
329.944284
 30
0.0
 10
385.115852
 20
315.152421
 30
0.0
 10
377.037940
 20
295.326442
 30
0.0
 10
377.007584
 20
274.675532
 30
0.0
  0
SPLINE
  5
11b
100
AcDbEntity
  8
Calque_1
 62
1
100
AcDbSpline
 70
8
 71
3
 72
8
 73
4
 74
0
 40
0
 40
0
 40
0
 40
0
 40
1
 40
1
 40
1
 40
1
 10
377.007584
 20
274.675532
 30
0.0
 10
377.007456
 20
230.846570
 30
0.0
 10
412.533303
 20
195.313724
 30
0.0
 10
456.362264
 20
195.305220
 30
0.0
  0
LWPOLYLINE
  5
11c
100
AcDbEntity
  8
Calque_1
 62
1
100
AcDbPolyline
 90
4
 70
1
 10
403.681016
 20
333.895844
 30
0.0
 10
422.724768
 20
306.680220
 30
0.0
 10
418.079456
 20
303.430220
 30
0.0
 10
399.526328
 20
329.944284
 30
0.0
  0
SPLINE
  5
11d
100
AcDbEntity
  8
Calque_1
 62
1
100
AcDbSpline
 70
8
 71
3
 72
8
 73
4
 74
0
 40
0
 40
0
 40
0
 40
0
 40
1
 40
1
 40
1
 40
1
 10
462.031016
 20
195.588036
 30
0.0
 10
503.535572
 20
198.551557
 30
0.0
 10
535.705760
 20
233.065330
 30
0.0
 10
535.748240
 20
274.675532
 30
0.0
  0
SPLINE
  5
11e
100
AcDbEntity
  8
Calque_1
 62
1
100
AcDbSpline
 70
8
 71
3
 72
8
 73
4
 74
0
 40
0
 40
0
 40
0
 40
0
 40
1
 40
1
 40
1
 40
1
 10
535.748240
 20
274.675532
 30
0.0
 10
535.747073
 20
296.108550
 30
0.0
 10
527.077808
 20
316.630045
 30
0.0
 10
511.712264
 20
331.572412
 30
0.0
  0
LWPOLYLINE
  5
11f
100
AcDbEntity
  8
Calque_1
 62
1
100
AcDbPolyline
 90
4
 70
1
 10
456.362264
 20
195.305220
 30
0.0
 10
456.362264
 20
228.466156
 30
0.0
 10
462.031016
 20
228.466156
 30
0.0
 10
462.031016
 20
195.588036
 30
0.0
  0
SPLINE
  5
120
100
AcDbEntity
  8
Calque_1
 62
1
100
AcDbSpline
 70
8
 71
3
 72
8
 73
4
 74
0
 40
0
 40
0
 40
0
 40
0
 40
1
 40
1
 40
1
 40
1
 10
507.457584
 20
335.317724
 30
0.0
 10
493.169101
 20
347.383199
 30
0.0
 10
475.079114
 20
354.015805
 30
0.0
 10
456.377896
 20
354.045844
 30
0.0
  0
LWPOLYLINE
  5
121
100
AcDbEntity
  8
Calque_1
 62
1
100
AcDbPolyline
 90
4
 70
1
 10
511.712264
 20
331.572412
 30
0.0
 10
488.563832
 20
305.642724
 30
0.0
 10
484.335704
 20
309.417724
 30
0.0
 10
507.457584
 20
335.317724
 30
0.0
  0
LWPOLYLINE
  5
122
100
AcDbEntity
  8
Calque_1
 62
1
100
AcDbPolyline
 90
2
 70
1
 10
456.377896
 20
354.045844
 30
0.0
 10
456.377896
 20
354.045844
 30
0.0
  0
ENDSEC
  0
SECTION
  2
OBJECTS
  0
DICTIONARY
  5
C
330
0
100
AcDbDictionary
  3
ACAD_GROUP
350
D
  3
ACAD_MLINESTYLE
350
17
  0
DICTIONARY
  5
D
330
C
100
AcDbDictionary
  0
DICTIONARY
  5
1A
330
C
100
AcDbDictionary
  0
DICTIONARY
  5
17
330
C
100
AcDbDictionary
  3
STANDARD
350
18
  0
DICTIONARY
  5
19
330
C
100
AcDbDictionary
  0
ENDSEC
  0
EOF
