  0
SECTION
  2
HEADER
  9
$ACADVER
  1
AC1014
  9
$HANDSEED
  5
FFFF
  9
$MEASUREMENT
 70
     1
  0
ENDSEC
  0
SECTION
  2
TABLES
  0
TABLE
  2
VPORT
  5
8
330
0
100
AcDbSymbolTable
 70
     4
  0
VPORT
  5
2E
330
8
100
AcDbSymbolTableRecord
100
AcDbViewportTableRecord
  2
*ACTIVE
 70
     0
 10
0.0
 20
0.0
 11
1.0
 21
1.0
 12
210.0
 22
148.5
 13
0.0
 23
0.0
 14
10.0
 24
10.0
 15
10.0
 25
10.0
 16
0.0
 26
0.0
 36
1.0
 17
0.0
 27
0.0
 37
0.0
 40
341.0
 41
1.24
 42
50.0
 43
0.0
 44
0.0
 50
0.0
 51
0.0
 71
     0
 72
   100
 73
     1
 74
     3
 75
     0
 76
     0
 77
     0
 78
     0
  0
ENDTAB
  0
TABLE
  2
LTYPE
  5
5
330
0
100
AcDbSymbolTable
 70
     1
  0
LTYPE
  5
14
330
5
100
AcDbSymbolTableRecord
100
AcDbLinetypeTableRecord
  2
BYBLOCK
 70
     0
  3

 72
    65
 73
     0
 40
0.0
  0
LTYPE
  5
15
330
5
100
AcDbSymbolTableRecord
100
AcDbLinetypeTableRecord
  2
BYLAYER
 70
     0
  3

 72
    65
 73
     0
 40
0.0
  0
LTYPE
  5
16
330
5
100
AcDbSymbolTableRecord
100
AcDbLinetypeTableRecord
  2
CONTINUOUS
 70
     0
  3
Solid line
 72
    65
 73
     0
 40
0.0
  0
ENDTAB
  0
TABLE
  2
LAYER
  5
2
100
AcDbSymbolTable
 70
2
  0
LAYER
  5
50
100
AcDbSymbolTableRecord
100
AcDbLayerTableRecord
  2
0
 70
0
  6
CONTINUOUS
  0
LAYER
  5
51
100
AcDbSymbolTableRecord
100
AcDbLayerTableRecord
  2
Layer_1
 70
0
  6
CONTINUOUS
  0
ENDTAB
  0
TABLE
  2
STYLE
  5
3
330
0
100
AcDbSymbolTable
 70
     1
  0
STYLE
  5
11
330
3
100
AcDbSymbolTableRecord
100
AcDbTextStyleTableRecord
  2
STANDARD
 70
     0
 40
0.0
 41
1.0
 50
0.0
 71
     0
 42
2.5
  3
txt
  4

  0
ENDTAB
  0
TABLE
  2
VIEW
  5
6
330
0
100
AcDbSymbolTable
 70
     0
  0
ENDTAB
  0
TABLE
  2
UCS
  5
7
330
0
100
AcDbSymbolTable
 70
     0
  0
ENDTAB
  0
TABLE
  2
APPID
  5
9
330
0
100
AcDbSymbolTable
 70
     2
  0
APPID
  5
12
330
9
100
AcDbSymbolTableRecord
100
AcDbRegAppTableRecord
  2
ACAD
 70
     0
  0
ENDTAB
  0
TABLE
  2
DIMSTYLE
  5
A
330
0
100
AcDbSymbolTable
 70
     1
  0
DIMSTYLE
105
27
330
A
100
AcDbSymbolTableRecord
100
AcDbDimStyleTableRecord
  2
ISO-25
 70
     0
  3

  4

  5

  6

  7

 40
1.0
 41
2.5
 42
0.625
 43
3.75
 44
1.25
 45
0.0
 46
0.0
 47
0.0
 48
0.0
140
2.5
141
2.5
142
0.0
143
0.03937007874016
144
1.0
145
0.0
146
1.0
147
0.625
 71
     0
 72
     0
 73
     0
 74
     0
 75
     0
 76
     0
 77
     1
 78
     8
170
     0
171
     3
172
     1
173
     0
174
     0
175
     0
176
     0
177
     0
178
     0
270
     2
271
     2
272
     2
273
     2
274
     3
340
11
275
     0
280
     0
281
     0
282
     0
283
     0
284
     8
285
     0
286
     0
287
     3
288
     0
  0
ENDTAB
  0
TABLE
  2
BLOCK_RECORD
  5
1
330
0
100
AcDbSymbolTable
 70
     1
  0
BLOCK_RECORD
  5
1F
330
1
100
AcDbSymbolTableRecord
100
AcDbBlockTableRecord
  2
*MODEL_SPACE
  0
BLOCK_RECORD
  5
1B
330
1
100
AcDbSymbolTableRecord
100
AcDbBlockTableRecord
  2
*PAPER_SPACE
  0
ENDTAB
  0
ENDSEC
  0
SECTION
  2
BLOCKS
  0
BLOCK
  5
20
330
1F
100
AcDbEntity
  8
0
100
AcDbBlockBegin
  2
*MODEL_SPACE
 70
     0
 10
0.0
 20
0.0
 30
0.0
  3
*MODEL_SPACE
  1

  0
ENDBLK
  5
21
330
1F
100
AcDbEntity
  8
0
100
AcDbBlockEnd
  0
BLOCK
  5
1C
330
1B
100
AcDbEntity
 67
     1
  8
0
100
AcDbBlockBegin
  2
*PAPER_SPACE
  1

  0
ENDBLK
  5
1D
330
1B
100
AcDbEntity
 67
     1
  8
0
100
AcDbBlockEnd
  0
ENDSEC
  0
SECTION
  2
ENTITIES
  0
LINE
  5
100
100
AcDbEntity
  8
Layer_1
 62
1
100
AcDbLine
 10
-64.659039
 20
-47.700247
 30
0.0
 11
-64.659039
 21
-41.943240
 31
0.0
  0
LINE
  5
101
100
AcDbEntity
  8
Layer_1
 62
1
100
AcDbLine
 10
-64.659039
 20
-41.943240
 30
0.0
 11
-62.333986
 21
-41.943240
 31
0.0
  0
LINE
  5
102
100
AcDbEntity
  8
Layer_1
 62
1
100
AcDbLine
 10
-62.333986
 20
-41.943240
 30
0.0
 11
-62.333986
 21
-35.868030
 31
0.0
  0
LINE
  5
103
100
AcDbEntity
  8
Layer_1
 62
1
100
AcDbLine
 10
-62.333986
 20
-35.868030
 30
0.0
 11
-64.659039
 21
-35.868030
 31
0.0
  0
LINE
  5
104
100
AcDbEntity
  8
Layer_1
 62
1
100
AcDbLine
 10
-64.659039
 20
-35.868030
 30
0.0
 11
-64.659039
 21
-28.523512
 31
0.0
  0
LINE
  5
105
100
AcDbEntity
  8
Layer_1
 62
1
100
AcDbLine
 10
-64.659039
 20
-28.523512
 30
0.0
 11
-62.333986
 21
-28.523512
 31
0.0
  0
LINE
  5
106
100
AcDbEntity
  8
Layer_1
 62
1
100
AcDbLine
 10
-62.333986
 20
-28.523512
 30
0.0
 11
-62.333986
 21
-22.448302
 31
0.0
  0
LINE
  5
107
100
AcDbEntity
  8
Layer_1
 62
1
100
AcDbLine
 10
-62.333986
 20
-22.448302
 30
0.0
 11
-64.659039
 21
-22.448302
 31
0.0
  0
LINE
  5
108
100
AcDbEntity
  8
Layer_1
 62
1
100
AcDbLine
 10
-64.659039
 20
-22.448302
 30
0.0
 11
-64.659039
 21
-13.782555
 31
0.0
  0
LINE
  5
109
100
AcDbEntity
  8
Layer_1
 62
1
100
AcDbLine
 10
-64.659039
 20
-13.782555
 30
0.0
 11
-62.333986
 21
-13.782555
 31
0.0
  0
LINE
  5
10a
100
AcDbEntity
  8
Layer_1
 62
1
100
AcDbLine
 10
-62.333986
 20
-13.782555
 30
0.0
 11
-62.333986
 21
-7.707345
 31
0.0
  0
LINE
  5
10b
100
AcDbEntity
  8
Layer_1
 62
1
100
AcDbLine
 10
-62.333986
 20
-7.707345
 30
0.0
 11
-64.659039
 21
-7.707345
 31
0.0
  0
LINE
  5
10c
100
AcDbEntity
  8
Layer_1
 62
1
100
AcDbLine
 10
-64.659039
 20
-7.707345
 30
0.0
 11
-64.659039
 21
-1.950330
 31
0.0
  0
LINE
  5
10d
100
AcDbEntity
  8
Layer_1
 62
1
100
AcDbLine
 10
-64.659039
 20
-1.950330
 30
0.0
 11
-49.092550
 21
-1.950330
 31
0.0
  0
LINE
  5
10e
100
AcDbEntity
  8
Layer_1
 62
1
100
AcDbLine
 10
-49.092550
 20
-1.950330
 30
0.0
 11
-49.092550
 21
-4.274992
 31
0.0
  0
LINE
  5
10f
100
AcDbEntity
  8
Layer_1
 62
1
100
AcDbLine
 10
-49.092550
 20
-4.274992
 30
0.0
 11
-43.017340
 21
-4.274992
 31
0.0
  0
LINE
  5
110
100
AcDbEntity
  8
Layer_1
 62
1
100
AcDbLine
 10
-43.017340
 20
-4.274992
 30
0.0
 11
-43.017340
 21
-1.950330
 31
0.0
  0
LINE
  5
111
100
AcDbEntity
  8
Layer_1
 62
1
100
AcDbLine
 10
-43.017340
 20
-1.950330
 30
0.0
 11
-34.769395
 21
-1.950330
 31
0.0
  0
LINE
  5
112
100
AcDbEntity
  8
Layer_1
 62
1
100
AcDbLine
 10
-34.769395
 20
-1.950330
 30
0.0
 11
-34.769395
 21
-4.274992
 31
0.0
  0
LINE
  5
113
100
AcDbEntity
  8
Layer_1
 62
1
100
AcDbLine
 10
-34.769395
 20
-4.274992
 30
0.0
 11
-28.694575
 21
-4.274992
 31
0.0
  0
LINE
  5
114
100
AcDbEntity
  8
Layer_1
 62
1
100
AcDbLine
 10
-28.694575
 20
-4.274992
 30
0.0
 11
-28.694575
 21
-1.950330
 31
0.0
  0
LINE
  5
115
100
AcDbEntity
  8
Layer_1
 62
1
100
AcDbLine
 10
-28.694575
 20
-1.950330
 30
0.0
 11
-20.446622
 21
-1.950330
 31
0.0
  0
LINE
  5
116
100
AcDbEntity
  8
Layer_1
 62
1
100
AcDbLine
 10
-20.446622
 20
-1.950330
 30
0.0
 11
-20.446622
 21
-4.274992
 31
0.0
  0
LINE
  5
117
100
AcDbEntity
  8
Layer_1
 62
1
100
AcDbLine
 10
-20.446622
 20
-4.274992
 30
0.0
 11
-14.371412
 21
-4.274992
 31
0.0
  0
LINE
  5
118
100
AcDbEntity
  8
Layer_1
 62
1
100
AcDbLine
 10
-14.371412
 20
-4.274992
 30
0.0
 11
-14.371412
 21
-1.950330
 31
0.0
  0
LINE
  5
119
100
AcDbEntity
  8
Layer_1
 62
1
100
AcDbLine
 10
-14.371412
 20
-1.950330
 30
0.0
 11
-6.123470
 21
-1.950330
 31
0.0
  0
LINE
  5
11a
100
AcDbEntity
  8
Layer_1
 62
1
100
AcDbLine
 10
-6.123470
 20
-1.950330
 30
0.0
 11
-6.123470
 21
-4.274992
 31
0.0
  0
LINE
  5
11b
100
AcDbEntity
  8
Layer_1
 62
1
100
AcDbLine
 10
-6.123470
 20
-4.274992
 30
0.0
 11
-0.048650
 21
-4.274992
 31
0.0
  0
LINE
  5
11c
100
AcDbEntity
  8
Layer_1
 62
1
100
AcDbLine
 10
-0.048650
 20
-4.274992
 30
0.0
 11
-0.048650
 21
-1.950330
 31
0.0
  0
LINE
  5
11d
100
AcDbEntity
  8
Layer_1
 62
1
100
AcDbLine
 10
-0.048650
 20
-1.950330
 30
0.0
 11
8.199302
 21
-1.950330
 31
0.0
  0
LINE
  5
11e
100
AcDbEntity
  8
Layer_1
 62
1
100
AcDbLine
 10
8.199302
 20
-1.950330
 30
0.0
 11
8.199302
 21
-4.274992
 31
0.0
  0
LINE
  5
11f
100
AcDbEntity
  8
Layer_1
 62
1
100
AcDbLine
 10
8.199302
 20
-4.274992
 30
0.0
 11
14.274512
 21
-4.274992
 31
0.0
  0
LINE
  5
120
100
AcDbEntity
  8
Layer_1
 62
1
100
AcDbLine
 10
14.274512
 20
-4.274992
 30
0.0
 11
14.274512
 21
-1.950330
 31
0.0
  0
LINE
  5
121
100
AcDbEntity
  8
Layer_1
 62
1
100
AcDbLine
 10
14.274512
 20
-1.950330
 30
0.0
 11
29.841002
 21
-1.950330
 31
0.0
  0
LINE
  5
122
100
AcDbEntity
  8
Layer_1
 62
1
100
AcDbLine
 10
-64.659039
 20
-47.700247
 30
0.0
 11
-49.092542
 21
-47.700247
 31
0.0
  0
LINE
  5
123
100
AcDbEntity
  8
Layer_1
 62
1
100
AcDbLine
 10
-49.092542
 20
-47.700247
 30
0.0
 11
-49.092542
 21
-45.375585
 31
0.0
  0
LINE
  5
124
100
AcDbEntity
  8
Layer_1
 62
1
100
AcDbLine
 10
-49.092542
 20
-45.375585
 30
0.0
 11
-43.017340
 21
-45.375585
 31
0.0
  0
LINE
  5
125
100
AcDbEntity
  8
Layer_1
 62
1
100
AcDbLine
 10
-43.017340
 20
-45.375585
 30
0.0
 11
-43.017340
 21
-47.700247
 31
0.0
  0
LINE
  5
126
100
AcDbEntity
  8
Layer_1
 62
1
100
AcDbLine
 10
-43.017340
 20
-47.700247
 30
0.0
 11
-34.769387
 21
-47.700247
 31
0.0
  0
LINE
  5
127
100
AcDbEntity
  8
Layer_1
 62
1
100
AcDbLine
 10
-34.769387
 20
-47.700247
 30
0.0
 11
-34.769387
 21
-45.375585
 31
0.0
  0
LINE
  5
128
100
AcDbEntity
  8
Layer_1
 62
1
100
AcDbLine
 10
-34.769387
 20
-45.375585
 30
0.0
 11
-28.694567
 21
-45.375585
 31
0.0
  0
LINE
  5
129
100
AcDbEntity
  8
Layer_1
 62
1
100
AcDbLine
 10
-28.694567
 20
-45.375585
 30
0.0
 11
-28.694567
 21
-47.700247
 31
0.0
  0
LINE
  5
12a
100
AcDbEntity
  8
Layer_1
 62
1
100
AcDbLine
 10
-28.694567
 20
-47.700247
 30
0.0
 11
-20.446622
 21
-47.700247
 31
0.0
  0
LINE
  5
12b
100
AcDbEntity
  8
Layer_1
 62
1
100
AcDbLine
 10
-20.446622
 20
-47.700247
 30
0.0
 11
-20.446622
 21
-45.375585
 31
0.0
  0
LINE
  5
12c
100
AcDbEntity
  8
Layer_1
 62
1
100
AcDbLine
 10
-20.446622
 20
-45.375585
 30
0.0
 11
-14.371412
 21
-45.375585
 31
0.0
  0
LINE
  5
12d
100
AcDbEntity
  8
Layer_1
 62
1
100
AcDbLine
 10
-14.371412
 20
-45.375585
 30
0.0
 11
-14.371412
 21
-47.700247
 31
0.0
  0
LINE
  5
12e
100
AcDbEntity
  8
Layer_1
 62
1
100
AcDbLine
 10
-14.371412
 20
-47.700247
 30
0.0
 11
-6.123470
 21
-47.700247
 31
0.0
  0
LINE
  5
12f
100
AcDbEntity
  8
Layer_1
 62
1
100
AcDbLine
 10
-6.123470
 20
-47.700247
 30
0.0
 11
-6.123470
 21
-45.375585
 31
0.0
  0
LINE
  5
130
100
AcDbEntity
  8
Layer_1
 62
1
100
AcDbLine
 10
-6.123470
 20
-45.375585
 30
0.0
 11
-0.048643
 21
-45.375585
 31
0.0
  0
LINE
  5
131
100
AcDbEntity
  8
Layer_1
 62
1
100
AcDbLine
 10
-0.048643
 20
-45.375585
 30
0.0
 11
-0.048643
 21
-47.700247
 31
0.0
  0
LINE
  5
132
100
AcDbEntity
  8
Layer_1
 62
1
100
AcDbLine
 10
-0.048643
 20
-47.700247
 30
0.0
 11
8.199302
 21
-47.700247
 31
0.0
  0
LINE
  5
133
100
AcDbEntity
  8
Layer_1
 62
1
100
AcDbLine
 10
8.199302
 20
-47.700247
 30
0.0
 11
8.199302
 21
-45.375585
 31
0.0
  0
LINE
  5
134
100
AcDbEntity
  8
Layer_1
 62
1
100
AcDbLine
 10
8.199302
 20
-45.375585
 30
0.0
 11
14.274512
 21
-45.375585
 31
0.0
  0
LINE
  5
135
100
AcDbEntity
  8
Layer_1
 62
1
100
AcDbLine
 10
14.274512
 20
-45.375585
 30
0.0
 11
14.274512
 21
-47.700247
 31
0.0
  0
LINE
  5
136
100
AcDbEntity
  8
Layer_1
 62
1
100
AcDbLine
 10
14.274512
 20
-47.700247
 30
0.0
 11
29.841002
 21
-47.700247
 31
0.0
  0
LINE
  5
137
100
AcDbEntity
  8
Layer_1
 62
1
100
AcDbLine
 10
29.841002
 20
-47.700247
 30
0.0
 11
29.841002
 21
-41.943233
 31
0.0
  0
LINE
  5
138
100
AcDbEntity
  8
Layer_1
 62
1
100
AcDbLine
 10
29.841002
 20
-41.943233
 30
0.0
 11
27.515950
 21
-41.943233
 31
0.0
  0
LINE
  5
139
100
AcDbEntity
  8
Layer_1
 62
1
100
AcDbLine
 10
27.515950
 20
-41.943233
 30
0.0
 11
27.515950
 21
-35.868022
 31
0.0
  0
LINE
  5
13a
100
AcDbEntity
  8
Layer_1
 62
1
100
AcDbLine
 10
27.515950
 20
-35.868022
 30
0.0
 11
29.841002
 21
-35.868022
 31
0.0
  0
LINE
  5
13b
100
AcDbEntity
  8
Layer_1
 62
1
100
AcDbLine
 10
29.841002
 20
-35.868022
 30
0.0
 11
29.841002
 21
-28.523512
 31
0.0
  0
LINE
  5
13c
100
AcDbEntity
  8
Layer_1
 62
1
100
AcDbLine
 10
29.841002
 20
-28.523512
 30
0.0
 11
27.515950
 21
-28.523512
 31
0.0
  0
LINE
  5
13d
100
AcDbEntity
  8
Layer_1
 62
1
100
AcDbLine
 10
27.515950
 20
-28.523512
 30
0.0
 11
27.515950
 21
-22.448302
 31
0.0
  0
LINE
  5
13e
100
AcDbEntity
  8
Layer_1
 62
1
100
AcDbLine
 10
27.515950
 20
-22.448302
 30
0.0
 11
29.841002
 21
-22.448302
 31
0.0
  0
LINE
  5
13f
100
AcDbEntity
  8
Layer_1
 62
1
100
AcDbLine
 10
29.841002
 20
-22.448302
 30
0.0
 11
29.841002
 21
-13.782547
 31
0.0
  0
LINE
  5
140
100
AcDbEntity
  8
Layer_1
 62
1
100
AcDbLine
 10
29.841002
 20
-13.782547
 30
0.0
 11
27.515950
 21
-13.782547
 31
0.0
  0
LINE
  5
141
100
AcDbEntity
  8
Layer_1
 62
1
100
AcDbLine
 10
27.515950
 20
-13.782547
 30
0.0
 11
27.515950
 21
-7.707337
 31
0.0
  0
LINE
  5
142
100
AcDbEntity
  8
Layer_1
 62
1
100
AcDbLine
 10
27.515950
 20
-7.707337
 30
0.0
 11
29.841002
 21
-7.707337
 31
0.0
  0
LINE
  5
143
100
AcDbEntity
  8
Layer_1
 62
1
100
AcDbLine
 10
29.841002
 20
-7.707337
 30
0.0
 11
29.841002
 21
-1.950322
 31
0.0
  0
LINE
  5
144
100
AcDbEntity
  8
Layer_1
 62
1
100
AcDbLine
 10
-30.178193
 20
154.376070
 30
0.0
 11
-25.264148
 21
154.376070
 31
0.0
  0
LINE
  5
145
100
AcDbEntity
  8
Layer_1
 62
1
100
AcDbLine
 10
-25.264148
 20
154.376070
 30
0.0
 11
-25.264148
 21
152.051408
 31
0.0
  0
LINE
  5
146
100
AcDbEntity
  8
Layer_1
 62
1
100
AcDbLine
 10
-25.264148
 20
152.051408
 30
0.0
 11
-19.189321
 21
152.051408
 31
0.0
  0
LINE
  5
147
100
AcDbEntity
  8
Layer_1
 62
1
100
AcDbLine
 10
-19.189321
 20
152.051408
 30
0.0
 11
-19.189321
 21
154.376070
 31
0.0
  0
LINE
  5
148
100
AcDbEntity
  8
Layer_1
 62
1
100
AcDbLine
 10
-19.189321
 20
154.376070
 30
0.0
 11
-14.917103
 21
154.376070
 31
0.0
  0
LINE
  5
149
100
AcDbEntity
  8
Layer_1
 62
1
100
AcDbLine
 10
-14.917103
 20
154.376070
 30
0.0
 11
-14.917103
 21
152.051408
 31
0.0
  0
LINE
  5
14a
100
AcDbEntity
  8
Layer_1
 62
1
100
AcDbLine
 10
-14.917103
 20
152.051408
 30
0.0
 11
-8.842283
 21
152.051408
 31
0.0
  0
LINE
  5
14b
100
AcDbEntity
  8
Layer_1
 62
1
100
AcDbLine
 10
-8.842283
 20
152.051408
 30
0.0
 11
-8.842283
 21
154.376070
 31
0.0
  0
LINE
  5
14c
100
AcDbEntity
  8
Layer_1
 62
1
100
AcDbLine
 10
-8.842283
 20
154.376070
 30
0.0
 11
-3.928238
 21
154.376070
 31
0.0
  0
LINE
  5
14d
100
AcDbEntity
  8
Layer_1
 62
1
100
AcDbLine
 10
-3.928246
 20
154.376078
 30
0.0
 11
-3.928246
 21
138.643320
 31
0.0
  0
LINE
  5
14e
100
AcDbEntity
  8
Layer_1
 62
1
100
AcDbLine
 10
-3.928246
 20
138.643320
 30
0.0
 11
-1.678381
 21
138.643320
 31
0.0
  0
LINE
  5
14f
100
AcDbEntity
  8
Layer_1
 62
1
100
AcDbLine
 10
-1.678381
 20
138.643320
 30
0.0
 11
-1.678381
 21
132.643290
 31
0.0
  0
LINE
  5
150
100
AcDbEntity
  8
Layer_1
 62
1
100
AcDbLine
 10
-1.678381
 20
132.643290
 30
0.0
 11
-3.928246
 21
132.643290
 31
0.0
  0
LINE
  5
151
100
AcDbEntity
  8
Layer_1
 62
1
100
AcDbLine
 10
-3.928246
 20
132.643290
 30
0.0
 11
-3.928246
 21
124.320158
 31
0.0
  0
LINE
  5
152
100
AcDbEntity
  8
Layer_1
 62
1
100
AcDbLine
 10
-3.928246
 20
124.320158
 30
0.0
 11
-1.678381
 21
124.320158
 31
0.0
  0
LINE
  5
153
100
AcDbEntity
  8
Layer_1
 62
1
100
AcDbLine
 10
-1.678381
 20
124.320158
 30
0.0
 11
-1.678381
 21
118.320135
 31
0.0
  0
LINE
  5
154
100
AcDbEntity
  8
Layer_1
 62
1
100
AcDbLine
 10
-1.678381
 20
118.320135
 30
0.0
 11
-3.928246
 21
118.320135
 31
0.0
  0
LINE
  5
155
100
AcDbEntity
  8
Layer_1
 62
1
100
AcDbLine
 10
-3.928246
 20
118.320135
 30
0.0
 11
-3.928246
 21
109.997393
 31
0.0
  0
LINE
  5
156
100
AcDbEntity
  8
Layer_1
 62
1
100
AcDbLine
 10
-3.928246
 20
109.997393
 30
0.0
 11
-1.678381
 21
109.997393
 31
0.0
  0
LINE
  5
157
100
AcDbEntity
  8
Layer_1
 62
1
100
AcDbLine
 10
-1.678381
 20
109.997393
 30
0.0
 11
-1.678381
 21
103.997370
 31
0.0
  0
LINE
  5
158
100
AcDbEntity
  8
Layer_1
 62
1
100
AcDbLine
 10
-1.678381
 20
103.997370
 30
0.0
 11
-3.928246
 21
103.997370
 31
0.0
  0
LINE
  5
159
100
AcDbEntity
  8
Layer_1
 62
1
100
AcDbLine
 10
-3.928246
 20
103.997370
 30
0.0
 11
-3.928246
 21
95.674620
 31
0.0
  0
LINE
  5
15a
100
AcDbEntity
  8
Layer_1
 62
1
100
AcDbLine
 10
-3.928246
 20
95.674620
 30
0.0
 11
-1.678381
 21
95.674620
 31
0.0
  0
LINE
  5
15b
100
AcDbEntity
  8
Layer_1
 62
1
100
AcDbLine
 10
-1.678381
 20
95.674620
 30
0.0
 11
-1.678381
 21
89.674598
 31
0.0
  0
LINE
  5
15c
100
AcDbEntity
  8
Layer_1
 62
1
100
AcDbLine
 10
-1.678381
 20
89.674598
 30
0.0
 11
-3.928246
 21
89.674598
 31
0.0
  0
LINE
  5
15d
100
AcDbEntity
  8
Layer_1
 62
1
100
AcDbLine
 10
-3.928246
 20
89.674598
 30
0.0
 11
-3.928246
 21
81.351465
 31
0.0
  0
LINE
  5
15e
100
AcDbEntity
  8
Layer_1
 62
1
100
AcDbLine
 10
-3.928246
 20
81.351465
 30
0.0
 11
-1.678381
 21
81.351465
 31
0.0
  0
LINE
  5
15f
100
AcDbEntity
  8
Layer_1
 62
1
100
AcDbLine
 10
-1.678381
 20
81.351465
 30
0.0
 11
-1.678381
 21
75.351442
 31
0.0
  0
LINE
  5
160
100
AcDbEntity
  8
Layer_1
 62
1
100
AcDbLine
 10
-1.678381
 20
75.351442
 30
0.0
 11
-3.928246
 21
75.351442
 31
0.0
  0
LINE
  5
161
100
AcDbEntity
  8
Layer_1
 62
1
100
AcDbLine
 10
-3.928246
 20
75.351442
 30
0.0
 11
-3.928246
 21
59.876025
 31
0.0
  0
LINE
  5
162
100
AcDbEntity
  8
Layer_1
 62
1
100
AcDbLine
 10
-30.178193
 20
154.376070
 30
0.0
 11
-30.178193
 21
138.643313
 31
0.0
  0
LINE
  5
163
100
AcDbEntity
  8
Layer_1
 62
1
100
AcDbLine
 10
-30.178193
 20
138.643313
 30
0.0
 11
-32.428058
 21
138.643313
 31
0.0
  0
LINE
  5
164
100
AcDbEntity
  8
Layer_1
 62
1
100
AcDbLine
 10
-32.428058
 20
138.643313
 30
0.0
 11
-32.428058
 21
132.643290
 31
0.0
  0
LINE
  5
165
100
AcDbEntity
  8
Layer_1
 62
1
100
AcDbLine
 10
-32.428058
 20
132.643290
 30
0.0
 11
-30.178193
 21
132.643290
 31
0.0
  0
LINE
  5
166
100
AcDbEntity
  8
Layer_1
 62
1
100
AcDbLine
 10
-30.178193
 20
132.643290
 30
0.0
 11
-30.178193
 21
124.320158
 31
0.0
  0
LINE
  5
167
100
AcDbEntity
  8
Layer_1
 62
1
100
AcDbLine
 10
-30.178193
 20
124.320158
 30
0.0
 11
-32.428058
 21
124.320158
 31
0.0
  0
LINE
  5
168
100
AcDbEntity
  8
Layer_1
 62
1
100
AcDbLine
 10
-32.428058
 20
124.320158
 30
0.0
 11
-32.428058
 21
118.320135
 31
0.0
  0
LINE
  5
169
100
AcDbEntity
  8
Layer_1
 62
1
100
AcDbLine
 10
-32.428058
 20
118.320135
 30
0.0
 11
-30.178193
 21
118.320135
 31
0.0
  0
LINE
  5
16a
100
AcDbEntity
  8
Layer_1
 62
1
100
AcDbLine
 10
-30.178193
 20
118.320135
 30
0.0
 11
-30.178193
 21
109.997385
 31
0.0
  0
LINE
  5
16b
100
AcDbEntity
  8
Layer_1
 62
1
100
AcDbLine
 10
-30.178193
 20
109.997385
 30
0.0
 11
-32.428058
 21
109.997385
 31
0.0
  0
LINE
  5
16c
100
AcDbEntity
  8
Layer_1
 62
1
100
AcDbLine
 10
-32.428058
 20
109.997385
 30
0.0
 11
-32.428058
 21
103.997363
 31
0.0
  0
LINE
  5
16d
100
AcDbEntity
  8
Layer_1
 62
1
100
AcDbLine
 10
-32.428058
 20
103.997363
 30
0.0
 11
-30.178193
 21
103.997363
 31
0.0
  0
LINE
  5
16e
100
AcDbEntity
  8
Layer_1
 62
1
100
AcDbLine
 10
-30.178193
 20
103.997363
 30
0.0
 11
-30.178193
 21
95.674620
 31
0.0
  0
LINE
  5
16f
100
AcDbEntity
  8
Layer_1
 62
1
100
AcDbLine
 10
-30.178193
 20
95.674620
 30
0.0
 11
-32.428058
 21
95.674620
 31
0.0
  0
LINE
  5
170
100
AcDbEntity
  8
Layer_1
 62
1
100
AcDbLine
 10
-32.428058
 20
95.674620
 30
0.0
 11
-32.428058
 21
89.674598
 31
0.0
  0
LINE
  5
171
100
AcDbEntity
  8
Layer_1
 62
1
100
AcDbLine
 10
-32.428058
 20
89.674598
 30
0.0
 11
-30.178193
 21
89.674598
 31
0.0
  0
LINE
  5
172
100
AcDbEntity
  8
Layer_1
 62
1
100
AcDbLine
 10
-30.178193
 20
89.674598
 30
0.0
 11
-30.178193
 21
81.351457
 31
0.0
  0
LINE
  5
173
100
AcDbEntity
  8
Layer_1
 62
1
100
AcDbLine
 10
-30.178193
 20
81.351457
 30
0.0
 11
-32.428058
 21
81.351457
 31
0.0
  0
LINE
  5
174
100
AcDbEntity
  8
Layer_1
 62
1
100
AcDbLine
 10
-32.428058
 20
81.351457
 30
0.0
 11
-32.428058
 21
75.351442
 31
0.0
  0
LINE
  5
175
100
AcDbEntity
  8
Layer_1
 62
1
100
AcDbLine
 10
-32.428058
 20
75.351442
 30
0.0
 11
-30.178193
 21
75.351442
 31
0.0
  0
LINE
  5
176
100
AcDbEntity
  8
Layer_1
 62
1
100
AcDbLine
 10
-30.178193
 20
75.351442
 30
0.0
 11
-30.178193
 21
59.876025
 31
0.0
  0
LINE
  5
177
100
AcDbEntity
  8
Layer_1
 62
1
100
AcDbLine
 10
-30.178193
 20
59.876025
 30
0.0
 11
-25.264148
 21
59.876025
 31
0.0
  0
LINE
  5
178
100
AcDbEntity
  8
Layer_1
 62
1
100
AcDbLine
 10
-25.264148
 20
59.876025
 30
0.0
 11
-25.264148
 21
62.200687
 31
0.0
  0
LINE
  5
179
100
AcDbEntity
  8
Layer_1
 62
1
100
AcDbLine
 10
-25.264148
 20
62.200687
 30
0.0
 11
-19.189328
 21
62.200687
 31
0.0
  0
LINE
  5
17a
100
AcDbEntity
  8
Layer_1
 62
1
100
AcDbLine
 10
-19.189328
 20
62.200687
 30
0.0
 11
-19.189328
 21
59.876025
 31
0.0
  0
LINE
  5
17b
100
AcDbEntity
  8
Layer_1
 62
1
100
AcDbLine
 10
-19.189328
 20
59.876025
 30
0.0
 11
-14.917111
 21
59.876025
 31
0.0
  0
LINE
  5
17c
100
AcDbEntity
  8
Layer_1
 62
1
100
AcDbLine
 10
-14.917111
 20
59.876025
 30
0.0
 11
-14.917111
 21
62.200687
 31
0.0
  0
LINE
  5
17d
100
AcDbEntity
  8
Layer_1
 62
1
100
AcDbLine
 10
-14.917111
 20
62.200687
 30
0.0
 11
-8.842283
 21
62.200687
 31
0.0
  0
LINE
  5
17e
100
AcDbEntity
  8
Layer_1
 62
1
100
AcDbLine
 10
-8.842283
 20
62.200687
 30
0.0
 11
-8.842283
 21
59.876025
 31
0.0
  0
LINE
  5
17f
100
AcDbEntity
  8
Layer_1
 62
1
100
AcDbLine
 10
-8.842283
 20
59.876025
 30
0.0
 11
-3.928246
 21
59.876025
 31
0.0
  0
LINE
  5
180
100
AcDbEntity
  8
Layer_1
 62
1
100
AcDbLine
 10
-65.451881
 20
151.286198
 30
0.0
 11
-60.401411
 21
151.286198
 31
0.0
  0
LINE
  5
181
100
AcDbEntity
  8
Layer_1
 62
1
100
AcDbLine
 10
-60.401411
 20
151.286198
 30
0.0
 11
-60.401411
 21
153.535673
 31
0.0
  0
LINE
  5
182
100
AcDbEntity
  8
Layer_1
 62
1
100
AcDbLine
 10
-60.401411
 20
153.535673
 30
0.0
 11
-54.401388
 21
153.535673
 31
0.0
  0
LINE
  5
183
100
AcDbEntity
  8
Layer_1
 62
1
100
AcDbLine
 10
-54.401388
 20
153.535673
 30
0.0
 11
-54.401388
 21
151.286198
 31
0.0
  0
LINE
  5
184
100
AcDbEntity
  8
Layer_1
 62
1
100
AcDbLine
 10
-54.401388
 20
151.286198
 30
0.0
 11
-50.054366
 21
151.286198
 31
0.0
  0
LINE
  5
185
100
AcDbEntity
  8
Layer_1
 62
1
100
AcDbLine
 10
-50.054366
 20
151.286198
 30
0.0
 11
-50.054366
 21
153.536063
 31
0.0
  0
LINE
  5
186
100
AcDbEntity
  8
Layer_1
 62
1
100
AcDbLine
 10
-50.054366
 20
153.536063
 30
0.0
 11
-44.054343
 21
153.536063
 31
0.0
  0
LINE
  5
187
100
AcDbEntity
  8
Layer_1
 62
1
100
AcDbLine
 10
-44.054343
 20
153.536063
 30
0.0
 11
-44.054343
 21
151.286198
 31
0.0
  0
LINE
  5
188
100
AcDbEntity
  8
Layer_1
 62
1
100
AcDbLine
 10
-44.054343
 20
151.286198
 30
0.0
 11
-39.201926
 21
151.286198
 31
0.0
  0
LINE
  5
189
100
AcDbEntity
  8
Layer_1
 62
1
100
AcDbLine
 10
-39.201926
 20
151.286198
 30
0.0
 11
-39.201926
 21
147.741458
 31
0.0
  0
LINE
  5
18a
100
AcDbEntity
  8
Layer_1
 62
1
100
AcDbLine
 10
-39.201926
 20
147.741458
 30
0.0
 11
-36.952061
 21
147.741458
 31
0.0
  0
LINE
  5
18b
100
AcDbEntity
  8
Layer_1
 62
1
100
AcDbLine
 10
-36.952061
 20
147.741458
 30
0.0
 11
-36.952061
 21
141.741435
 31
0.0
  0
LINE
  5
18c
100
AcDbEntity
  8
Layer_1
 62
1
100
AcDbLine
 10
-36.952061
 20
141.741435
 30
0.0
 11
-39.201926
 21
141.741435
 31
0.0
  0
LINE
  5
18d
100
AcDbEntity
  8
Layer_1
 62
1
100
AcDbLine
 10
-39.201926
 20
141.741435
 30
0.0
 11
-39.201926
 21
133.661310
 31
0.0
  0
LINE
  5
18e
100
AcDbEntity
  8
Layer_1
 62
1
100
AcDbLine
 10
-39.201926
 20
133.661310
 30
0.0
 11
-36.952061
 21
133.661310
 31
0.0
  0
LINE
  5
18f
100
AcDbEntity
  8
Layer_1
 62
1
100
AcDbLine
 10
-36.952061
 20
133.661310
 30
0.0
 11
-36.952061
 21
127.661288
 31
0.0
  0
LINE
  5
190
100
AcDbEntity
  8
Layer_1
 62
1
100
AcDbLine
 10
-36.952061
 20
127.661288
 30
0.0
 11
-39.201926
 21
127.661288
 31
0.0
  0
LINE
  5
191
100
AcDbEntity
  8
Layer_1
 62
1
100
AcDbLine
 10
-39.201926
 20
127.661288
 30
0.0
 11
-39.201926
 21
119.580773
 31
0.0
  0
LINE
  5
192
100
AcDbEntity
  8
Layer_1
 62
1
100
AcDbLine
 10
-39.201926
 20
119.580773
 30
0.0
 11
-36.952061
 21
119.580773
 31
0.0
  0
LINE
  5
193
100
AcDbEntity
  8
Layer_1
 62
1
100
AcDbLine
 10
-36.952061
 20
119.580773
 30
0.0
 11
-36.952061
 21
113.580750
 31
0.0
  0
LINE
  5
194
100
AcDbEntity
  8
Layer_1
 62
1
100
AcDbLine
 10
-36.952061
 20
113.580750
 30
0.0
 11
-39.201926
 21
113.580750
 31
0.0
  0
LINE
  5
195
100
AcDbEntity
  8
Layer_1
 62
1
100
AcDbLine
 10
-39.201926
 20
113.580750
 30
0.0
 11
-39.201926
 21
110.036003
 31
0.0
  0
LINE
  5
196
100
AcDbEntity
  8
Layer_1
 62
1
100
AcDbLine
 10
-65.451881
 20
110.036003
 30
0.0
 11
-60.401411
 21
110.036003
 31
0.0
  0
LINE
  5
197
100
AcDbEntity
  8
Layer_1
 62
1
100
AcDbLine
 10
-60.401411
 20
110.036003
 30
0.0
 11
-60.401411
 21
107.786535
 31
0.0
  0
LINE
  5
198
100
AcDbEntity
  8
Layer_1
 62
1
100
AcDbLine
 10
-60.401411
 20
107.786535
 30
0.0
 11
-54.401388
 21
107.786535
 31
0.0
  0
LINE
  5
199
100
AcDbEntity
  8
Layer_1
 62
1
100
AcDbLine
 10
-54.401388
 20
107.786535
 30
0.0
 11
-54.401388
 21
110.036003
 31
0.0
  0
LINE
  5
19a
100
AcDbEntity
  8
Layer_1
 62
1
100
AcDbLine
 10
-54.401388
 20
110.036003
 30
0.0
 11
-50.054366
 21
110.036003
 31
0.0
  0
LINE
  5
19b
100
AcDbEntity
  8
Layer_1
 62
1
100
AcDbLine
 10
-50.054366
 20
110.036003
 30
0.0
 11
-50.054366
 21
107.786145
 31
0.0
  0
LINE
  5
19c
100
AcDbEntity
  8
Layer_1
 62
1
100
AcDbLine
 10
-50.054366
 20
107.786145
 30
0.0
 11
-44.054343
 21
107.786145
 31
0.0
  0
LINE
  5
19d
100
AcDbEntity
  8
Layer_1
 62
1
100
AcDbLine
 10
-44.054343
 20
107.786145
 30
0.0
 11
-44.054343
 21
110.036003
 31
0.0
  0
LINE
  5
19e
100
AcDbEntity
  8
Layer_1
 62
1
100
AcDbLine
 10
-44.054343
 20
110.036003
 30
0.0
 11
-39.201926
 21
110.036003
 31
0.0
  0
LINE
  5
19f
100
AcDbEntity
  8
Layer_1
 62
1
100
AcDbLine
 10
-65.451881
 20
151.286198
 30
0.0
 11
-65.451881
 21
147.741458
 31
0.0
  0
LINE
  5
1a0
100
AcDbEntity
  8
Layer_1
 62
1
100
AcDbLine
 10
-65.451881
 20
147.741458
 30
0.0
 11
-67.701738
 21
147.741458
 31
0.0
  0
LINE
  5
1a1
100
AcDbEntity
  8
Layer_1
 62
1
100
AcDbLine
 10
-67.701738
 20
147.741458
 30
0.0
 11
-67.701738
 21
141.741435
 31
0.0
  0
LINE
  5
1a2
100
AcDbEntity
  8
Layer_1
 62
1
100
AcDbLine
 10
-67.701738
 20
141.741435
 30
0.0
 11
-65.451881
 21
141.741435
 31
0.0
  0
LINE
  5
1a3
100
AcDbEntity
  8
Layer_1
 62
1
100
AcDbLine
 10
-65.451881
 20
141.741435
 30
0.0
 11
-65.451881
 21
133.661310
 31
0.0
  0
LINE
  5
1a4
100
AcDbEntity
  8
Layer_1
 62
1
100
AcDbLine
 10
-65.451881
 20
133.661310
 30
0.0
 11
-67.701738
 21
133.661310
 31
0.0
  0
LINE
  5
1a5
100
AcDbEntity
  8
Layer_1
 62
1
100
AcDbLine
 10
-67.701738
 20
133.661310
 30
0.0
 11
-67.701738
 21
127.661288
 31
0.0
  0
LINE
  5
1a6
100
AcDbEntity
  8
Layer_1
 62
1
100
AcDbLine
 10
-67.701738
 20
127.661288
 30
0.0
 11
-65.451881
 21
127.661288
 31
0.0
  0
LINE
  5
1a7
100
AcDbEntity
  8
Layer_1
 62
1
100
AcDbLine
 10
-65.451881
 20
127.661288
 30
0.0
 11
-65.451881
 21
119.580773
 31
0.0
  0
LINE
  5
1a8
100
AcDbEntity
  8
Layer_1
 62
1
100
AcDbLine
 10
-65.451881
 20
119.580773
 30
0.0
 11
-67.701738
 21
119.580773
 31
0.0
  0
LINE
  5
1a9
100
AcDbEntity
  8
Layer_1
 62
1
100
AcDbLine
 10
-67.701738
 20
119.580773
 30
0.0
 11
-67.701738
 21
113.580750
 31
0.0
  0
LINE
  5
1aa
100
AcDbEntity
  8
Layer_1
 62
1
100
AcDbLine
 10
-67.701738
 20
113.580750
 30
0.0
 11
-65.451881
 21
113.580750
 31
0.0
  0
LINE
  5
1ab
100
AcDbEntity
  8
Layer_1
 62
1
100
AcDbLine
 10
-65.451881
 20
113.580750
 30
0.0
 11
-65.451881
 21
110.036003
 31
0.0
  0
LINE
  5
1ac
100
AcDbEntity
  8
Layer_1
 62
1
100
AcDbLine
 10
-66.136142
 20
99.149640
 30
0.0
 11
-61.085672
 21
99.149640
 31
0.0
  0
LINE
  5
1ad
100
AcDbEntity
  8
Layer_1
 62
1
100
AcDbLine
 10
-61.085672
 20
99.149640
 30
0.0
 11
-61.085672
 21
101.399115
 31
0.0
  0
LINE
  5
1ae
100
AcDbEntity
  8
Layer_1
 62
1
100
AcDbLine
 10
-61.085672
 20
101.399115
 30
0.0
 11
-55.085650
 21
101.399115
 31
0.0
  0
LINE
  5
1af
100
AcDbEntity
  8
Layer_1
 62
1
100
AcDbLine
 10
-55.085650
 20
101.399115
 30
0.0
 11
-55.085650
 21
99.149640
 31
0.0
  0
LINE
  5
1b0
100
AcDbEntity
  8
Layer_1
 62
1
100
AcDbLine
 10
-55.085650
 20
99.149640
 30
0.0
 11
-50.738627
 21
99.149640
 31
0.0
  0
LINE
  5
1b1
100
AcDbEntity
  8
Layer_1
 62
1
100
AcDbLine
 10
-50.738627
 20
99.149640
 30
0.0
 11
-50.738627
 21
101.399505
 31
0.0
  0
LINE
  5
1b2
100
AcDbEntity
  8
Layer_1
 62
1
100
AcDbLine
 10
-50.738627
 20
101.399505
 30
0.0
 11
-44.738604
 21
101.399505
 31
0.0
  0
LINE
  5
1b3
100
AcDbEntity
  8
Layer_1
 62
1
100
AcDbLine
 10
-44.738604
 20
101.399505
 30
0.0
 11
-44.738604
 21
99.149640
 31
0.0
  0
LINE
  5
1b4
100
AcDbEntity
  8
Layer_1
 62
1
100
AcDbLine
 10
-44.738604
 20
99.149640
 30
0.0
 11
-39.886187
 21
99.149640
 31
0.0
  0
LINE
  5
1b5
100
AcDbEntity
  8
Layer_1
 62
1
100
AcDbLine
 10
-39.886187
 20
99.149640
 30
0.0
 11
-39.886187
 21
95.604900
 31
0.0
  0
LINE
  5
1b6
100
AcDbEntity
  8
Layer_1
 62
1
100
AcDbLine
 10
-39.886187
 20
95.604900
 30
0.0
 11
-37.636322
 21
95.604900
 31
0.0
  0
LINE
  5
1b7
100
AcDbEntity
  8
Layer_1
 62
1
100
AcDbLine
 10
-37.636322
 20
95.604900
 30
0.0
 11
-37.636322
 21
89.604878
 31
0.0
  0
LINE
  5
1b8
100
AcDbEntity
  8
Layer_1
 62
1
100
AcDbLine
 10
-37.636322
 20
89.604878
 30
0.0
 11
-39.886187
 21
89.604878
 31
0.0
  0
LINE
  5
1b9
100
AcDbEntity
  8
Layer_1
 62
1
100
AcDbLine
 10
-39.886187
 20
89.604878
 30
0.0
 11
-39.886187
 21
81.524753
 31
0.0
  0
LINE
  5
1ba
100
AcDbEntity
  8
Layer_1
 62
1
100
AcDbLine
 10
-39.886187
 20
81.524753
 30
0.0
 11
-37.636322
 21
81.524753
 31
0.0
  0
LINE
  5
1bb
100
AcDbEntity
  8
Layer_1
 62
1
100
AcDbLine
 10
-37.636322
 20
81.524753
 30
0.0
 11
-37.636322
 21
75.524730
 31
0.0
  0
LINE
  5
1bc
100
AcDbEntity
  8
Layer_1
 62
1
100
AcDbLine
 10
-37.636322
 20
75.524730
 30
0.0
 11
-39.886187
 21
75.524730
 31
0.0
  0
LINE
  5
1bd
100
AcDbEntity
  8
Layer_1
 62
1
100
AcDbLine
 10
-39.886187
 20
75.524730
 30
0.0
 11
-39.886187
 21
67.444215
 31
0.0
  0
LINE
  5
1be
100
AcDbEntity
  8
Layer_1
 62
1
100
AcDbLine
 10
-39.886187
 20
67.444215
 30
0.0
 11
-37.636322
 21
67.444215
 31
0.0
  0
LINE
  5
1bf
100
AcDbEntity
  8
Layer_1
 62
1
100
AcDbLine
 10
-37.636322
 20
67.444215
 30
0.0
 11
-37.636322
 21
61.444192
 31
0.0
  0
LINE
  5
1c0
100
AcDbEntity
  8
Layer_1
 62
1
100
AcDbLine
 10
-37.636322
 20
61.444192
 30
0.0
 11
-39.886187
 21
61.444192
 31
0.0
  0
LINE
  5
1c1
100
AcDbEntity
  8
Layer_1
 62
1
100
AcDbLine
 10
-39.886187
 20
61.444192
 30
0.0
 11
-39.886187
 21
57.899445
 31
0.0
  0
LINE
  5
1c2
100
AcDbEntity
  8
Layer_1
 62
1
100
AcDbLine
 10
-66.136142
 20
57.899445
 30
0.0
 11
-61.085672
 21
57.899445
 31
0.0
  0
LINE
  5
1c3
100
AcDbEntity
  8
Layer_1
 62
1
100
AcDbLine
 10
-61.085672
 20
57.899445
 30
0.0
 11
-61.085672
 21
55.649977
 31
0.0
  0
LINE
  5
1c4
100
AcDbEntity
  8
Layer_1
 62
1
100
AcDbLine
 10
-61.085672
 20
55.649977
 30
0.0
 11
-55.085650
 21
55.649977
 31
0.0
  0
LINE
  5
1c5
100
AcDbEntity
  8
Layer_1
 62
1
100
AcDbLine
 10
-55.085650
 20
55.649977
 30
0.0
 11
-55.085650
 21
57.899445
 31
0.0
  0
LINE
  5
1c6
100
AcDbEntity
  8
Layer_1
 62
1
100
AcDbLine
 10
-55.085650
 20
57.899445
 30
0.0
 11
-50.738627
 21
57.899445
 31
0.0
  0
LINE
  5
1c7
100
AcDbEntity
  8
Layer_1
 62
1
100
AcDbLine
 10
-50.738627
 20
57.899445
 30
0.0
 11
-50.738627
 21
55.649587
 31
0.0
  0
LINE
  5
1c8
100
AcDbEntity
  8
Layer_1
 62
1
100
AcDbLine
 10
-50.738627
 20
55.649587
 30
0.0
 11
-44.738604
 21
55.649587
 31
0.0
  0
LINE
  5
1c9
100
AcDbEntity
  8
Layer_1
 62
1
100
AcDbLine
 10
-44.738604
 20
55.649587
 30
0.0
 11
-44.738604
 21
57.899445
 31
0.0
  0
LINE
  5
1ca
100
AcDbEntity
  8
Layer_1
 62
1
100
AcDbLine
 10
-44.738604
 20
57.899445
 30
0.0
 11
-39.886187
 21
57.899445
 31
0.0
  0
LINE
  5
1cb
100
AcDbEntity
  8
Layer_1
 62
1
100
AcDbLine
 10
-66.136142
 20
99.149640
 30
0.0
 11
-66.136142
 21
95.604900
 31
0.0
  0
LINE
  5
1cc
100
AcDbEntity
  8
Layer_1
 62
1
100
AcDbLine
 10
-66.136142
 20
95.604900
 30
0.0
 11
-68.386000
 21
95.604900
 31
0.0
  0
LINE
  5
1cd
100
AcDbEntity
  8
Layer_1
 62
1
100
AcDbLine
 10
-68.386000
 20
95.604900
 30
0.0
 11
-68.386000
 21
89.604877
 31
0.0
  0
LINE
  5
1ce
100
AcDbEntity
  8
Layer_1
 62
1
100
AcDbLine
 10
-68.386000
 20
89.604877
 30
0.0
 11
-66.136142
 21
89.604877
 31
0.0
  0
LINE
  5
1cf
100
AcDbEntity
  8
Layer_1
 62
1
100
AcDbLine
 10
-66.136142
 20
89.604877
 30
0.0
 11
-66.136142
 21
81.524752
 31
0.0
  0
LINE
  5
1d0
100
AcDbEntity
  8
Layer_1
 62
1
100
AcDbLine
 10
-66.136142
 20
81.524752
 30
0.0
 11
-68.386000
 21
81.524752
 31
0.0
  0
LINE
  5
1d1
100
AcDbEntity
  8
Layer_1
 62
1
100
AcDbLine
 10
-68.386000
 20
81.524752
 30
0.0
 11
-68.386000
 21
75.524730
 31
0.0
  0
LINE
  5
1d2
100
AcDbEntity
  8
Layer_1
 62
1
100
AcDbLine
 10
-68.386000
 20
75.524730
 30
0.0
 11
-66.136142
 21
75.524730
 31
0.0
  0
LINE
  5
1d3
100
AcDbEntity
  8
Layer_1
 62
1
100
AcDbLine
 10
-66.136142
 20
75.524730
 30
0.0
 11
-66.136142
 21
67.444215
 31
0.0
  0
LINE
  5
1d4
100
AcDbEntity
  8
Layer_1
 62
1
100
AcDbLine
 10
-66.136142
 20
67.444215
 30
0.0
 11
-68.386000
 21
67.444215
 31
0.0
  0
LINE
  5
1d5
100
AcDbEntity
  8
Layer_1
 62
1
100
AcDbLine
 10
-68.386000
 20
67.444215
 30
0.0
 11
-68.386000
 21
61.444192
 31
0.0
  0
LINE
  5
1d6
100
AcDbEntity
  8
Layer_1
 62
1
100
AcDbLine
 10
-68.386000
 20
61.444192
 30
0.0
 11
-66.136142
 21
61.444192
 31
0.0
  0
LINE
  5
1d7
100
AcDbEntity
  8
Layer_1
 62
1
100
AcDbLine
 10
-66.136142
 20
61.444192
 30
0.0
 11
-66.136142
 21
57.899445
 31
0.0
  0
LINE
  5
1d8
100
AcDbEntity
  8
Layer_1
 62
1
100
AcDbLine
 10
-63.515086
 20
4.638203
 30
0.0
 11
-63.515086
 21
10.395210
 31
0.0
  0
LINE
  5
1d9
100
AcDbEntity
  8
Layer_1
 62
1
100
AcDbLine
 10
-63.515086
 20
10.395210
 30
0.0
 11
-61.190033
 21
10.395210
 31
0.0
  0
LINE
  5
1da
100
AcDbEntity
  8
Layer_1
 62
1
100
AcDbLine
 10
-61.190033
 20
10.395210
 30
0.0
 11
-61.190033
 21
16.470420
 31
0.0
  0
LINE
  5
1db
100
AcDbEntity
  8
Layer_1
 62
1
100
AcDbLine
 10
-61.190033
 20
16.470420
 30
0.0
 11
-63.515086
 21
16.470420
 31
0.0
  0
LINE
  5
1dc
100
AcDbEntity
  8
Layer_1
 62
1
100
AcDbLine
 10
-63.515086
 20
16.470420
 30
0.0
 11
-63.515086
 21
23.814938
 31
0.0
  0
LINE
  5
1dd
100
AcDbEntity
  8
Layer_1
 62
1
100
AcDbLine
 10
-63.515086
 20
23.814938
 30
0.0
 11
-61.190033
 21
23.814938
 31
0.0
  0
LINE
  5
1de
100
AcDbEntity
  8
Layer_1
 62
1
100
AcDbLine
 10
-61.190033
 20
23.814938
 30
0.0
 11
-61.190033
 21
29.890148
 31
0.0
  0
LINE
  5
1df
100
AcDbEntity
  8
Layer_1
 62
1
100
AcDbLine
 10
-61.190033
 20
29.890148
 30
0.0
 11
-63.515086
 21
29.890148
 31
0.0
  0
LINE
  5
1e0
100
AcDbEntity
  8
Layer_1
 62
1
100
AcDbLine
 10
-63.515086
 20
29.890148
 30
0.0
 11
-63.515086
 21
38.555895
 31
0.0
  0
LINE
  5
1e1
100
AcDbEntity
  8
Layer_1
 62
1
100
AcDbLine
 10
-63.515086
 20
38.555895
 30
0.0
 11
-61.190033
 21
38.555895
 31
0.0
  0
LINE
  5
1e2
100
AcDbEntity
  8
Layer_1
 62
1
100
AcDbLine
 10
-61.190033
 20
38.555895
 30
0.0
 11
-61.190033
 21
44.631105
 31
0.0
  0
LINE
  5
1e3
100
AcDbEntity
  8
Layer_1
 62
1
100
AcDbLine
 10
-61.190033
 20
44.631105
 30
0.0
 11
-63.515086
 21
44.631105
 31
0.0
  0
LINE
  5
1e4
100
AcDbEntity
  8
Layer_1
 62
1
100
AcDbLine
 10
-63.515086
 20
44.631105
 30
0.0
 11
-63.515086
 21
50.388120
 31
0.0
  0
LINE
  5
1e5
100
AcDbEntity
  8
Layer_1
 62
1
100
AcDbLine
 10
-63.515086
 20
50.388120
 30
0.0
 11
-47.948596
 21
50.388120
 31
0.0
  0
LINE
  5
1e6
100
AcDbEntity
  8
Layer_1
 62
1
100
AcDbLine
 10
-47.948596
 20
50.388120
 30
0.0
 11
-47.948596
 21
48.063458
 31
0.0
  0
LINE
  5
1e7
100
AcDbEntity
  8
Layer_1
 62
1
100
AcDbLine
 10
-47.948596
 20
48.063458
 30
0.0
 11
-41.873386
 21
48.063458
 31
0.0
  0
LINE
  5
1e8
100
AcDbEntity
  8
Layer_1
 62
1
100
AcDbLine
 10
-41.873386
 20
48.063458
 30
0.0
 11
-41.873386
 21
50.388120
 31
0.0
  0
LINE
  5
1e9
100
AcDbEntity
  8
Layer_1
 62
1
100
AcDbLine
 10
-41.873386
 20
50.388120
 30
0.0
 11
-33.625441
 21
50.388120
 31
0.0
  0
LINE
  5
1ea
100
AcDbEntity
  8
Layer_1
 62
1
100
AcDbLine
 10
-33.625441
 20
50.388120
 30
0.0
 11
-33.625441
 21
48.063458
 31
0.0
  0
LINE
  5
1eb
100
AcDbEntity
  8
Layer_1
 62
1
100
AcDbLine
 10
-33.625441
 20
48.063458
 30
0.0
 11
-27.550621
 21
48.063458
 31
0.0
  0
LINE
  5
1ec
100
AcDbEntity
  8
Layer_1
 62
1
100
AcDbLine
 10
-27.550621
 20
48.063458
 30
0.0
 11
-27.550621
 21
50.388120
 31
0.0
  0
LINE
  5
1ed
100
AcDbEntity
  8
Layer_1
 62
1
100
AcDbLine
 10
-27.550621
 20
50.388120
 30
0.0
 11
-19.302668
 21
50.388120
 31
0.0
  0
LINE
  5
1ee
100
AcDbEntity
  8
Layer_1
 62
1
100
AcDbLine
 10
-19.302668
 20
50.388120
 30
0.0
 11
-19.302668
 21
48.063458
 31
0.0
  0
LINE
  5
1ef
100
AcDbEntity
  8
Layer_1
 62
1
100
AcDbLine
 10
-19.302668
 20
48.063458
 30
0.0
 11
-13.227458
 21
48.063458
 31
0.0
  0
LINE
  5
1f0
100
AcDbEntity
  8
Layer_1
 62
1
100
AcDbLine
 10
-13.227458
 20
48.063458
 30
0.0
 11
-13.227458
 21
50.388120
 31
0.0
  0
LINE
  5
1f1
100
AcDbEntity
  8
Layer_1
 62
1
100
AcDbLine
 10
-13.227458
 20
50.388120
 30
0.0
 11
-4.979513
 21
50.388120
 31
0.0
  0
LINE
  5
1f2
100
AcDbEntity
  8
Layer_1
 62
1
100
AcDbLine
 10
-4.979513
 20
50.388120
 30
0.0
 11
-4.979513
 21
48.063458
 31
0.0
  0
LINE
  5
1f3
100
AcDbEntity
  8
Layer_1
 62
1
100
AcDbLine
 10
-4.979513
 20
48.063458
 30
0.0
 11
1.095307
 21
48.063458
 31
0.0
  0
LINE
  5
1f4
100
AcDbEntity
  8
Layer_1
 62
1
100
AcDbLine
 10
1.095307
 20
48.063458
 30
0.0
 11
1.095307
 21
50.388120
 31
0.0
  0
LINE
  5
1f5
100
AcDbEntity
  8
Layer_1
 62
1
100
AcDbLine
 10
1.095307
 20
50.388120
 30
0.0
 11
9.343256
 21
50.388120
 31
0.0
  0
LINE
  5
1f6
100
AcDbEntity
  8
Layer_1
 62
1
100
AcDbLine
 10
9.343256
 20
50.388120
 30
0.0
 11
9.343256
 21
48.063458
 31
0.0
  0
LINE
  5
1f7
100
AcDbEntity
  8
Layer_1
 62
1
100
AcDbLine
 10
9.343256
 20
48.063458
 30
0.0
 11
15.418466
 21
48.063458
 31
0.0
  0
LINE
  5
1f8
100
AcDbEntity
  8
Layer_1
 62
1
100
AcDbLine
 10
15.418466
 20
48.063458
 30
0.0
 11
15.418466
 21
50.388120
 31
0.0
  0
LINE
  5
1f9
100
AcDbEntity
  8
Layer_1
 62
1
100
AcDbLine
 10
15.418466
 20
50.388120
 30
0.0
 11
30.984956
 21
50.388120
 31
0.0
  0
LINE
  5
1fa
100
AcDbEntity
  8
Layer_1
 62
1
100
AcDbLine
 10
-63.515086
 20
4.638203
 30
0.0
 11
-47.948588
 21
4.638203
 31
0.0
  0
LINE
  5
1fb
100
AcDbEntity
  8
Layer_1
 62
1
100
AcDbLine
 10
-47.948588
 20
4.638203
 30
0.0
 11
-47.948588
 21
6.962865
 31
0.0
  0
LINE
  5
1fc
100
AcDbEntity
  8
Layer_1
 62
1
100
AcDbLine
 10
-47.948588
 20
6.962865
 30
0.0
 11
-41.873386
 21
6.962865
 31
0.0
  0
LINE
  5
1fd
100
AcDbEntity
  8
Layer_1
 62
1
100
AcDbLine
 10
-41.873386
 20
6.962865
 30
0.0
 11
-41.873386
 21
4.638203
 31
0.0
  0
LINE
  5
1fe
100
AcDbEntity
  8
Layer_1
 62
1
100
AcDbLine
 10
-41.873386
 20
4.638203
 30
0.0
 11
-33.625433
 21
4.638203
 31
0.0
  0
LINE
  5
1ff
100
AcDbEntity
  8
Layer_1
 62
1
100
AcDbLine
 10
-33.625433
 20
4.638203
 30
0.0
 11
-33.625433
 21
6.962865
 31
0.0
  0
LINE
  5
200
100
AcDbEntity
  8
Layer_1
 62
1
100
AcDbLine
 10
-33.625433
 20
6.962865
 30
0.0
 11
-27.550613
 21
6.962865
 31
0.0
  0
LINE
  5
201
100
AcDbEntity
  8
Layer_1
 62
1
100
AcDbLine
 10
-27.550613
 20
6.962865
 30
0.0
 11
-27.550613
 21
4.638203
 31
0.0
  0
LINE
  5
202
100
AcDbEntity
  8
Layer_1
 62
1
100
AcDbLine
 10
-27.550613
 20
4.638203
 30
0.0
 11
-19.302668
 21
4.638203
 31
0.0
  0
LINE
  5
203
100
AcDbEntity
  8
Layer_1
 62
1
100
AcDbLine
 10
-19.302668
 20
4.638203
 30
0.0
 11
-19.302668
 21
6.962865
 31
0.0
  0
LINE
  5
204
100
AcDbEntity
  8
Layer_1
 62
1
100
AcDbLine
 10
-19.302668
 20
6.962865
 30
0.0
 11
-13.227458
 21
6.962865
 31
0.0
  0
LINE
  5
205
100
AcDbEntity
  8
Layer_1
 62
1
100
AcDbLine
 10
-13.227458
 20
6.962865
 30
0.0
 11
-13.227458
 21
4.638203
 31
0.0
  0
LINE
  5
206
100
AcDbEntity
  8
Layer_1
 62
1
100
AcDbLine
 10
-13.227458
 20
4.638203
 30
0.0
 11
-4.979513
 21
4.638203
 31
0.0
  0
LINE
  5
207
100
AcDbEntity
  8
Layer_1
 62
1
100
AcDbLine
 10
-4.979513
 20
4.638203
 30
0.0
 11
-4.979513
 21
6.962865
 31
0.0
  0
LINE
  5
208
100
AcDbEntity
  8
Layer_1
 62
1
100
AcDbLine
 10
-4.979513
 20
6.962865
 30
0.0
 11
1.095314
 21
6.962865
 31
0.0
  0
LINE
  5
209
100
AcDbEntity
  8
Layer_1
 62
1
100
AcDbLine
 10
1.095314
 20
6.962865
 30
0.0
 11
1.095314
 21
4.638203
 31
0.0
  0
LINE
  5
20a
100
AcDbEntity
  8
Layer_1
 62
1
100
AcDbLine
 10
1.095314
 20
4.638203
 30
0.0
 11
9.343263
 21
4.638203
 31
0.0
  0
LINE
  5
20b
100
AcDbEntity
  8
Layer_1
 62
1
100
AcDbLine
 10
9.343263
 20
4.638203
 30
0.0
 11
9.343263
 21
6.962865
 31
0.0
  0
LINE
  5
20c
100
AcDbEntity
  8
Layer_1
 62
1
100
AcDbLine
 10
9.343263
 20
6.962865
 30
0.0
 11
15.418473
 21
6.962865
 31
0.0
  0
LINE
  5
20d
100
AcDbEntity
  8
Layer_1
 62
1
100
AcDbLine
 10
15.418473
 20
6.962865
 30
0.0
 11
15.418473
 21
4.638203
 31
0.0
  0
LINE
  5
20e
100
AcDbEntity
  8
Layer_1
 62
1
100
AcDbLine
 10
15.418473
 20
4.638203
 30
0.0
 11
30.984955
 21
4.638203
 31
0.0
  0
LINE
  5
20f
100
AcDbEntity
  8
Layer_1
 62
1
100
AcDbLine
 10
30.984955
 20
4.638203
 30
0.0
 11
30.984955
 21
10.395218
 31
0.0
  0
LINE
  5
210
100
AcDbEntity
  8
Layer_1
 62
1
100
AcDbLine
 10
30.984955
 20
10.395218
 30
0.0
 11
28.659911
 21
10.395218
 31
0.0
  0
LINE
  5
211
100
AcDbEntity
  8
Layer_1
 62
1
100
AcDbLine
 10
28.659911
 20
10.395218
 30
0.0
 11
28.659911
 21
16.470428
 31
0.0
  0
LINE
  5
212
100
AcDbEntity
  8
Layer_1
 62
1
100
AcDbLine
 10
28.659911
 20
16.470428
 30
0.0
 11
30.984955
 21
16.470428
 31
0.0
  0
LINE
  5
213
100
AcDbEntity
  8
Layer_1
 62
1
100
AcDbLine
 10
30.984955
 20
16.470428
 30
0.0
 11
30.984955
 21
23.814938
 31
0.0
  0
LINE
  5
214
100
AcDbEntity
  8
Layer_1
 62
1
100
AcDbLine
 10
30.984955
 20
23.814938
 30
0.0
 11
28.659911
 21
23.814938
 31
0.0
  0
LINE
  5
215
100
AcDbEntity
  8
Layer_1
 62
1
100
AcDbLine
 10
28.659911
 20
23.814938
 30
0.0
 11
28.659911
 21
29.890148
 31
0.0
  0
LINE
  5
216
100
AcDbEntity
  8
Layer_1
 62
1
100
AcDbLine
 10
28.659911
 20
29.890148
 30
0.0
 11
30.984955
 21
29.890148
 31
0.0
  0
LINE
  5
217
100
AcDbEntity
  8
Layer_1
 62
1
100
AcDbLine
 10
30.984955
 20
29.890148
 30
0.0
 11
30.984955
 21
38.555903
 31
0.0
  0
LINE
  5
218
100
AcDbEntity
  8
Layer_1
 62
1
100
AcDbLine
 10
30.984955
 20
38.555903
 30
0.0
 11
28.659911
 21
38.555903
 31
0.0
  0
LINE
  5
219
100
AcDbEntity
  8
Layer_1
 62
1
100
AcDbLine
 10
28.659911
 20
38.555903
 30
0.0
 11
28.659911
 21
44.631113
 31
0.0
  0
LINE
  5
21a
100
AcDbEntity
  8
Layer_1
 62
1
100
AcDbLine
 10
28.659911
 20
44.631113
 30
0.0
 11
30.984955
 21
44.631113
 31
0.0
  0
LINE
  5
21b
100
AcDbEntity
  8
Layer_1
 62
1
100
AcDbLine
 10
30.984955
 20
44.631113
 30
0.0
 11
30.984955
 21
50.388128
 31
0.0
  0
LINE
  5
21c
100
AcDbEntity
  8
Layer_1
 62
1
100
AcDbLine
 10
6.760907
 20
152.722067
 30
0.0
 11
11.674952
 21
152.722067
 31
0.0
  0
LINE
  5
21d
100
AcDbEntity
  8
Layer_1
 62
1
100
AcDbLine
 10
11.674952
 20
152.722067
 30
0.0
 11
11.674952
 21
150.397412
 31
0.0
  0
LINE
  5
21e
100
AcDbEntity
  8
Layer_1
 62
1
100
AcDbLine
 10
11.674952
 20
150.397412
 30
0.0
 11
17.749780
 21
150.397412
 31
0.0
  0
LINE
  5
21f
100
AcDbEntity
  8
Layer_1
 62
1
100
AcDbLine
 10
17.749780
 20
150.397412
 30
0.0
 11
17.749780
 21
152.722067
 31
0.0
  0
LINE
  5
220
100
AcDbEntity
  8
Layer_1
 62
1
100
AcDbLine
 10
17.749780
 20
152.722067
 30
0.0
 11
22.021997
 21
152.722067
 31
0.0
  0
LINE
  5
221
100
AcDbEntity
  8
Layer_1
 62
1
100
AcDbLine
 10
22.021997
 20
152.722067
 30
0.0
 11
22.021997
 21
150.397412
 31
0.0
  0
LINE
  5
222
100
AcDbEntity
  8
Layer_1
 62
1
100
AcDbLine
 10
22.021997
 20
150.397412
 30
0.0
 11
28.096817
 21
150.397412
 31
0.0
  0
LINE
  5
223
100
AcDbEntity
  8
Layer_1
 62
1
100
AcDbLine
 10
28.096817
 20
150.397412
 30
0.0
 11
28.096817
 21
152.722067
 31
0.0
  0
LINE
  5
224
100
AcDbEntity
  8
Layer_1
 62
1
100
AcDbLine
 10
28.096817
 20
152.722067
 30
0.0
 11
33.010862
 21
152.722067
 31
0.0
  0
LINE
  5
225
100
AcDbEntity
  8
Layer_1
 62
1
100
AcDbLine
 10
33.010855
 20
152.722075
 30
0.0
 11
33.010855
 21
136.989315
 31
0.0
  0
LINE
  5
226
100
AcDbEntity
  8
Layer_1
 62
1
100
AcDbLine
 10
33.010855
 20
136.989315
 30
0.0
 11
35.260720
 21
136.989315
 31
0.0
  0
LINE
  5
227
100
AcDbEntity
  8
Layer_1
 62
1
100
AcDbLine
 10
35.260720
 20
136.989315
 30
0.0
 11
35.260720
 21
130.989293
 31
0.0
  0
LINE
  5
228
100
AcDbEntity
  8
Layer_1
 62
1
100
AcDbLine
 10
35.260720
 20
130.989293
 30
0.0
 11
33.010855
 21
130.989293
 31
0.0
  0
LINE
  5
229
100
AcDbEntity
  8
Layer_1
 62
1
100
AcDbLine
 10
33.010855
 20
130.989293
 30
0.0
 11
33.010855
 21
122.666153
 31
0.0
  0
LINE
  5
22a
100
AcDbEntity
  8
Layer_1
 62
1
100
AcDbLine
 10
33.010855
 20
122.666153
 30
0.0
 11
35.260720
 21
122.666153
 31
0.0
  0
LINE
  5
22b
100
AcDbEntity
  8
Layer_1
 62
1
100
AcDbLine
 10
35.260720
 20
122.666153
 30
0.0
 11
35.260720
 21
116.666138
 31
0.0
  0
LINE
  5
22c
100
AcDbEntity
  8
Layer_1
 62
1
100
AcDbLine
 10
35.260720
 20
116.666138
 30
0.0
 11
33.010855
 21
116.666138
 31
0.0
  0
LINE
  5
22d
100
AcDbEntity
  8
Layer_1
 62
1
100
AcDbLine
 10
33.010855
 20
116.666138
 30
0.0
 11
33.010855
 21
108.343388
 31
0.0
  0
LINE
  5
22e
100
AcDbEntity
  8
Layer_1
 62
1
100
AcDbLine
 10
33.010855
 20
108.343388
 30
0.0
 11
35.260720
 21
108.343388
 31
0.0
  0
LINE
  5
22f
100
AcDbEntity
  8
Layer_1
 62
1
100
AcDbLine
 10
35.260720
 20
108.343388
 30
0.0
 11
35.260720
 21
102.343365
 31
0.0
  0
LINE
  5
230
100
AcDbEntity
  8
Layer_1
 62
1
100
AcDbLine
 10
35.260720
 20
102.343365
 30
0.0
 11
33.010855
 21
102.343365
 31
0.0
  0
LINE
  5
231
100
AcDbEntity
  8
Layer_1
 62
1
100
AcDbLine
 10
33.010855
 20
102.343365
 30
0.0
 11
33.010855
 21
94.020615
 31
0.0
  0
LINE
  5
232
100
AcDbEntity
  8
Layer_1
 62
1
100
AcDbLine
 10
33.010855
 20
94.020615
 30
0.0
 11
35.260720
 21
94.020615
 31
0.0
  0
LINE
  5
233
100
AcDbEntity
  8
Layer_1
 62
1
100
AcDbLine
 10
35.260720
 20
94.020615
 30
0.0
 11
35.260720
 21
88.020600
 31
0.0
  0
LINE
  5
234
100
AcDbEntity
  8
Layer_1
 62
1
100
AcDbLine
 10
35.260720
 20
88.020600
 30
0.0
 11
33.010855
 21
88.020600
 31
0.0
  0
LINE
  5
235
100
AcDbEntity
  8
Layer_1
 62
1
100
AcDbLine
 10
33.010855
 20
88.020600
 30
0.0
 11
33.010855
 21
79.697460
 31
0.0
  0
LINE
  5
236
100
AcDbEntity
  8
Layer_1
 62
1
100
AcDbLine
 10
33.010855
 20
79.697460
 30
0.0
 11
35.260720
 21
79.697460
 31
0.0
  0
LINE
  5
237
100
AcDbEntity
  8
Layer_1
 62
1
100
AcDbLine
 10
35.260720
 20
79.697460
 30
0.0
 11
35.260720
 21
73.697437
 31
0.0
  0
LINE
  5
238
100
AcDbEntity
  8
Layer_1
 62
1
100
AcDbLine
 10
35.260720
 20
73.697437
 30
0.0
 11
33.010855
 21
73.697437
 31
0.0
  0
LINE
  5
239
100
AcDbEntity
  8
Layer_1
 62
1
100
AcDbLine
 10
33.010855
 20
73.697437
 30
0.0
 11
33.010855
 21
58.222020
 31
0.0
  0
LINE
  5
23a
100
AcDbEntity
  8
Layer_1
 62
1
100
AcDbLine
 10
6.760907
 20
152.722067
 30
0.0
 11
6.760907
 21
136.989315
 31
0.0
  0
LINE
  5
23b
100
AcDbEntity
  8
Layer_1
 62
1
100
AcDbLine
 10
6.760907
 20
136.989315
 30
0.0
 11
4.511042
 21
136.989315
 31
0.0
  0
LINE
  5
23c
100
AcDbEntity
  8
Layer_1
 62
1
100
AcDbLine
 10
4.511042
 20
136.989315
 30
0.0
 11
4.511042
 21
130.989285
 31
0.0
  0
LINE
  5
23d
100
AcDbEntity
  8
Layer_1
 62
1
100
AcDbLine
 10
4.511042
 20
130.989285
 30
0.0
 11
6.760907
 21
130.989285
 31
0.0
  0
LINE
  5
23e
100
AcDbEntity
  8
Layer_1
 62
1
100
AcDbLine
 10
6.760907
 20
130.989285
 30
0.0
 11
6.760907
 21
122.666152
 31
0.0
  0
LINE
  5
23f
100
AcDbEntity
  8
Layer_1
 62
1
100
AcDbLine
 10
6.760907
 20
122.666152
 30
0.0
 11
4.511042
 21
122.666152
 31
0.0
  0
LINE
  5
240
100
AcDbEntity
  8
Layer_1
 62
1
100
AcDbLine
 10
4.511042
 20
122.666152
 30
0.0
 11
4.511042
 21
116.666130
 31
0.0
  0
LINE
  5
241
100
AcDbEntity
  8
Layer_1
 62
1
100
AcDbLine
 10
4.511042
 20
116.666130
 30
0.0
 11
6.760907
 21
116.666130
 31
0.0
  0
LINE
  5
242
100
AcDbEntity
  8
Layer_1
 62
1
100
AcDbLine
 10
6.760907
 20
116.666130
 30
0.0
 11
6.760907
 21
108.343387
 31
0.0
  0
LINE
  5
243
100
AcDbEntity
  8
Layer_1
 62
1
100
AcDbLine
 10
6.760907
 20
108.343387
 30
0.0
 11
4.511042
 21
108.343387
 31
0.0
  0
LINE
  5
244
100
AcDbEntity
  8
Layer_1
 62
1
100
AcDbLine
 10
4.511042
 20
108.343387
 30
0.0
 11
4.511042
 21
102.343365
 31
0.0
  0
LINE
  5
245
100
AcDbEntity
  8
Layer_1
 62
1
100
AcDbLine
 10
4.511042
 20
102.343365
 30
0.0
 11
6.760907
 21
102.343365
 31
0.0
  0
LINE
  5
246
100
AcDbEntity
  8
Layer_1
 62
1
100
AcDbLine
 10
6.760907
 20
102.343365
 30
0.0
 11
6.760907
 21
94.020615
 31
0.0
  0
LINE
  5
247
100
AcDbEntity
  8
Layer_1
 62
1
100
AcDbLine
 10
6.760907
 20
94.020615
 30
0.0
 11
4.511042
 21
94.020615
 31
0.0
  0
LINE
  5
248
100
AcDbEntity
  8
Layer_1
 62
1
100
AcDbLine
 10
4.511042
 20
94.020615
 30
0.0
 11
4.511042
 21
88.020592
 31
0.0
  0
LINE
  5
249
100
AcDbEntity
  8
Layer_1
 62
1
100
AcDbLine
 10
4.511042
 20
88.020592
 30
0.0
 11
6.760907
 21
88.020592
 31
0.0
  0
LINE
  5
24a
100
AcDbEntity
  8
Layer_1
 62
1
100
AcDbLine
 10
6.760907
 20
88.020592
 30
0.0
 11
6.760907
 21
79.697452
 31
0.0
  0
LINE
  5
24b
100
AcDbEntity
  8
Layer_1
 62
1
100
AcDbLine
 10
6.760907
 20
79.697452
 30
0.0
 11
4.511042
 21
79.697452
 31
0.0
  0
LINE
  5
24c
100
AcDbEntity
  8
Layer_1
 62
1
100
AcDbLine
 10
4.511042
 20
79.697452
 30
0.0
 11
4.511042
 21
73.697430
 31
0.0
  0
LINE
  5
24d
100
AcDbEntity
  8
Layer_1
 62
1
100
AcDbLine
 10
4.511042
 20
73.697430
 30
0.0
 11
6.760907
 21
73.697430
 31
0.0
  0
LINE
  5
24e
100
AcDbEntity
  8
Layer_1
 62
1
100
AcDbLine
 10
6.760907
 20
73.697430
 30
0.0
 11
6.760907
 21
58.222020
 31
0.0
  0
LINE
  5
24f
100
AcDbEntity
  8
Layer_1
 62
1
100
AcDbLine
 10
6.760907
 20
58.222020
 30
0.0
 11
11.674952
 21
58.222020
 31
0.0
  0
LINE
  5
250
100
AcDbEntity
  8
Layer_1
 62
1
100
AcDbLine
 10
11.674952
 20
58.222020
 30
0.0
 11
11.674952
 21
60.546682
 31
0.0
  0
LINE
  5
251
100
AcDbEntity
  8
Layer_1
 62
1
100
AcDbLine
 10
11.674952
 20
60.546682
 30
0.0
 11
17.749772
 21
60.546682
 31
0.0
  0
LINE
  5
252
100
AcDbEntity
  8
Layer_1
 62
1
100
AcDbLine
 10
17.749772
 20
60.546682
 30
0.0
 11
17.749772
 21
58.222020
 31
0.0
  0
LINE
  5
253
100
AcDbEntity
  8
Layer_1
 62
1
100
AcDbLine
 10
17.749772
 20
58.222020
 30
0.0
 11
22.021990
 21
58.222020
 31
0.0
  0
LINE
  5
254
100
AcDbEntity
  8
Layer_1
 62
1
100
AcDbLine
 10
22.021990
 20
58.222020
 30
0.0
 11
22.021990
 21
60.546682
 31
0.0
  0
LINE
  5
255
100
AcDbEntity
  8
Layer_1
 62
1
100
AcDbLine
 10
22.021990
 20
60.546682
 30
0.0
 11
28.096817
 21
60.546682
 31
0.0
  0
LINE
  5
256
100
AcDbEntity
  8
Layer_1
 62
1
100
AcDbLine
 10
28.096817
 20
60.546682
 30
0.0
 11
28.096817
 21
58.222020
 31
0.0
  0
LINE
  5
257
100
AcDbEntity
  8
Layer_1
 62
1
100
AcDbLine
 10
28.096817
 20
58.222020
 30
0.0
 11
33.010855
 21
58.222020
 31
0.0
  0
LINE
  5
258
100
AcDbEntity
  8
Layer_1
 62
7
100
AcDbLine
 10
-52.957721
 20
28.162618
 30
0.0
 11
-53.740759
 21
28.858197
 31
0.0
  0
SPLINE
  5
259
100
AcDbEntity
  8
Layer_1
 62
7
100
AcDbSpline
 70
8
 71
3
 72
8
 73
4
 74
0
 40
0
 40
0
 40
0
 40
0
 40
1
 40
1
 40
1
 40
1
 10
-53.740759
 20
28.858197
 30
0.0
 10
-52.800970
 20
29.922897
 30
0.0
 10
-51.932940
 20
31.109249
 30
0.0
 10
-50.834449
 20
31.904900
 30
0.0
  0
SPLINE
  5
25a
100
AcDbEntity
  8
Layer_1
 62
7
100
AcDbSpline
 70
8
 71
3
 72
8
 73
4
 74
0
 40
0
 40
0
 40
0
 40
0
 40
1
 40
1
 40
1
 40
1
 10
-50.834449
 20
31.904900
 30
0.0
 10
-49.824269
 20
32.635506
 30
0.0
 10
-49.177063
 20
33.210335
 30
0.0
 10
-47.615035
 20
33.742986
 30
0.0
  0
SPLINE
  5
25b
100
AcDbEntity
  8
Layer_1
 62
7
100
AcDbSpline
 70
8
 71
3
 72
8
 73
4
 74
0
 40
0
 40
0
 40
0
 40
0
 40
1
 40
1
 40
1
 40
1
 10
-47.615035
 20
33.742986
 30
0.0
 10
-46.968777
 20
33.874041
 30
0.0
 10
-46.266772
 20
34.118509
 30
0.0
 10
-45.725090
 20
34.036818
 30
0.0
  0
LINE
  5
25c
100
AcDbEntity
  8
Layer_1
 62
7
100
AcDbLine
 10
-45.725090
 20
34.036818
 30
0.0
 11
-43.975712
 21
33.885147
 31
0.0
  0
SPLINE
  5
25d
100
AcDbEntity
  8
Layer_1
 62
7
100
AcDbSpline
 70
8
 71
3
 72
8
 73
4
 74
0
 40
0
 40
0
 40
0
 40
0
 40
1
 40
1
 40
1
 40
1
 10
-43.975712
 20
33.885147
 30
0.0
 10
-43.258636
 20
33.673930
 30
0.0
 10
-42.516473
 20
33.316035
 30
0.0
 10
-41.379984
 20
32.710905
 30
0.0
  0
SPLINE
  5
25e
100
AcDbEntity
  8
Layer_1
 62
7
100
AcDbSpline
 70
8
 71
3
 72
8
 73
4
 74
0
 40
0
 40
0
 40
0
 40
0
 40
1
 40
1
 40
1
 40
1
 10
-41.379984
 20
32.710905
 30
0.0
 10
-40.642720
 20
32.264212
 30
0.0
 10
-39.881427
 20
31.670873
 30
0.0
 10
-39.086730
 20
30.873670
 30
0.0
  0
LINE
  5
25f
100
AcDbEntity
  8
Layer_1
 62
7
100
AcDbLine
 10
-39.086730
 20
30.873670
 30
0.0
 11
-37.221096
 21
28.825684
 31
0.0
  0
LINE
  5
260
100
AcDbEntity
  8
Layer_1
 62
7
100
AcDbLine
 10
-37.221096
 20
28.825684
 30
0.0
 11
-38.131600
 21
28.278367
 31
0.0
  0
SPLINE
  5
261
100
AcDbEntity
  8
Layer_1
 62
7
100
AcDbSpline
 70
8
 71
3
 72
8
 73
4
 74
0
 40
0
 40
0
 40
0
 40
0
 40
1
 40
1
 40
1
 40
1
 10
-38.131600
 20
28.278367
 30
0.0
 10
-40.095970
 20
29.616542
 30
0.0
 10
-42.994193
 20
31.375174
 30
0.0
 10
-45.440090
 20
33.015914
 30
0.0
  0
LINE
  5
262
100
AcDbEntity
  8
Layer_1
 62
7
100
AcDbLine
 10
-45.440090
 20
33.015914
 30
0.0
 11
-48.049765
 21
31.407270
 31
0.0
  0
LINE
  5
263
100
AcDbEntity
  8
Layer_1
 62
7
100
AcDbLine
 10
-48.049765
 20
31.407270
 30
0.0
 11
-47.018194
 21
30.507047
 31
0.0
  0
LINE
  5
264
100
AcDbEntity
  8
Layer_1
 62
7
100
AcDbLine
 10
-47.018194
 20
30.507047
 30
0.0
 11
-44.886309
 21
30.416905
 31
0.0
  0
SPLINE
  5
265
100
AcDbEntity
  8
Layer_1
 62
7
100
AcDbSpline
 70
8
 71
3
 72
8
 73
4
 74
0
 40
0
 40
0
 40
0
 40
0
 40
1
 40
1
 40
1
 40
1
 10
-44.886309
 20
30.416905
 30
0.0
 10
-44.047542
 20
30.166236
 30
0.0
 10
-43.297058
 20
30.134089
 30
0.0
 10
-42.604972
 20
29.194346
 30
0.0
  0
SPLINE
  5
266
100
AcDbEntity
  8
Layer_1
 62
7
100
AcDbSpline
 70
8
 71
3
 72
8
 73
4
 74
0
 40
0
 40
0
 40
0
 40
0
 40
1
 40
1
 40
1
 40
1
 10
-42.604972
 20
29.194346
 30
0.0
 10
-42.440279
 20
28.768870
 30
0.0
 10
-42.339236
 20
28.343394
 30
0.0
 10
-42.516113
 20
27.917919
 30
0.0
  0
SPLINE
  5
267
100
AcDbEntity
  8
Layer_1
 62
7
100
AcDbSpline
 70
8
 71
3
 72
8
 73
4
 74
0
 40
0
 40
0
 40
0
 40
0
 40
1
 40
1
 40
1
 40
1
 10
-42.516113
 20
27.917919
 30
0.0
 10
-42.571141
 20
27.415133
 30
0.0
 10
-42.964200
 20
27.026961
 30
0.0
 10
-43.355609
 20
26.638230
 30
0.0
  0
SPLINE
  5
268
100
AcDbEntity
  8
Layer_1
 62
7
100
AcDbSpline
 70
8
 71
3
 72
8
 73
4
 74
0
 40
0
 40
0
 40
0
 40
0
 40
1
 40
1
 40
1
 40
1
 10
-43.355609
 20
26.638230
 30
0.0
 10
-43.572799
 20
26.368595
 30
0.0
 10
-44.140192
 20
26.018710
 30
0.0
 10
-44.882613
 20
25.643540
 30
0.0
  0
SPLINE
  5
269
100
AcDbEntity
  8
Layer_1
 62
7
100
AcDbSpline
 70
8
 71
3
 72
8
 73
4
 74
0
 40
0
 40
0
 40
0
 40
0
 40
1
 40
1
 40
1
 40
1
 10
-44.882613
 20
25.643540
 30
0.0
 10
-45.369644
 20
25.553776
 30
0.0
 10
-45.758815
 20
25.364471
 30
0.0
 10
-46.457108
 20
25.489599
 30
0.0
  0
SPLINE
  5
26a
100
AcDbEntity
  8
Layer_1
 62
7
100
AcDbSpline
 70
8
 71
3
 72
8
 73
4
 74
0
 40
0
 40
0
 40
0
 40
0
 40
1
 40
1
 40
1
 40
1
 10
-46.457108
 20
25.489599
 30
0.0
 10
-46.933792
 20
25.442023
 30
0.0
 10
-47.345824
 20
25.775546
 30
0.0
 10
-47.822507
 20
26.058734
 30
0.0
  0
LINE
  5
26b
100
AcDbEntity
  8
Layer_1
 62
7
100
AcDbLine
 10
-47.822507
 20
26.058734
 30
0.0
 11
-48.600740
 21
27.032576
 31
0.0
  0
LINE
  5
26c
100
AcDbEntity
  8
Layer_1
 62
7
100
AcDbLine
 10
-48.600740
 20
27.032576
 30
0.0
 11
-49.122849
 21
28.527502
 31
0.0
  0
LINE
  5
26d
100
AcDbEntity
  8
Layer_1
 62
7
100
AcDbLine
 10
-49.122849
 20
28.527502
 30
0.0
 11
-50.617917
 21
29.714012
 31
0.0
  0
LINE
  5
26e
100
AcDbEntity
  8
Layer_1
 62
7
100
AcDbLine
 10
-50.617917
 20
29.714012
 30
0.0
 11
-52.957721
 21
28.162618
 31
0.0
  0
LINE
  5
26f
100
AcDbEntity
  8
Layer_1
 62
7
100
AcDbLine
 10
-53.295730
 20
27.389244
 30
0.0
 11
-54.107293
 21
28.008402
 31
0.0
  0
SPLINE
  5
270
100
AcDbEntity
  8
Layer_1
 62
7
100
AcDbSpline
 70
8
 71
3
 72
8
 73
4
 74
0
 40
0
 40
0
 40
0
 40
0
 40
1
 40
1
 40
1
 40
1
 10
-54.107293
 20
28.008402
 30
0.0
 10
-54.377525
 20
27.158986
 30
0.0
 10
-54.641402
 20
26.469071
 30
0.0
 10
-54.907834
 20
25.008487
 30
0.0
  0
SPLINE
  5
271
100
AcDbEntity
  8
Layer_1
 62
7
100
AcDbSpline
 70
8
 71
3
 72
8
 73
4
 74
0
 40
0
 40
0
 40
0
 40
0
 40
1
 40
1
 40
1
 40
1
 10
-54.907834
 20
25.008487
 30
0.0
 10
-55.053073
 20
24.018199
 30
0.0
 10
-55.176707
 20
22.862382
 30
0.0
 10
-55.191049
 20
21.762559
 30
0.0
  0
SPLINE
  5
272
100
AcDbEntity
  8
Layer_1
 62
7
100
AcDbSpline
 70
8
 71
3
 72
8
 73
4
 74
0
 40
0
 40
0
 40
0
 40
0
 40
1
 40
1
 40
1
 40
1
 10
-55.191049
 20
21.762559
 30
0.0
 10
-55.183244
 20
20.646556
 30
0.0
 10
-54.991529
 20
19.530554
 30
0.0
 10
-54.581520
 20
18.414552
 30
0.0
  0
SPLINE
  5
273
100
AcDbEntity
  8
Layer_1
 62
7
100
AcDbSpline
 70
8
 71
3
 72
8
 73
4
 74
0
 40
0
 40
0
 40
0
 40
0
 40
1
 40
1
 40
1
 40
1
 10
-54.581520
 20
18.414552
 30
0.0
 10
-54.157345
 20
17.547589
 30
0.0
 10
-53.699887
 20
16.661664
 30
0.0
 10
-52.874839
 20
15.566305
 30
0.0
  0
SPLINE
  5
274
100
AcDbEntity
  8
Layer_1
 62
7
100
AcDbSpline
 70
8
 71
3
 72
8
 73
4
 74
0
 40
0
 40
0
 40
0
 40
0
 40
1
 40
1
 40
1
 40
1
 10
-52.874839
 20
15.566305
 30
0.0
 10
-52.123086
 20
14.968081
 30
0.0
 10
-51.371334
 20
14.159291
 30
0.0
 10
-50.619581
 20
13.826541
 30
0.0
  0
SPLINE
  5
275
100
AcDbEntity
  8
Layer_1
 62
7
100
AcDbSpline
 70
8
 71
3
 72
8
 73
4
 74
0
 40
0
 40
0
 40
0
 40
0
 40
1
 40
1
 40
1
 40
1
 10
-50.619581
 20
13.826541
 30
0.0
 10
-49.766240
 20
13.185196
 30
0.0
 10
-48.912900
 20
12.819900
 30
0.0
 10
-48.059558
 20
12.586538
 30
0.0
  0
LINE
  5
276
100
AcDbEntity
  8
Layer_1
 62
7
100
AcDbLine
 10
-48.059558
 20
12.586538
 30
0.0
 11
-45.908089
 21
12.077172
 31
0.0
  0
LINE
  5
277
100
AcDbEntity
  8
Layer_1
 62
7
100
AcDbLine
 10
-45.908089
 20
12.077172
 30
0.0
 11
-45.778682
 21
13.058383
 31
0.0
  0
LINE
  5
278
100
AcDbEntity
  8
Layer_1
 62
7
100
AcDbLine
 10
-45.778682
 20
13.058383
 30
0.0
 11
-47.830762
 21
14.448015
 31
0.0
  0
LINE
  5
279
100
AcDbEntity
  8
Layer_1
 62
7
100
AcDbLine
 10
-47.830762
 20
14.448015
 30
0.0
 11
-47.939411
 21
17.089687
 31
0.0
  0
SPLINE
  5
27a
100
AcDbEntity
  8
Layer_1
 62
7
100
AcDbSpline
 70
8
 71
3
 72
8
 73
4
 74
0
 40
0
 40
0
 40
0
 40
0
 40
1
 40
1
 40
1
 40
1
 10
-47.939411
 20
17.089687
 30
0.0
 10
-47.616385
 20
17.452226
 30
0.0
 10
-47.299447
 20
17.823020
 30
0.0
 10
-47.145265
 20
18.414552
 30
0.0
  0
SPLINE
  5
27b
100
AcDbEntity
  8
Layer_1
 62
7
100
AcDbSpline
 70
8
 71
3
 72
8
 73
4
 74
0
 40
0
 40
0
 40
0
 40
0
 40
1
 40
1
 40
1
 40
1
 10
-47.145265
 20
18.414552
 30
0.0
 10
-46.872746
 20
18.965043
 30
0.0
 10
-46.993876
 20
19.863394
 30
0.0
 10
-47.186443
 20
20.867358
 30
0.0
  0
SPLINE
  5
27c
100
AcDbEntity
  8
Layer_1
 62
7
100
AcDbSpline
 70
8
 71
3
 72
8
 73
4
 74
0
 40
0
 40
0
 40
0
 40
0
 40
1
 40
1
 40
1
 40
1
 10
-47.186443
 20
20.867358
 30
0.0
 10
-47.530844
 20
21.976087
 30
0.0
 10
-48.536459
 20
23.137989
 30
0.0
 10
-49.368708
 20
23.665778
 30
0.0
  0
SPLINE
  5
27d
100
AcDbEntity
  8
Layer_1
 62
7
100
AcDbSpline
 70
8
 71
3
 72
8
 73
4
 74
0
 40
0
 40
0
 40
0
 40
0
 40
1
 40
1
 40
1
 40
1
 10
-49.368708
 20
23.665778
 30
0.0
 10
-49.730573
 20
23.933880
 30
0.0
 10
-50.170422
 20
24.043340
 30
0.0
 10
-50.646870
 20
24.078339
 30
0.0
  0
SPLINE
  5
27e
100
AcDbEntity
  8
Layer_1
 62
7
100
AcDbSpline
 70
8
 71
3
 72
8
 73
4
 74
0
 40
0
 40
0
 40
0
 40
0
 40
1
 40
1
 40
1
 40
1
 10
-50.646870
 20
24.078339
 30
0.0
 10
-50.951341
 20
24.145423
 30
0.0
 10
-51.255813
 20
23.864765
 30
0.0
 10
-51.560284
 20
23.527751
 30
0.0
  0
SPLINE
  5
27f
100
AcDbEntity
  8
Layer_1
 62
7
100
AcDbSpline
 70
8
 71
3
 72
8
 73
4
 74
0
 40
0
 40
0
 40
0
 40
0
 40
1
 40
1
 40
1
 40
1
 10
-51.560284
 20
23.527751
 30
0.0
 10
-51.844926
 20
23.084021
 30
0.0
 10
-51.832525
 20
22.640291
 30
0.0
 10
-51.838639
 20
22.196561
 30
0.0
  0
LINE
  5
280
100
AcDbEntity
  8
Layer_1
 62
7
100
AcDbLine
 10
-51.838639
 20
22.196561
 30
0.0
 11
-51.533874
 21
20.212556
 31
0.0
  0
LINE
  5
281
100
AcDbEntity
  8
Layer_1
 62
7
100
AcDbLine
 10
-51.533874
 20
20.212556
 30
0.0
 11
-50.964662
 21
18.442307
 31
0.0
  0
LINE
  5
282
100
AcDbEntity
  8
Layer_1
 62
7
100
AcDbLine
 10
-50.964662
 20
18.442307
 30
0.0
 11
-50.998221
 21
16.334460
 31
0.0
  0
LINE
  5
283
100
AcDbEntity
  8
Layer_1
 62
7
100
AcDbLine
 10
-50.998221
 20
16.334460
 30
0.0
 11
-53.437747
 21
17.952031
 31
0.0
  0
LINE
  5
284
100
AcDbEntity
  8
Layer_1
 62
7
100
AcDbLine
 10
-53.437747
 20
17.952031
 30
0.0
 11
-53.295730
 21
27.389244
 31
0.0
  0
LINE
  5
285
100
AcDbEntity
  8
Layer_1
 62
7
100
AcDbLine
 10
-37.057576
 20
27.975097
 30
0.0
 11
-37.973896
 21
27.387728
 31
0.0
  0
LINE
  5
286
100
AcDbEntity
  8
Layer_1
 62
7
100
AcDbLine
 10
-37.973896
 20
27.387728
 30
0.0
 11
-37.761257
 21
24.603458
 31
0.0
  0
LINE
  5
287
100
AcDbEntity
  8
Layer_1
 62
7
100
AcDbLine
 10
-37.761257
 20
24.603458
 30
0.0
 11
-39.369240
 21
23.414117
 31
0.0
  0
SPLINE
  5
288
100
AcDbEntity
  8
Layer_1
 62
7
100
AcDbSpline
 70
8
 71
3
 72
8
 73
4
 74
0
 40
0
 40
0
 40
0
 40
0
 40
1
 40
1
 40
1
 40
1
 10
-39.369240
 20
23.414117
 30
0.0
 10
-39.807577
 20
23.659395
 30
0.0
 10
-40.245916
 20
23.734563
 30
0.0
 10
-40.684253
 20
23.808564
 30
0.0
  0
SPLINE
  5
289
100
AcDbEntity
  8
Layer_1
 62
7
100
AcDbSpline
 70
8
 71
3
 72
8
 73
4
 74
0
 40
0
 40
0
 40
0
 40
0
 40
1
 40
1
 40
1
 40
1
 10
-40.684253
 20
23.808564
 30
0.0
 10
-41.006658
 20
23.781266
 30
0.0
 10
-41.037889
 20
23.931672
 30
0.0
 10
-41.720453
 20
23.684564
 30
0.0
  0
SPLINE
  5
28a
100
AcDbEntity
  8
Layer_1
 62
7
100
AcDbSpline
 70
8
 71
3
 72
8
 73
4
 74
0
 40
0
 40
0
 40
0
 40
0
 40
1
 40
1
 40
1
 40
1
 10
-41.720453
 20
23.684564
 30
0.0
 10
-42.230808
 20
23.620899
 30
0.0
 10
-42.576848
 20
23.222954
 30
0.0
 10
-42.929194
 20
22.837840
 30
0.0
  0
LINE
  5
28b
100
AcDbEntity
  8
Layer_1
 62
7
100
AcDbLine
 10
-42.929194
 20
22.837840
 30
0.0
 11
-42.929194
 21
22.837840
 31
0.0
  0
SPLINE
  5
28c
100
AcDbEntity
  8
Layer_1
 62
7
100
AcDbSpline
 70
8
 71
3
 72
8
 73
4
 74
0
 40
0
 40
0
 40
0
 40
0
 40
1
 40
1
 40
1
 40
1
 10
-42.929194
 20
22.837840
 30
0.0
 10
-43.801030
 20
21.676266
 30
0.0
 10
-43.876652
 20
20.476457
 30
0.0
 10
-43.888008
 20
19.213218
 30
0.0
  0
SPLINE
  5
28d
100
AcDbEntity
  8
Layer_1
 62
7
100
AcDbSpline
 70
8
 71
3
 72
8
 73
4
 74
0
 40
0
 40
0
 40
0
 40
0
 40
1
 40
1
 40
1
 40
1
 10
-43.888008
 20
19.213218
 30
0.0
 10
-43.781960
 20
17.603906
 30
0.0
 10
-42.718606
 20
15.972788
 30
0.0
 10
-41.118078
 20
17.637447
 30
0.0
  0
LINE
  5
28e
100
AcDbEntity
  8
Layer_1
 62
7
100
AcDbLine
 10
-41.118078
 20
17.637447
 30
0.0
 11
-41.118078
 21
17.637447
 31
0.0
  0
LINE
  5
28f
100
AcDbEntity
  8
Layer_1
 62
7
100
AcDbLine
 10
-41.118078
 20
17.637447
 30
0.0
 11
-40.164621
 21
18.724552
 31
0.0
  0
LINE
  5
290
100
AcDbEntity
  8
Layer_1
 62
7
100
AcDbLine
 10
-40.164621
 20
18.724552
 30
0.0
 11
-39.167854
 21
20.322224
 31
0.0
  0
LINE
  5
291
100
AcDbEntity
  8
Layer_1
 62
7
100
AcDbLine
 10
-39.167854
 20
20.322224
 30
0.0
 11
-37.724399
 21
21.351547
 31
0.0
  0
LINE
  5
292
100
AcDbEntity
  8
Layer_1
 62
7
100
AcDbLine
 10
-37.724399
 20
21.351547
 30
0.0
 11
-37.835569
 21
18.191511
 31
0.0
  0
LINE
  5
293
100
AcDbEntity
  8
Layer_1
 62
7
100
AcDbLine
 10
-37.835569
 20
18.191511
 30
0.0
 11
-45.172383
 21
12.782550
 31
0.0
  0
LINE
  5
294
100
AcDbEntity
  8
Layer_1
 62
7
100
AcDbLine
 10
-45.172383
 20
12.782550
 30
0.0
 11
-45.048409
 21
12.122243
 31
0.0
  0
LINE
  5
295
100
AcDbEntity
  8
Layer_1
 62
7
100
AcDbLine
 10
-45.048409
 20
12.122243
 30
0.0
 11
-42.333678
 21
13.155823
 31
0.0
  0
SPLINE
  5
296
100
AcDbEntity
  8
Layer_1
 62
7
100
AcDbSpline
 70
8
 71
3
 72
8
 73
4
 74
0
 40
0
 40
0
 40
0
 40
0
 40
1
 40
1
 40
1
 40
1
 10
-42.333678
 20
13.155823
 30
0.0
 10
-41.034019
 20
13.770035
 30
0.0
 10
-39.781762
 20
14.424078
 30
0.0
 10
-38.863060
 20
15.358385
 30
0.0
  0
LINE
  5
297
100
AcDbEntity
  8
Layer_1
 62
7
100
AcDbLine
 10
-38.863060
 20
15.358385
 30
0.0
 11
-37.412426
 21
17.015671
 31
0.0
  0
SPLINE
  5
298
100
AcDbEntity
  8
Layer_1
 62
7
100
AcDbSpline
 70
8
 71
3
 72
8
 73
4
 74
0
 40
0
 40
0
 40
0
 40
0
 40
1
 40
1
 40
1
 40
1
 10
-37.412426
 20
17.015671
 30
0.0
 10
-36.695423
 20
18.009883
 30
0.0
 10
-36.342169
 20
18.930875
 30
0.0
 10
-36.037676
 20
20.019033
 30
0.0
  0
SPLINE
  5
299
100
AcDbEntity
  8
Layer_1
 62
7
100
AcDbSpline
 70
8
 71
3
 72
8
 73
4
 74
0
 40
0
 40
0
 40
0
 40
0
 40
1
 40
1
 40
1
 40
1
 10
-36.037676
 20
20.019033
 30
0.0
 10
-35.968324
 20
20.895781
 30
0.0
 10
-35.632586
 20
22.270301
 30
0.0
 10
-35.876368
 20
23.615041
 30
0.0
  0
SPLINE
  5
29a
100
AcDbEntity
  8
Layer_1
 62
7
100
AcDbSpline
 70
8
 71
3
 72
8
 73
4
 74
0
 40
0
 40
0
 40
0
 40
0
 40
1
 40
1
 40
1
 40
1
 10
-35.876368
 20
23.615041
 30
0.0
 10
-35.918400
 20
24.429595
 30
0.0
 10
-36.092833
 20
25.083225
 30
0.0
 10
-36.421245
 20
26.200889
 30
0.0
  0
LINE
  5
29b
100
AcDbEntity
  8
Layer_1
 62
7
100
AcDbLine
 10
-36.421245
 20
26.200889
 30
0.0
 11
-37.057576
 21
27.975097
 31
0.0
  0
LINE
  5
29c
100
AcDbEntity
  8
Layer_1
 62
1
100
AcDbLine
 10
-61.766487
 20
69.194220
 30
0.0
 11
-61.766487
 21
87.854870
 31
0.0
  0
LINE
  5
29d
100
AcDbEntity
  8
Layer_1
 62
1
100
AcDbLine
 10
-61.766487
 20
87.854870
 30
0.0
 11
-50.605837
 21
87.854870
 31
0.0
  0
LINE
  5
29e
100
AcDbEntity
  8
Layer_1
 62
1
100
AcDbLine
 10
-50.605837
 20
87.854870
 30
0.0
 11
-50.605837
 21
69.194220
 31
0.0
  0
LINE
  5
29f
100
AcDbEntity
  8
Layer_1
 62
1
100
AcDbLine
 10
-50.605837
 20
69.194220
 30
0.0
 11
-61.766487
 21
69.194220
 31
0.0
  0
ENDSEC
  0
SECTION
  2
OBJECTS
  0
DICTIONARY
  5
C
330
0
100
AcDbDictionary
  3
ACAD_GROUP
350
D
  3
ACAD_MLINESTYLE
350
17
  0
DICTIONARY
  5
D
330
C
100
AcDbDictionary
  0
DICTIONARY
  5
1A
330
C
100
AcDbDictionary
  0
DICTIONARY
  5
17
330
C
100
AcDbDictionary
  3
STANDARD
350
18
  0
DICTIONARY
  5
19
330
C
100
AcDbDictionary
  0
ENDSEC
  0
EOF
