  0
SECTION
  2
HEADER
  9
$ACADVER
  1
AC1018
  9
$ACADMAINTVER
 70
     0
  9
$DWGCODEPAGE
  3
ANSI_1252
  9
$INSBASE
 10
0.0
 20
0.0
 30
0.0
  9
$EXTMIN
 10
-475.0000000000018
 20
-419.5
 30
0.0
  9
$EXTMAX
 10
284.0573447880896
 20
347.9784965498807
 30
0.0
  9
$LIMMIN
 10
0.0
 20
0.0
  9
$LIMMAX
 10
12.0
 20
9.0
  9
$ORTHOMODE
 70
     0
  9
$REGENMODE
 70
     1
  9
$FILLMODE
 70
     1
  9
$QTEXTMODE
 70
     0
  9
$MIRRTEXT
 70
     1
  9
$LTSCALE
 40
1.0
  9
$ATTMODE
 70
     1
  9
$TEXTSIZE
 40
0.2
  9
$TRACEWID
 40
0.05
  9
$TEXTSTYLE
  7
Standard
  9
$CLAYER
  8
fianl-for laser cut
  9
$CELTYPE
  6
ByLayer
  9
$CECOLOR
 62
   256
  9
$CELTSCALE
 40
1.0
  9
$DISPSILH
 70
     0
  9
$DIMSCALE
 40
1.0
  9
$DIMASZ
 40
0.18
  9
$DIMEXO
 40
0.0625
  9
$DIMDLI
 40
0.38
  9
$DIMRND
 40
0.0
  9
$DIMDLE
 40
0.0
  9
$DIMEXE
 40
0.18
  9
$DIMTP
 40
0.0
  9
$DIMTM
 40
0.0
  9
$DIMTXT
 40
0.18
  9
$DIMCEN
 40
0.09
  9
$DIMTSZ
 40
0.0
  9
$DIMTOL
 70
     0
  9
$DIMLIM
 70
     0
  9
$DIMTIH
 70
     1
  9
$DIMTOH
 70
     1
  9
$DIMSE1
 70
     0
  9
$DIMSE2
 70
     0
  9
$DIMTAD
 70
     0
  9
$DIMZIN
 70
     0
  9
$DIMBLK
  1

  9
$DIMASO
 70
     1
  9
$DIMSHO
 70
     1
  9
$DIMPOST
  1

  9
$DIMAPOST
  1

  9
$DIMALT
 70
     0
  9
$DIMALTD
 70
     2
  9
$DIMALTF
 40
25.4
  9
$DIMLFAC
 40
1.0
  9
$DIMTOFL
 70
     0
  9
$DIMTVP
 40
0.0
  9
$DIMTIX
 70
     0
  9
$DIMSOXD
 70
     0
  9
$DIMSAH
 70
     0
  9
$DIMBLK1
  1

  9
$DIMBLK2
  1

  9
$DIMSTYLE
  2
Standard
  9
$DIMCLRD
 70
     0
  9
$DIMCLRE
 70
     0
  9
$DIMCLRT
 70
     0
  9
$DIMTFAC
 40
1.0
  9
$DIMGAP
 40
0.09
  9
$DIMJUST
 70
     0
  9
$DIMSD1
 70
     0
  9
$DIMSD2
 70
     0
  9
$DIMTOLJ
 70
     1
  9
$DIMTZIN
 70
     0
  9
$DIMALTZ
 70
     0
  9
$DIMALTTZ
 70
     0
  9
$DIMUPT
 70
     0
  9
$DIMDEC
 70
     4
  9
$DIMTDEC
 70
     4
  9
$DIMALTU
 70
     2
  9
$DIMALTTD
 70
     2
  9
$DIMTXSTY
  7
Standard
  9
$DIMAUNIT
 70
     0
  9
$DIMADEC
 70
     0
  9
$DIMALTRND
 40
0.0
  9
$DIMAZIN
 70
     0
  9
$DIMDSEP
 70
    46
  9
$DIMATFIT
 70
     3
  9
$DIMFRAC
 70
     0
  9
$DIMLDRBLK
  1

  9
$DIMLUNIT
 70
     2
  9
$DIMLWD
 70
    -2
  9
$DIMLWE
 70
    -2
  9
$DIMTMOVE
 70
     2
  9
$LUNITS
 70
     2
  9
$LUPREC
 70
     2
  9
$SKETCHINC
 40
0.1
  9
$FILLETRAD
 40
0.5
  9
$AUNITS
 70
     0
  9
$AUPREC
 70
     0
  9
$MENU
  1
.
  9
$ELEVATION
 40
0.0
  9
$PELEVATION
 40
0.0
  9
$THICKNESS
 40
0.0
  9
$LIMCHECK
 70
     0
  9
$CHAMFERA
 40
0.0
  9
$CHAMFERB
 40
0.0
  9
$CHAMFERC
 40
0.0
  9
$CHAMFERD
 40
0.0
  9
$SKPOLY
 70
     0
  9
$TDCREATE
 40
2457576.71717787
  9
$TDUCREATE
 40
2457576.633844537
  9
$TDUPDATE
 40
2457576.717196296
  9
$TDUUPDATE
 40
2457576.633862963
  9
$TDINDWG
 40
0.0000000116
  9
$TDUSRTIMER
 40
0.0000000116
  9
$USRTIMER
 70
     1
  9
$ANGBASE
 50
0.0
  9
$ANGDIR
 70
     0
  9
$PDMODE
 70
     0
  9
$PDSIZE
 40
0.0
  9
$PLINEWID
 40
0.0
  9
$SPLFRAME
 70
     0
  9
$SPLINETYPE
 70
     6
  9
$SPLINESEGS
 70
     8
  9
$HANDSEED
  5
3A6
  9
$SURFTAB1
 70
     6
  9
$SURFTAB2
 70
     6
  9
$SURFTYPE
 70
     6
  9
$SURFU
 70
     6
  9
$SURFV
 70
     6
  9
$UCSBASE
  2

  9
$UCSNAME
  2

  9
$UCSORG
 10
0.0
 20
0.0
 30
0.0
  9
$UCSXDIR
 10
1.0
 20
0.0
 30
0.0
  9
$UCSYDIR
 10
0.0
 20
1.0
 30
0.0
  9
$UCSORTHOREF
  2

  9
$UCSORTHOVIEW
 70
     0
  9
$UCSORGTOP
 10
0.0
 20
0.0
 30
0.0
  9
$UCSORGBOTTOM
 10
0.0
 20
0.0
 30
0.0
  9
$UCSORGLEFT
 10
0.0
 20
0.0
 30
0.0
  9
$UCSORGRIGHT
 10
0.0
 20
0.0
 30
0.0
  9
$UCSORGFRONT
 10
0.0
 20
0.0
 30
0.0
  9
$UCSORGBACK
 10
0.0
 20
0.0
 30
0.0
  9
$PUCSBASE
  2

  9
$PUCSNAME
  2

  9
$PUCSORG
 10
0.0
 20
0.0
 30
0.0
  9
$PUCSXDIR
 10
1.0
 20
0.0
 30
0.0
  9
$PUCSYDIR
 10
0.0
 20
1.0
 30
0.0
  9
$PUCSORTHOREF
  2

  9
$PUCSORTHOVIEW
 70
     0
  9
$PUCSORGTOP
 10
0.0
 20
0.0
 30
0.0
  9
$PUCSORGBOTTOM
 10
0.0
 20
0.0
 30
0.0
  9
$PUCSORGLEFT
 10
0.0
 20
0.0
 30
0.0
  9
$PUCSORGRIGHT
 10
0.0
 20
0.0
 30
0.0
  9
$PUCSORGFRONT
 10
0.0
 20
0.0
 30
0.0
  9
$PUCSORGBACK
 10
0.0
 20
0.0
 30
0.0
  9
$USERI1
 70
     0
  9
$USERI2
 70
     0
  9
$USERI3
 70
     0
  9
$USERI4
 70
     0
  9
$USERI5
 70
     0
  9
$USERR1
 40
0.0
  9
$USERR2
 40
0.0
  9
$USERR3
 40
0.0
  9
$USERR4
 40
0.0
  9
$USERR5
 40
0.0
  9
$WORLDVIEW
 70
     1
  9
$SHADEDGE
 70
     3
  9
$SHADEDIF
 70
    70
  9
$TILEMODE
 70
     1
  9
$MAXACTVP
 70
    64
  9
$PINSBASE
 10
0.0
 20
0.0
 30
0.0
  9
$PLIMCHECK
 70
     0
  9
$PEXTMIN
 10
1.000000000000000E+20
 20
1.000000000000000E+20
 30
1.000000000000000E+20
  9
$PEXTMAX
 10
-1.000000000000000E+20
 20
-1.000000000000000E+20
 30
-1.000000000000000E+20
  9
$PLIMMIN
 10
0.0
 20
0.0
  9
$PLIMMAX
 10
12.0
 20
9.0
  9
$UNITMODE
 70
     0
  9
$VISRETAIN
 70
     1
  9
$PLINEGEN
 70
     0
  9
$PSLTSCALE
 70
     1
  9
$TREEDEPTH
 70
  3020
  9
$CMLSTYLE
  2
Standard
  9
$CMLJUST
 70
     0
  9
$CMLSCALE
 40
1.0
  9
$PROXYGRAPHICS
 70
     1
  9
$MEASUREMENT
 70
     0
  9
$CELWEIGHT
370
    -1
  9
$ENDCAPS
280
     0
  9
$JOINSTYLE
280
     0
  9
$LWDISPLAY
290
     0
  9
$INSUNITS
 70
     4
  9
$HYPERLINKBASE
  1

  9
$STYLESHEET
  1

  9
$XEDIT
290
     1
  9
$CEPSNTYPE
380
     0
  9
$PSTYLEMODE
290
     1
  9
$FINGERPRINTGUID
  2
{5E960D46-0F7D-4221-B00D-870DA426FE98}
  9
$VERSIONGUID
  2
{FAEB1C32-E019-11D5-929B-00C0DF256EC4}
  9
$EXTNAMES
290
     1
  9
$PSVPSCALE
 40
0.0
  9
$OLESTARTUP
290
     0
  9
$SORTENTS
280
   127
  9
$INDEXCTL
280
     0
  9
$HIDETEXT
280
     1
  9
$XCLIPFRAME
290
     0
  9
$HALOGAP
280
     0
  9
$OBSCOLOR
 70
   257
  9
$OBSLTYPE
280
     0
  9
$INTERSECTIONDISPLAY
280
     0
  9
$INTERSECTIONCOLOR
 70
   257
  9
$DIMASSOC
280
     2
  9
$PROJECTNAME
  1

  0
ENDSEC
  0
SECTION
  2
CLASSES
  0
CLASS
  1
ACDBDICTIONARYWDFLT
  2
AcDbDictionaryWithDefault
  3
ObjectDBX Classes
 90
        0
 91
        4
280
     0
281
     0
  0
CLASS
  1
VISUALSTYLE
  2
AcDbVisualStyle
  3
ObjectDBX Classes
 90
     4095
 91
        4
280
     0
281
     0
  0
CLASS
  1
MATERIAL
  2
AcDbMaterial
  3
ObjectDBX Classes
 90
     1153
 91
        4
280
     0
281
     0
  0
CLASS
  1
SCALE
  2
AcDbScale
  3
ObjectDBX Classes
 90
     1153
 91
        4
280
     0
281
     0
  0
CLASS
  1
SUN
  2
AcDbSun
  3
SCENEOE
 90
     1153
 91
        4
280
     0
281
     0
  0
CLASS
  1
DICTIONARYVAR
  2
AcDbDictionaryVar
  3
ObjectDBX Classes
 90
        0
 91
        4
280
     0
281
     0
  0
ENDSEC
  0
SECTION
  2
TABLES
  0
TABLE
  2
VPORT
  5
8
330
0
100
AcDbSymbolTable
 70
     1
  0
VPORT
  5
29
330
8
100
AcDbSymbolTableRecord
100
AcDbViewportTableRecord
  2
*Active
 70
     0
 10
0.0
 20
0.0
 11
1.0
 21
1.0
 12
-95.47132760595616
 22
-35.76075172505966
 13
0.0
 23
0.0
 14
0.5
 24
0.5
 15
0.5
 25
0.5
 16
0.0
 26
0.0
 36
1.0
 17
0.0
 27
0.0
 37
0.0
 40
782.8280664808783
 41
0.9890275078720175
 42
50.0
 43
0.0
 44
0.0
 50
0.0
 51
0.0
 71
     0
 72
   100
 73
     1
 74
     3
 75
     0
 76
     0
 77
     0
 78
     0
281
     0
 65
     1
110
0.0
120
0.0
130
0.0
111
1.0
121
0.0
131
0.0
112
0.0
122
1.0
132
0.0
 79
     0
146
0.0
  0
ENDTAB
  0
TABLE
  2
LTYPE
  5
5
330
0
100
AcDbSymbolTable
 70
     1
  0
LTYPE
  5
14
330
5
100
AcDbSymbolTableRecord
100
AcDbLinetypeTableRecord
  2
ByBlock
 70
     0
  3

 72
    65
 73
     0
 40
0.0
  0
LTYPE
  5
15
330
5
100
AcDbSymbolTableRecord
100
AcDbLinetypeTableRecord
  2
ByLayer
 70
     0
  3

 72
    65
 73
     0
 40
0.0
  0
LTYPE
  5
16
330
5
100
AcDbSymbolTableRecord
100
AcDbLinetypeTableRecord
  2
Continuous
 70
     0
  3
Solid line
 72
    65
 73
     0
 40
0.0
  0
ENDTAB
  0
TABLE
  2
LAYER
  5
2
330
0
100
AcDbSymbolTable
 70
     2
  0
LAYER
  5
10
330
2
100
AcDbSymbolTableRecord
100
AcDbLayerTableRecord
  2
0
 70
     0
 62
     7
  6
Continuous
370
    -3
390
F
  0
LAYER
  5
6A
330
2
100
AcDbSymbolTableRecord
100
AcDbLayerTableRecord
  2
fianl-for laser cut
 70
     0
 62
     5
420
      255
  6
Continuous
370
    -3
390
F
  0
ENDTAB
  0
TABLE
  2
STYLE
  5
3
330
0
100
AcDbSymbolTable
 70
     1
  0
STYLE
  5
11
330
3
100
AcDbSymbolTableRecord
100
AcDbTextStyleTableRecord
  2
Standard
 70
     0
 40
0.0
 41
1.0
 50
0.0
 71
     0
 42
0.2
  3
txt
  4

  0
ENDTAB
  0
TABLE
  2
VIEW
  5
6
330
0
100
AcDbSymbolTable
 70
     0
  0
ENDTAB
  0
TABLE
  2
UCS
  5
7
330
0
100
AcDbSymbolTable
 70
     0
  0
ENDTAB
  0
TABLE
  2
APPID
  5
9
330
0
100
AcDbSymbolTable
 70
     1
  0
APPID
  5
12
330
9
100
AcDbSymbolTableRecord
100
AcDbRegAppTableRecord
  2
ACAD
 70
     0
  0
ENDTAB
  0
TABLE
  2
DIMSTYLE
  5
A
330
0
100
AcDbSymbolTable
 70
     1
100
AcDbDimStyleTable
  0
DIMSTYLE
105
27
330
A
100
AcDbSymbolTableRecord
100
AcDbDimStyleTableRecord
  2
Standard
 70
     0
178
     0
340
11
  0
ENDTAB
  0
TABLE
  2
BLOCK_RECORD
  5
1
330
0
100
AcDbSymbolTable
 70
     1
  0
BLOCK_RECORD
  5
1F
330
1
100
AcDbSymbolTableRecord
100
AcDbBlockTableRecord
  2
*Model_Space
340
22
  0
BLOCK_RECORD
  5
1B
330
1
100
AcDbSymbolTableRecord
100
AcDbBlockTableRecord
  2
*Paper_Space
340
1E
  0
BLOCK_RECORD
  5
23
330
1
100
AcDbSymbolTableRecord
100
AcDbBlockTableRecord
  2
*Paper_Space0
340
26
  0
ENDTAB
  0
ENDSEC
  0
SECTION
  2
BLOCKS
  0
BLOCK
  5
20
330
1F
100
AcDbEntity
  8
0
100
AcDbBlockBegin
  2
*Model_Space
 70
     0
 10
0.0
 20
0.0
 30
0.0
  3
*Model_Space
  1
*Model_Space
  0
ENDBLK
  5
21
330
1F
100
AcDbEntity
  8
0
100
AcDbBlockEnd
  0
BLOCK
  5
1C
330
1B
100
AcDbEntity
 67
     1
  8
0
100
AcDbBlockBegin
  2
*Paper_Space
 70
     0
 10
0.0
 20
0.0
 30
0.0
  3
*Paper_Space
  1
*Paper_Space
  0
ENDBLK
  5
1D
330
1B
100
AcDbEntity
 67
     1
  8
0
100
AcDbBlockEnd
  0
BLOCK
  5
24
330
23
100
AcDbEntity
  8
0
100
AcDbBlockBegin
  2
*Paper_Space0
 70
     0
 10
0.0
 20
0.0
 30
0.0
  3
*Paper_Space0
  1
*Paper_Space0
  0
ENDBLK
  5
25
330
23
100
AcDbEntity
  8
0
100
AcDbBlockEnd
  0
ENDSEC
  0
SECTION
  2
ENTITIES
  0
POLYLINE
  5
6B
330
1F
100
AcDbEntity
  8
fianl-for laser cut
100
AcDb2dPolyline
 66
     1
 10
0.0
 20
0.0
 30
0.0
 70
     1
  0
VERTEX
  5
6C
330
6B
100
AcDbEntity
  8
fianl-for laser cut
100
AcDbVertex
100
AcDb2dVertex
 10
177.9020835072423
 20
-102.6481047254713
 30
0.0
  0
VERTEX
  5
6D
330
6B
100
AcDbEntity
  8
fianl-for laser cut
100
AcDbVertex
100
AcDb2dVertex
 10
182.9020835072423
 20
-102.6481047254713
 30
0.0
  0
VERTEX
  5
6E
330
6B
100
AcDbEntity
  8
fianl-for laser cut
100
AcDbVertex
100
AcDb2dVertex
 10
182.9020835072423
 20
-97.64810472547128
 30
0.0
  0
VERTEX
  5
6F
330
6B
100
AcDbEntity
  8
fianl-for laser cut
100
AcDbVertex
100
AcDb2dVertex
 10
177.9020835072423
 20
-97.64810472547128
 30
0.0
  0
SEQEND
  5
70
330
6B
100
AcDbEntity
  8
fianl-for laser cut
  0
POLYLINE
  5
71
330
1F
100
AcDbEntity
  8
fianl-for laser cut
100
AcDb2dPolyline
 66
     1
 10
0.0
 20
0.0
 30
0.0
  0
VERTEX
  5
72
330
71
100
AcDbEntity
  8
fianl-for laser cut
100
AcDbVertex
100
AcDb2dVertex
 10
157.9020835072423
 20
-226.6481047254713
 30
0.0
  0
VERTEX
  5
73
330
71
100
AcDbEntity
  8
fianl-for laser cut
100
AcDbVertex
100
AcDb2dVertex
 10
157.9020835072423
 20
-122.6481047254713
 30
0.0
  0
VERTEX
  5
74
330
71
100
AcDbEntity
  8
fianl-for laser cut
100
AcDbVertex
100
AcDb2dVertex
 10
118.9020835072423
 20
-122.6481047254713
 30
0.0
  0
SEQEND
  5
75
330
71
100
AcDbEntity
  8
fianl-for laser cut
  0
ARC
  5
76
330
1F
100
AcDbEntity
  8
fianl-for laser cut
100
AcDbCircle
 10
118.9020835072423
 20
-116.6481047254713
 30
0.0
 40
6.0
100
AcDbArc
 50
180.0
 51
270.0
  0
POLYLINE
  5
77
330
1F
100
AcDbEntity
  8
fianl-for laser cut
100
AcDb2dPolyline
 66
     1
 10
0.0
 20
0.0
 30
0.0
  0
VERTEX
  5
78
330
77
100
AcDbEntity
  8
fianl-for laser cut
100
AcDbVertex
100
AcDb2dVertex
 10
112.9020835072423
 20
-116.6481047254713
 30
0.0
  0
VERTEX
  5
79
330
77
100
AcDbEntity
  8
fianl-for laser cut
100
AcDbVertex
100
AcDb2dVertex
 10
112.9020835072423
 20
-83.64810472547128
 30
0.0
  0
SEQEND
  5
7A
330
77
100
AcDbEntity
  8
fianl-for laser cut
  0
ARC
  5
7B
330
1F
100
AcDbEntity
  8
fianl-for laser cut
100
AcDbCircle
 10
118.9020835072423
 20
-83.64810472547128
 30
0.0
 40
6.0
100
AcDbArc
 50
90.0
 51
180.0
  0
POLYLINE
  5
7C
330
1F
100
AcDbEntity
  8
fianl-for laser cut
100
AcDb2dPolyline
 66
     1
 10
0.0
 20
0.0
 30
0.0
  0
VERTEX
  5
7D
330
7C
100
AcDbEntity
  8
fianl-for laser cut
100
AcDbVertex
100
AcDb2dVertex
 10
118.9020835072423
 20
-77.64810472547128
 30
0.0
  0
VERTEX
  5
7E
330
7C
100
AcDbEntity
  8
fianl-for laser cut
100
AcDbVertex
100
AcDb2dVertex
 10
157.9020835072423
 20
-77.64810472547128
 30
0.0
  0
VERTEX
  5
7F
330
7C
100
AcDbEntity
  8
fianl-for laser cut
100
AcDbVertex
100
AcDb2dVertex
 10
157.9020835072423
 20
-38.64810472547128
 30
0.0
  0
SEQEND
  5
80
330
7C
100
AcDbEntity
  8
fianl-for laser cut
  0
ARC
  5
81
330
1F
100
AcDbEntity
  8
fianl-for laser cut
100
AcDbCircle
 10
163.9020835072423
 20
-38.64810472547128
 30
0.0
 40
6.0
100
AcDbArc
 50
89.99999999999892
 51
180.0
  0
POLYLINE
  5
82
330
1F
100
AcDbEntity
  8
fianl-for laser cut
100
AcDb2dPolyline
 66
     1
 10
0.0
 20
0.0
 30
0.0
  0
VERTEX
  5
83
330
82
100
AcDbEntity
  8
fianl-for laser cut
100
AcDbVertex
100
AcDb2dVertex
 10
163.9020835072424
 20
-32.64810472547128
 30
0.0
  0
VERTEX
  5
84
330
82
100
AcDbEntity
  8
fianl-for laser cut
100
AcDbVertex
100
AcDb2dVertex
 10
196.9020835072424
 20
-32.64810472547128
 30
0.0
  0
SEQEND
  5
85
330
82
100
AcDbEntity
  8
fianl-for laser cut
  0
ARC
  5
86
330
1F
100
AcDbEntity
  8
fianl-for laser cut
100
AcDbCircle
 10
196.9020835072422
 20
-38.64810472547128
 30
0.0
 40
6.0
100
AcDbArc
 50
0.0
 51
89.99999999999837
  0
POLYLINE
  5
87
330
1F
100
AcDbEntity
  8
fianl-for laser cut
100
AcDb2dPolyline
 66
     1
 10
0.0
 20
0.0
 30
0.0
  0
VERTEX
  5
88
330
87
100
AcDbEntity
  8
fianl-for laser cut
100
AcDbVertex
100
AcDb2dVertex
 10
202.9020835072422
 20
-38.64810472547128
 30
0.0
  0
VERTEX
  5
89
330
87
100
AcDbEntity
  8
fianl-for laser cut
100
AcDbVertex
100
AcDb2dVertex
 10
202.9020835072422
 20
-77.64810472547128
 30
0.0
  0
VERTEX
  5
8A
330
87
100
AcDbEntity
  8
fianl-for laser cut
100
AcDbVertex
100
AcDb2dVertex
 10
241.9020835072422
 20
-77.64810472547128
 30
0.0
  0
SEQEND
  5
8B
330
87
100
AcDbEntity
  8
fianl-for laser cut
  0
ARC
  5
8C
330
1F
100
AcDbEntity
  8
fianl-for laser cut
100
AcDbCircle
 10
241.9020835072422
 20
-83.64810472547128
 30
0.0
 40
6.0
100
AcDbArc
 50
359.9999999999994
 51
90.0
  0
POLYLINE
  5
8D
330
1F
100
AcDbEntity
  8
fianl-for laser cut
100
AcDb2dPolyline
 66
     1
 10
0.0
 20
0.0
 30
0.0
  0
VERTEX
  5
8E
330
8D
100
AcDbEntity
  8
fianl-for laser cut
100
AcDbVertex
100
AcDb2dVertex
 10
247.9020835072422
 20
-83.64810472547151
 30
0.0
  0
VERTEX
  5
8F
330
8D
100
AcDbEntity
  8
fianl-for laser cut
100
AcDbVertex
100
AcDb2dVertex
 10
247.9020835072422
 20
-116.6481047254715
 30
0.0
  0
SEQEND
  5
90
330
8D
100
AcDbEntity
  8
fianl-for laser cut
  0
ARC
  5
91
330
1F
100
AcDbEntity
  8
fianl-for laser cut
100
AcDbCircle
 10
241.9020835072422
 20
-116.6481047254713
 30
0.0
 40
6.0
100
AcDbArc
 50
269.9999999999989
 51
359.9999999999992
  0
POLYLINE
  5
92
330
1F
100
AcDbEntity
  8
fianl-for laser cut
100
AcDb2dPolyline
 66
     1
 10
0.0
 20
0.0
 30
0.0
  0
VERTEX
  5
93
330
92
100
AcDbEntity
  8
fianl-for laser cut
100
AcDbVertex
100
AcDb2dVertex
 10
241.9020835072422
 20
-122.6481047254713
 30
0.0
  0
VERTEX
  5
94
330
92
100
AcDbEntity
  8
fianl-for laser cut
100
AcDbVertex
100
AcDb2dVertex
 10
202.9020835072422
 20
-122.6481047254713
 30
0.0
  0
VERTEX
  5
95
330
92
100
AcDbEntity
  8
fianl-for laser cut
100
AcDbVertex
100
AcDb2dVertex
 10
202.9020835072422
 20
-226.6481047254713
 30
0.0
  0
SEQEND
  5
96
330
92
100
AcDbEntity
  8
fianl-for laser cut
  0
ARC
  5
97
330
1F
100
AcDbEntity
  8
fianl-for laser cut
100
AcDbCircle
 10
196.9020835072422
 20
-226.6481047254713
 30
0.0
 40
6.0
100
AcDbArc
 50
270.0
 51
0.0
  0
POLYLINE
  5
98
330
1F
100
AcDbEntity
  8
fianl-for laser cut
100
AcDb2dPolyline
 66
     1
 10
0.0
 20
0.0
 30
0.0
  0
VERTEX
  5
99
330
98
100
AcDbEntity
  8
fianl-for laser cut
100
AcDbVertex
100
AcDb2dVertex
 10
196.9020835072422
 20
-232.6481047254713
 30
0.0
  0
VERTEX
  5
9A
330
98
100
AcDbEntity
  8
fianl-for laser cut
100
AcDbVertex
100
AcDb2dVertex
 10
163.9020835072423
 20
-232.6481047254713
 30
0.0
  0
SEQEND
  5
9B
330
98
100
AcDbEntity
  8
fianl-for laser cut
  0
ARC
  5
9C
330
1F
100
AcDbEntity
  8
fianl-for laser cut
100
AcDbCircle
 10
163.9020835072423
 20
-226.6481047254713
 30
0.0
 40
6.0
100
AcDbArc
 50
180.0
 51
270.0
  0
CIRCLE
  5
9D
330
1F
100
AcDbEntity
  8
fianl-for laser cut
100
AcDbCircle
 10
163.9020835072423
 20
-52.64810472547128
 30
0.0
 40
1.5
  0
POLYLINE
  5
9E
330
1F
100
AcDbEntity
  8
fianl-for laser cut
100
AcDb2dPolyline
 66
     1
 10
0.0
 20
0.0
 30
0.0
  0
VERTEX
  5
9F
330
9E
100
AcDbEntity
  8
fianl-for laser cut
100
AcDbVertex
100
AcDb2dVertex
 10
-475.0000000000017
 20
78.99897619656599
 30
0.0
  0
VERTEX
  5
A0
330
9E
100
AcDbEntity
  8
fianl-for laser cut
100
AcDbVertex
100
AcDb2dVertex
 10
-475.0000000000018
 20
312.9962861203446
 30
0.0
  0
SEQEND
  5
A1
330
9E
100
AcDbEntity
  8
fianl-for laser cut
  0
SPLINE
  5
A2
330
1F
100
AcDbEntity
  8
fianl-for laser cut
100
AcDbSpline
210
0.0
220
0.0
230
1.0
 70
    12
 71
     2
 72
     8
 73
     5
 74
     0
 42
0.000000001
 43
0.0000000001
 40
0.0
 40
0.0
 40
0.0
 40
6.285553750449167
 40
6.285553750449167
 40
12.57110750089833
 40
12.57110750089833
 40
12.57110750089833
 10
-475.0000000000017
 20
312.9962861203446
 30
0.0
 41
1.0
 10
-475.0000000000016
 20
316.3109578555272
 30
0.0
 41
0.9238228746393912
 10
-472.6567854405479
 20
318.6554789277634
 30
0.0
 41
1.0
 10
-470.3135708810943
 20
320.9999999999999
 30
0.0
 41
0.9238228746393912
 10
-467.0007462869094
 20
320.9999999999998
 30
0.0
 41
1.0
  0
POLYLINE
  5
A3
330
1F
100
AcDbEntity
  8
fianl-for laser cut
100
AcDb2dPolyline
 66
     1
 10
0.0
 20
0.0
 30
0.0
  0
VERTEX
  5
A4
330
A3
100
AcDbEntity
  8
fianl-for laser cut
100
AcDbVertex
100
AcDb2dVertex
 10
-467.0007462869094
 20
320.9999999999998
 30
0.0
  0
VERTEX
  5
A5
330
A3
100
AcDbEntity
  8
fianl-for laser cut
100
AcDbVertex
100
AcDb2dVertex
 10
-366.9999999996894
 20
321.0
 30
0.0
  0
VERTEX
  5
A6
330
A3
100
AcDbEntity
  8
fianl-for laser cut
100
AcDbVertex
100
AcDb2dVertex
 10
-366.9999999996894
 20
305.0
 30
0.0
  0
SEQEND
  5
A7
330
A3
100
AcDbEntity
  8
fianl-for laser cut
  0
POLYLINE
  5
A8
330
1F
100
AcDbEntity
  8
fianl-for laser cut
100
AcDb2dPolyline
 66
     1
 10
0.0
 20
0.0
 30
0.0
  0
VERTEX
  5
A9
330
A8
100
AcDbEntity
  8
fianl-for laser cut
100
AcDbVertex
100
AcDb2dVertex
 10
-366.9999999996894
 20
305.0
 30
0.0
  0
VERTEX
  5
AA
330
A8
100
AcDbEntity
  8
fianl-for laser cut
100
AcDbVertex
100
AcDb2dVertex
 10
-459.0
 20
305.0
 30
0.0
  0
VERTEX
  5
AB
330
A8
100
AcDbEntity
  8
fianl-for laser cut
100
AcDbVertex
100
AcDb2dVertex
 10
-459.0
 20
87.0
 30
0.0
  0
VERTEX
  5
AC
330
A8
100
AcDbEntity
  8
fianl-for laser cut
100
AcDbVertex
100
AcDb2dVertex
 10
-367.0
 20
87.0
 30
0.0
  0
VERTEX
  5
AD
330
A8
100
AcDbEntity
  8
fianl-for laser cut
100
AcDbVertex
100
AcDb2dVertex
 10
-366.9999999996894
 20
71.0
 30
0.0
  0
VERTEX
  5
AE
330
A8
100
AcDbEntity
  8
fianl-for laser cut
100
AcDbVertex
100
AcDb2dVertex
 10
-467.0000000000017
 20
71.0
 30
0.0
  0
SEQEND
  5
AF
330
A8
100
AcDbEntity
  8
fianl-for laser cut
  0
SPLINE
  5
B0
330
1F
100
AcDbEntity
  8
fianl-for laser cut
100
AcDbSpline
210
0.0
220
0.0
230
1.0
 70
    12
 71
     2
 72
     6
 73
     3
 74
     0
 42
0.000000001
 43
0.0000000001
 40
0.0
 40
0.0
 40
0.0
 40
12.56637061435906
 40
12.56637061435906
 40
12.56637061435906
 10
-467.0000000000017
 20
71.00000000000023
 30
0.0
 41
1.0
 10
-475.0000000000016
 20
71.00000000000023
 30
0.0
 41
0.7071067811865526
 10
-475.0000000000017
 20
78.99897619656599
 30
0.0
 41
1.0
  0
POLYLINE
  5
B1
330
1F
100
AcDbEntity
  8
fianl-for laser cut
100
AcDb2dPolyline
 66
     1
 10
0.0
 20
0.0
 30
0.0
  0
VERTEX
  5
B2
330
B1
100
AcDbEntity
  8
fianl-for laser cut
100
AcDbVertex
100
AcDb2dVertex
 10
-346.000000000123
 20
39.99897619651028
 30
0.0
  0
VERTEX
  5
B3
330
B1
100
AcDbEntity
  8
fianl-for laser cut
100
AcDbVertex
100
AcDb2dVertex
 10
-345.9999999995017
 20
273.9962861202889
 30
0.0
  0
SEQEND
  5
B4
330
B1
100
AcDbEntity
  8
fianl-for laser cut
  0
SPLINE
  5
B5
330
1F
100
AcDbEntity
  8
fianl-for laser cut
100
AcDbSpline
210
0.0
220
0.0
230
1.0
 70
    12
 71
     2
 72
     8
 73
     5
 74
     0
 42
0.000000001
 43
0.0000000001
 40
0.0
 40
0.0
 40
0.0
 40
6.285553750449167
 40
6.285553750449167
 40
12.57110750089833
 40
12.57110750089833
 40
12.57110750089833
 10
-345.9999999995018
 20
273.9962861202889
 30
0.0
 41
1.0
 10
-345.999999999493
 20
277.3109578554714
 30
0.0
 41
0.9238228746393912
 10
-348.3432145589406
 20
279.6554789277138
 30
0.0
 41
1.0
 10
-350.686429118388
 20
281.9999999999566
 30
0.0
 41
0.9238228746393912
 10
-353.9992537125729
 20
281.9999999999652
 30
0.0
 41
1.0
  0
POLYLINE
  5
B6
330
1F
100
AcDbEntity
  8
fianl-for laser cut
100
AcDb2dPolyline
 66
     1
 10
0.0
 20
0.0
 30
0.0
  0
VERTEX
  5
B7
330
B6
100
AcDbEntity
  8
fianl-for laser cut
100
AcDbVertex
100
AcDb2dVertex
 10
-353.9992537125729
 20
281.9999999999652
 30
0.0
  0
VERTEX
  5
B8
330
B6
100
AcDbEntity
  8
fianl-for laser cut
100
AcDbVertex
100
AcDb2dVertex
 10
-453.9999999997929
 20
282.000000000231
 30
0.0
  0
VERTEX
  5
B9
330
B6
100
AcDbEntity
  8
fianl-for laser cut
100
AcDbVertex
100
AcDb2dVertex
 10
-453.9999999998354
 20
266.000000000231
 30
0.0
  0
SEQEND
  5
BA
330
B6
100
AcDbEntity
  8
fianl-for laser cut
  0
POLYLINE
  5
BB
330
1F
100
AcDbEntity
  8
fianl-for laser cut
100
AcDb2dPolyline
 66
     1
 10
0.0
 20
0.0
 30
0.0
  0
VERTEX
  5
BC
330
BB
100
AcDbEntity
  8
fianl-for laser cut
100
AcDbVertex
100
AcDb2dVertex
 10
-453.9999999998354
 20
266.000000000231
 30
0.0
  0
VERTEX
  5
BD
330
BB
100
AcDbEntity
  8
fianl-for laser cut
100
AcDbVertex
100
AcDb2dVertex
 10
-361.9999999995248
 20
265.9999999999868
 30
0.0
  0
VERTEX
  5
BE
330
BB
100
AcDbEntity
  8
fianl-for laser cut
100
AcDbVertex
100
AcDb2dVertex
 10
-362.0000000001035
 20
47.99999999998681
 30
0.0
  0
VERTEX
  5
BF
330
BB
100
AcDbEntity
  8
fianl-for laser cut
100
AcDbVertex
100
AcDb2dVertex
 10
-454.0000000001035
 20
48.00000000023101
 30
0.0
  0
VERTEX
  5
C0
330
BB
100
AcDbEntity
  8
fianl-for laser cut
100
AcDbVertex
100
AcDb2dVertex
 10
-454.0000000004566
 20
32.00000000023101
 30
0.0
  0
VERTEX
  5
C1
330
BB
100
AcDbEntity
  8
fianl-for laser cut
100
AcDbVertex
100
AcDb2dVertex
 10
-354.0000000001443
 20
31.99999999996544
 30
0.0
  0
SEQEND
  5
C2
330
BB
100
AcDbEntity
  8
fianl-for laser cut
  0
SPLINE
  5
C3
330
1F
100
AcDbEntity
  8
fianl-for laser cut
100
AcDbSpline
210
0.0
220
0.0
230
1.0
 70
    12
 71
     2
 72
     6
 73
     3
 74
     0
 42
0.000000001
 43
0.0000000001
 40
0.0
 40
0.0
 40
0.0
 40
12.56637061435906
 40
12.56637061435906
 40
12.56637061435906
 10
-354.0000000001443
 20
31.99999999996567
 30
0.0
 41
1.0
 10
-346.0000000001444
 20
31.9999999999444
 30
0.0
 41
0.7071067811865526
 10
-346.000000000123
 20
39.99897619651028
 30
0.0
 41
1.0
  0
POLYLINE
  5
C4
330
1F
100
AcDbEntity
  8
fianl-for laser cut
100
AcDb2dPolyline
 66
     1
 10
0.0
 20
0.0
 30
0.0
  0
VERTEX
  5
C5
330
C4
100
AcDbEntity
  8
fianl-for laser cut
100
AcDbVertex
100
AcDb2dVertex
 10
-175.0000000000002
 20
-245.0
 30
0.0
  0
VERTEX
  5
C6
330
C4
100
AcDbEntity
  8
fianl-for laser cut
100
AcDbVertex
100
AcDb2dVertex
 10
-175.0
 20
-85.00000000000011
 30
0.0
  0
SEQEND
  5
C7
330
C4
100
AcDbEntity
  8
fianl-for laser cut
  0
ARC
  5
C8
330
1F
100
AcDbEntity
  8
fianl-for laser cut
100
AcDbCircle
 10
-183.0
 20
-85.0
 30
0.0
 40
8.0
100
AcDbArc
 50
359.9999999999992
 51
89.9999999999998
  0
POLYLINE
  5
C9
330
1F
100
AcDbEntity
  8
fianl-for laser cut
100
AcDb2dPolyline
 66
     1
 10
0.0
 20
0.0
 30
0.0
  0
VERTEX
  5
CA
330
C9
100
AcDbEntity
  8
fianl-for laser cut
100
AcDbVertex
100
AcDb2dVertex
 10
-183.0
 20
-77.0
 30
0.0
  0
VERTEX
  5
CB
330
C9
100
AcDbEntity
  8
fianl-for laser cut
100
AcDbVertex
100
AcDb2dVertex
 10
-417.0
 20
-77.0
 30
0.0
  0
SEQEND
  5
CC
330
C9
100
AcDbEntity
  8
fianl-for laser cut
  0
ARC
  5
CD
330
1F
100
AcDbEntity
  8
fianl-for laser cut
100
AcDbCircle
 10
-417.0
 20
-85.0
 30
0.0
 40
8.0
100
AcDbArc
 50
90.0
 51
180.0
  0
POLYLINE
  5
CE
330
1F
100
AcDbEntity
  8
fianl-for laser cut
100
AcDb2dPolyline
 66
     1
 10
0.0
 20
0.0
 30
0.0
  0
VERTEX
  5
CF
330
CE
100
AcDbEntity
  8
fianl-for laser cut
100
AcDbVertex
100
AcDb2dVertex
 10
-425.0
 20
-85.0
 30
0.0
  0
VERTEX
  5
D0
330
CE
100
AcDbEntity
  8
fianl-for laser cut
100
AcDbVertex
100
AcDb2dVertex
 10
-425.0
 20
-245.0
 30
0.0
  0
SEQEND
  5
D1
330
CE
100
AcDbEntity
  8
fianl-for laser cut
  0
LINE
  5
D2
330
1F
100
AcDbEntity
  8
fianl-for laser cut
100
AcDbLine
 10
-425.0
 20
-245.0
 30
0.0
 11
-175.0000000000002
 21
-245.0
 31
0.0
  0
POLYLINE
  5
D3
330
1F
100
AcDbEntity
  8
fianl-for laser cut
100
AcDb2dPolyline
 66
     1
 10
0.0
 20
0.0
 30
0.0
 70
     1
  0
VERTEX
  5
D4
330
D3
100
AcDbEntity
  8
fianl-for laser cut
100
AcDbVertex
100
AcDb2dVertex
 10
-405.0
 20
-153.0
 30
0.0
  0
VERTEX
  5
D5
330
D3
100
AcDbEntity
  8
fianl-for laser cut
100
AcDbVertex
100
AcDb2dVertex
 10
-409.0
 20
-153.0
 30
0.0
  0
VERTEX
  5
D6
330
D3
100
AcDbEntity
  8
fianl-for laser cut
100
AcDbVertex
100
AcDb2dVertex
 10
-409.0
 20
-133.0
 30
0.0
  0
VERTEX
  5
D7
330
D3
100
AcDbEntity
  8
fianl-for laser cut
100
AcDbVertex
100
AcDb2dVertex
 10
-405.0
 20
-133.0
 30
0.0
  0
SEQEND
  5
D8
330
D3
100
AcDbEntity
  8
fianl-for laser cut
  0
POLYLINE
  5
D9
330
1F
100
AcDbEntity
  8
fianl-for laser cut
100
AcDb2dPolyline
 66
     1
 10
0.0
 20
0.0
 30
0.0
 70
     1
  0
VERTEX
  5
DA
330
D9
100
AcDbEntity
  8
fianl-for laser cut
100
AcDbVertex
100
AcDb2dVertex
 10
-405.0
 20
-213.0
 30
0.0
  0
VERTEX
  5
DB
330
D9
100
AcDbEntity
  8
fianl-for laser cut
100
AcDbVertex
100
AcDb2dVertex
 10
-409.0
 20
-213.0
 30
0.0
  0
VERTEX
  5
DC
330
D9
100
AcDbEntity
  8
fianl-for laser cut
100
AcDbVertex
100
AcDb2dVertex
 10
-409.0
 20
-193.0
 30
0.0
  0
VERTEX
  5
DD
330
D9
100
AcDbEntity
  8
fianl-for laser cut
100
AcDbVertex
100
AcDb2dVertex
 10
-405.0
 20
-193.0
 30
0.0
  0
SEQEND
  5
DE
330
D9
100
AcDbEntity
  8
fianl-for laser cut
  0
POLYLINE
  5
DF
330
1F
100
AcDbEntity
  8
fianl-for laser cut
100
AcDb2dPolyline
 66
     1
 10
0.0
 20
0.0
 30
0.0
 70
     1
  0
VERTEX
  5
E0
330
DF
100
AcDbEntity
  8
fianl-for laser cut
100
AcDbVertex
100
AcDb2dVertex
 10
-371.0
 20
-93.0
 30
0.0
  0
VERTEX
  5
E1
330
DF
100
AcDbEntity
  8
fianl-for laser cut
100
AcDbVertex
100
AcDb2dVertex
 10
-371.0
 20
-97.0
 30
0.0
  0
VERTEX
  5
E2
330
DF
100
AcDbEntity
  8
fianl-for laser cut
100
AcDbVertex
100
AcDb2dVertex
 10
-351.0
 20
-97.0
 30
0.0
  0
VERTEX
  5
E3
330
DF
100
AcDbEntity
  8
fianl-for laser cut
100
AcDbVertex
100
AcDb2dVertex
 10
-351.0
 20
-93.0
 30
0.0
  0
SEQEND
  5
E4
330
DF
100
AcDbEntity
  8
fianl-for laser cut
  0
POLYLINE
  5
E5
330
1F
100
AcDbEntity
  8
fianl-for laser cut
100
AcDb2dPolyline
 66
     1
 10
0.0
 20
0.0
 30
0.0
 70
     1
  0
VERTEX
  5
E6
330
E5
100
AcDbEntity
  8
fianl-for laser cut
100
AcDbVertex
100
AcDb2dVertex
 10
-251.0
 20
-93.0
 30
0.0
  0
VERTEX
  5
E7
330
E5
100
AcDbEntity
  8
fianl-for laser cut
100
AcDbVertex
100
AcDb2dVertex
 10
-251.0
 20
-97.0
 30
0.0
  0
VERTEX
  5
E8
330
E5
100
AcDbEntity
  8
fianl-for laser cut
100
AcDbVertex
100
AcDb2dVertex
 10
-231.0
 20
-97.0
 30
0.0
  0
VERTEX
  5
E9
330
E5
100
AcDbEntity
  8
fianl-for laser cut
100
AcDbVertex
100
AcDb2dVertex
 10
-231.0
 20
-93.0
 30
0.0
  0
SEQEND
  5
EA
330
E5
100
AcDbEntity
  8
fianl-for laser cut
  0
POLYLINE
  5
EB
330
1F
100
AcDbEntity
  8
fianl-for laser cut
100
AcDb2dPolyline
 66
     1
 10
0.0
 20
0.0
 30
0.0
 70
     1
  0
VERTEX
  5
EC
330
EB
100
AcDbEntity
  8
fianl-for laser cut
100
AcDbVertex
100
AcDb2dVertex
 10
-195.0
 20
-213.0
 30
0.0
  0
VERTEX
  5
ED
330
EB
100
AcDbEntity
  8
fianl-for laser cut
100
AcDbVertex
100
AcDb2dVertex
 10
-191.0
 20
-213.0
 30
0.0
  0
VERTEX
  5
EE
330
EB
100
AcDbEntity
  8
fianl-for laser cut
100
AcDbVertex
100
AcDb2dVertex
 10
-191.0
 20
-193.0
 30
0.0
  0
VERTEX
  5
EF
330
EB
100
AcDbEntity
  8
fianl-for laser cut
100
AcDbVertex
100
AcDb2dVertex
 10
-195.0
 20
-193.0
 30
0.0
  0
SEQEND
  5
F0
330
EB
100
AcDbEntity
  8
fianl-for laser cut
  0
POLYLINE
  5
F1
330
1F
100
AcDbEntity
  8
fianl-for laser cut
100
AcDb2dPolyline
 66
     1
 10
0.0
 20
0.0
 30
0.0
 70
     1
  0
VERTEX
  5
F2
330
F1
100
AcDbEntity
  8
fianl-for laser cut
100
AcDbVertex
100
AcDb2dVertex
 10
-195.0
 20
-153.0
 30
0.0
  0
VERTEX
  5
F3
330
F1
100
AcDbEntity
  8
fianl-for laser cut
100
AcDbVertex
100
AcDb2dVertex
 10
-191.0
 20
-153.0
 30
0.0
  0
VERTEX
  5
F4
330
F1
100
AcDbEntity
  8
fianl-for laser cut
100
AcDbVertex
100
AcDb2dVertex
 10
-191.0
 20
-133.0
 30
0.0
  0
VERTEX
  5
F5
330
F1
100
AcDbEntity
  8
fianl-for laser cut
100
AcDbVertex
100
AcDb2dVertex
 10
-195.0
 20
-133.0
 30
0.0
  0
SEQEND
  5
F6
330
F1
100
AcDbEntity
  8
fianl-for laser cut
  0
POLYLINE
  5
F7
330
1F
100
AcDbEntity
  8
fianl-for laser cut
100
AcDb2dPolyline
 66
     1
 10
0.0
 20
0.0
 30
0.0
 70
     1
  0
VERTEX
  5
F8
330
F7
100
AcDbEntity
  8
fianl-for laser cut
100
AcDbVertex
100
AcDb2dVertex
 10
-311.0
 20
-97.0
 30
0.0
  0
VERTEX
  5
F9
330
F7
100
AcDbEntity
  8
fianl-for laser cut
100
AcDbVertex
100
AcDb2dVertex
 10
-311.0
 20
-93.0
 30
0.0
  0
VERTEX
  5
FA
330
F7
100
AcDbEntity
  8
fianl-for laser cut
100
AcDbVertex
100
AcDb2dVertex
 10
-323.5
 20
-93.0
 30
0.0
  0
VERTEX
  5
FB
330
F7
100
AcDbEntity
  8
fianl-for laser cut
100
AcDbVertex
100
AcDb2dVertex
 10
-323.5
 20
-88.0
 30
0.0
  0
VERTEX
  5
FC
330
F7
100
AcDbEntity
  8
fianl-for laser cut
100
AcDbVertex
100
AcDb2dVertex
 10
-315.0
 20
-88.0
 30
0.0
  0
VERTEX
  5
FD
330
F7
100
AcDbEntity
  8
fianl-for laser cut
100
AcDbVertex
100
AcDb2dVertex
 10
-315.0
 20
-80.0
 30
0.0
  0
VERTEX
  5
FE
330
F7
100
AcDbEntity
  8
fianl-for laser cut
100
AcDbVertex
100
AcDb2dVertex
 10
-287.0
 20
-80.0
 30
0.0
  0
VERTEX
  5
FF
330
F7
100
AcDbEntity
  8
fianl-for laser cut
100
AcDbVertex
100
AcDb2dVertex
 10
-287.0
 20
-88.0
 30
0.0
  0
VERTEX
  5
100
330
F7
100
AcDbEntity
  8
fianl-for laser cut
100
AcDbVertex
100
AcDb2dVertex
 10
-278.5
 20
-88.0
 30
0.0
  0
VERTEX
  5
101
330
F7
100
AcDbEntity
  8
fianl-for laser cut
100
AcDbVertex
100
AcDb2dVertex
 10
-278.5
 20
-93.0
 30
0.0
  0
VERTEX
  5
102
330
F7
100
AcDbEntity
  8
fianl-for laser cut
100
AcDbVertex
100
AcDb2dVertex
 10
-291.0
 20
-93.0
 30
0.0
  0
VERTEX
  5
103
330
F7
100
AcDbEntity
  8
fianl-for laser cut
100
AcDbVertex
100
AcDb2dVertex
 10
-291.0
 20
-97.0
 30
0.0
  0
SEQEND
  5
104
330
F7
100
AcDbEntity
  8
fianl-for laser cut
  0
SPLINE
  5
105
330
1F
100
AcDbEntity
  8
fianl-for laser cut
100
AcDbSpline
210
0.0
220
0.0
230
1.0
 70
    15
 71
     2
 72
    12
 73
     9
 74
     0
 42
0.000000001
 43
0.0000000001
 40
0.0
 40
0.0
 40
0.0
 40
2.356194490192345
 40
2.356194490192345
 40
4.71238898038469
 40
4.71238898038469
 40
7.068583470577035
 40
7.068583470577035
 40
9.42477796076938
 40
9.42477796076938
 40
9.42477796076938
 10
-401.9999999999993
 20
-359.5000000000007
 30
0.0
 41
1.0
 10
-403.4999999999993
 20
-359.5000000000007
 30
0.0
 41
0.7071067811865476
 10
-403.4999999999993
 20
-361.0000000000007
 30
0.0
 41
1.0
 10
-403.4999999999993
 20
-362.5000000000007
 30
0.0
 41
0.7071067811865476
 10
-401.9999999999993
 20
-362.5000000000007
 30
0.0
 41
1.0
 10
-400.4999999999991
 20
-362.5000000000007
 30
0.0
 41
0.7071067811865476
 10
-400.4999999999993
 20
-361.0000000000007
 30
0.0
 41
1.0
 10
-400.4999999999991
 20
-359.5000000000007
 30
0.0
 41
0.7071067811865476
 10
-401.9999999999993
 20
-359.5000000000007
 30
0.0
 41
1.0
  0
SPLINE
  5
106
330
1F
100
AcDbEntity
  8
fianl-for laser cut
100
AcDbSpline
210
0.0
220
0.0
230
1.0
 70
    15
 71
     2
 72
    12
 73
     9
 74
     0
 42
0.000000001
 43
0.0000000001
 40
0.0
 40
0.0
 40
0.0
 40
2.356194490192345
 40
2.356194490192345
 40
4.71238898038469
 40
4.71238898038469
 40
7.068583470577035
 40
7.068583470577035
 40
9.42477796076938
 40
9.42477796076938
 40
9.42477796076938
 10
-401.9999999999993
 20
-311.5000000000007
 30
0.0
 41
1.0
 10
-403.4999999999993
 20
-311.5000000000006
 30
0.0
 41
0.7071067811865476
 10
-403.4999999999993
 20
-313.0000000000007
 30
0.0
 41
1.0
 10
-403.4999999999993
 20
-314.5000000000007
 30
0.0
 41
0.7071067811865476
 10
-401.9999999999993
 20
-314.5000000000007
 30
0.0
 41
1.0
 10
-400.4999999999991
 20
-314.5000000000007
 30
0.0
 41
0.7071067811865476
 10
-400.4999999999993
 20
-313.0000000000007
 30
0.0
 41
1.0
 10
-400.4999999999991
 20
-311.5000000000006
 30
0.0
 41
0.7071067811865476
 10
-401.9999999999993
 20
-311.5000000000007
 30
0.0
 41
1.0
  0
SPLINE
  5
107
330
1F
100
AcDbEntity
  8
fianl-for laser cut
100
AcDbSpline
210
0.0
220
0.0
230
1.0
 70
    11
 71
     2
 72
    12
 73
     9
 74
     0
 42
0.000000001
 43
0.0000000001
 40
0.0
 40
0.0
 40
0.0
 40
19.99999999999994
 40
19.99999999999994
 40
24.99999999999994
 40
24.99999999999994
 40
44.99999999999988
 40
44.99999999999988
 40
49.99999999999987
 40
49.99999999999987
 40
49.99999999999987
 10
-349.9999999999993
 20
-347.0000000000007
 30
0.0
 10
-349.9999999999993
 20
-337.0000000000007
 30
0.0
 10
-349.9999999999993
 20
-327.0000000000007
 30
0.0
 10
-351.9999999999993
 20
-327.0000000000007
 30
0.0
 10
-353.9999999999993
 20
-327.0000000000007
 30
0.0
 10
-353.9999999999993
 20
-337.0000000000007
 30
0.0
 10
-353.9999999999993
 20
-347.0000000000007
 30
0.0
 10
-351.9999999999993
 20
-347.0000000000007
 30
0.0
 10
-349.9999999999993
 20
-347.0000000000007
 30
0.0
  0
SPLINE
  5
108
330
1F
100
AcDbEntity
  8
fianl-for laser cut
100
AcDbSpline
210
0.0
220
0.0
230
1.0
 70
    15
 71
     2
 72
    12
 73
     9
 74
     0
 42
0.000000001
 43
0.0000000001
 40
0.0
 40
0.0
 40
0.0
 40
21.59844949342983
 40
21.59844949342983
 40
43.19689898685966
 40
43.19689898685966
 40
64.79534848028949
 40
64.79534848028949
 40
86.39379797371932
 40
86.39379797371932
 40
86.39379797371932
 10
-401.9999999999993
 20
-322.2500000000007
 30
0.0
 41
1.0
 10
-416.7499999999993
 20
-322.2500000000007
 30
0.0
 41
0.7071067811865476
 10
-416.7499999999993
 20
-337.0000000000007
 30
0.0
 41
1.0
 10
-416.7499999999993
 20
-351.7500000000007
 30
0.0
 41
0.7071067811865476
 10
-401.9999999999993
 20
-351.7500000000007
 30
0.0
 41
1.0
 10
-387.2499999999991
 20
-351.7500000000007
 30
0.0
 41
0.7071067811865476
 10
-387.2499999999993
 20
-337.0000000000007
 30
0.0
 41
1.0
 10
-387.2499999999991
 20
-322.2500000000007
 30
0.0
 41
0.7071067811865476
 10
-401.9999999999993
 20
-322.2500000000007
 30
0.0
 41
1.0
  0
LINE
  5
109
330
1F
100
AcDbEntity
  8
fianl-for laser cut
100
AcDbLine
 10
-309.9999999999993
 20
-367.0000000000007
 30
0.0
 11
-309.9999999999993
 21
-363.0000000000007
 31
0.0
  0
LINE
  5
10A
330
1F
100
AcDbEntity
  8
fianl-for laser cut
100
AcDbLine
 10
-309.9999999999993
 20
-311.0000000000007
 30
0.0
 11
-309.9999999999993
 21
-307.0000000000007
 31
0.0
  0
POLYLINE
  5
10B
330
1F
100
AcDbEntity
  8
fianl-for laser cut
100
AcDb2dPolyline
 66
     1
 10
0.0
 20
0.0
 30
0.0
 70
     1
  0
VERTEX
  5
10C
330
10B
100
AcDbEntity
  8
fianl-for laser cut
100
AcDbVertex
100
AcDb2dVertex
 10
-306.0000000000487
 20
-316.9999999999583
 30
0.0
  0
VERTEX
  5
10D
330
10B
100
AcDbEntity
  8
fianl-for laser cut
100
AcDbVertex
100
AcDb2dVertex
 10
-306.0000000000487
 20
-296.9999999999583
 30
0.0
  0
VERTEX
  5
10E
330
10B
100
AcDbEntity
  8
fianl-for laser cut
100
AcDbVertex
100
AcDb2dVertex
 10
-310.0000000000512
 20
-296.9999999999583
 30
0.0
  0
VERTEX
  5
10F
330
10B
100
AcDbEntity
  8
fianl-for laser cut
100
AcDbVertex
100
AcDb2dVertex
 10
-310.0000000000512
 20
-316.9999999999583
 30
0.0
  0
SEQEND
  5
110
330
10B
100
AcDbEntity
  8
fianl-for laser cut
  0
POLYLINE
  5
111
330
1F
100
AcDbEntity
  8
fianl-for laser cut
100
AcDb2dPolyline
 66
     1
 10
0.0
 20
0.0
 30
0.0
 70
     1
  0
VERTEX
  5
112
330
111
100
AcDbEntity
  8
fianl-for laser cut
100
AcDbVertex
100
AcDb2dVertex
 10
-306.0000000000487
 20
-376.9999999999583
 30
0.0
  0
VERTEX
  5
113
330
111
100
AcDbEntity
  8
fianl-for laser cut
100
AcDbVertex
100
AcDb2dVertex
 10
-306.0000000000487
 20
-356.9999999999583
 30
0.0
  0
VERTEX
  5
114
330
111
100
AcDbEntity
  8
fianl-for laser cut
100
AcDbVertex
100
AcDb2dVertex
 10
-309.9999999999993
 20
-356.9999999999583
 30
0.0
  0
VERTEX
  5
115
330
111
100
AcDbEntity
  8
fianl-for laser cut
100
AcDbVertex
100
AcDb2dVertex
 10
-309.9999999999993
 20
-376.9999999999583
 30
0.0
  0
SEQEND
  5
116
330
111
100
AcDbEntity
  8
fianl-for laser cut
  0
LINE
  5
117
330
1F
100
AcDbEntity
  8
fianl-for laser cut
100
AcDbLine
 10
-169.9999999999993
 20
-317.0
 30
0.0
 11
-169.9999999999993
 21
-281.0
 31
0.0
  0
LINE
  5
118
330
1F
100
AcDbEntity
  8
fianl-for laser cut
100
AcDbLine
 10
-169.9999999999993
 20
-281.0
 30
0.0
 11
-184.9999999999993
 21
-281.0
 31
0.0
  0
LINE
  5
119
330
1F
100
AcDbEntity
  8
fianl-for laser cut
100
AcDbLine
 10
-184.9999999999993
 20
-281.0
 30
0.0
 11
-184.9999999999993
 21
-277.0
 31
0.0
  0
LINE
  5
11A
330
1F
100
AcDbEntity
  8
fianl-for laser cut
100
AcDbLine
 10
-184.9999999999993
 20
-277.0
 30
0.0
 11
-199.9999999999993
 21
-277.0
 31
0.0
  0
LINE
  5
11B
330
1F
100
AcDbEntity
  8
fianl-for laser cut
100
AcDbLine
 10
-199.9999999999993
 20
-277.0
 30
0.0
 11
-199.9999999999993
 21
-281.0
 31
0.0
  0
LINE
  5
11C
330
1F
100
AcDbEntity
  8
fianl-for laser cut
100
AcDbLine
 10
-199.9999999999993
 20
-281.0
 30
0.0
 11
-214.9999999999993
 21
-281.0
 31
0.0
  0
LINE
  5
11D
330
1F
100
AcDbEntity
  8
fianl-for laser cut
100
AcDbLine
 10
-214.9999999999993
 20
-281.0
 30
0.0
 11
-214.9999999999993
 21
-277.0
 31
0.0
  0
LINE
  5
11E
330
1F
100
AcDbEntity
  8
fianl-for laser cut
100
AcDbLine
 10
-214.9999999999993
 20
-277.0
 30
0.0
 11
-229.9999999999993
 21
-277.0
 31
0.0
  0
LINE
  5
11F
330
1F
100
AcDbEntity
  8
fianl-for laser cut
100
AcDbLine
 10
-229.9999999999993
 20
-277.0
 30
0.0
 11
-229.9999999999993
 21
-281.0
 31
0.0
  0
LINE
  5
120
330
1F
100
AcDbEntity
  8
fianl-for laser cut
100
AcDbLine
 10
-229.9999999999993
 20
-281.0
 30
0.0
 11
-244.9999999999993
 21
-281.0
 31
0.0
  0
LINE
  5
121
330
1F
100
AcDbEntity
  8
fianl-for laser cut
100
AcDbLine
 10
-244.9999999999993
 20
-281.0
 30
0.0
 11
-244.9999999999993
 21
-277.0
 31
0.0
  0
LINE
  5
122
330
1F
100
AcDbEntity
  8
fianl-for laser cut
100
AcDbLine
 10
-244.9999999999993
 20
-277.0
 30
0.0
 11
-259.9999999999993
 21
-277.0
 31
0.0
  0
LINE
  5
123
330
1F
100
AcDbEntity
  8
fianl-for laser cut
100
AcDbLine
 10
-259.9999999999993
 20
-277.0
 30
0.0
 11
-259.9999999999993
 21
-281.0
 31
0.0
  0
LINE
  5
124
330
1F
100
AcDbEntity
  8
fianl-for laser cut
100
AcDbLine
 10
-259.9999999999993
 20
-281.0
 30
0.0
 11
-269.9999999999993
 21
-281.0
 31
0.0
  0
LINE
  5
125
330
1F
100
AcDbEntity
  8
fianl-for laser cut
100
AcDbLine
 10
-269.9999999999993
 20
-281.0
 30
0.0
 11
-269.9999999999993
 21
-277.0
 31
0.0
  0
LINE
  5
126
330
1F
100
AcDbEntity
  8
fianl-for laser cut
100
AcDbLine
 10
-269.9999999999993
 20
-277.0
 30
0.0
 11
-309.9999999999993
 21
-277.0
 31
0.0
  0
LINE
  5
127
330
1F
100
AcDbEntity
  8
fianl-for laser cut
100
AcDbLine
 10
-309.9999999999993
 20
-277.0
 30
0.0
 11
-423.94028500029
 21
-305.4850712500727
 31
0.0
  0
ARC
  5
128
330
1F
100
AcDbEntity
  8
fianl-for laser cut
100
AcDbCircle
 10
-421.9999999999993
 20
-313.2462112512353
 30
0.0
 40
8.0
100
AcDbArc
 50
104.0362434679264
 51
180.0
  0
LINE
  5
129
330
1F
100
AcDbEntity
  8
fianl-for laser cut
100
AcDbLine
 10
-429.9999999999993
 20
-313.2462112512353
 30
0.0
 11
-429.9999999999993
 21
-360.7537887487647
 31
0.0
  0
ARC
  5
12A
330
1F
100
AcDbEntity
  8
fianl-for laser cut
100
AcDbCircle
 10
-421.9999999999993
 20
-360.7537887487647
 30
0.0
 40
8.0
100
AcDbArc
 50
180.0
 51
255.9637565320735
  0
LINE
  5
12B
330
1F
100
AcDbEntity
  8
fianl-for laser cut
100
AcDbLine
 10
-423.94028500029
 20
-368.5149287499273
 30
0.0
 11
-309.9999999999993
 21
-397.0
 31
0.0
  0
LINE
  5
12C
330
1F
100
AcDbEntity
  8
fianl-for laser cut
100
AcDbLine
 10
-309.9999999999993
 20
-397.0
 30
0.0
 11
-269.9999999999993
 21
-397.0
 31
0.0
  0
LINE
  5
12D
330
1F
100
AcDbEntity
  8
fianl-for laser cut
100
AcDbLine
 10
-269.9999999999993
 20
-397.0
 30
0.0
 11
-269.9999999999993
 21
-393.0
 31
0.0
  0
LINE
  5
12E
330
1F
100
AcDbEntity
  8
fianl-for laser cut
100
AcDbLine
 10
-269.9999999999993
 20
-393.0
 30
0.0
 11
-259.9999999999993
 21
-393.0
 31
0.0
  0
LINE
  5
12F
330
1F
100
AcDbEntity
  8
fianl-for laser cut
100
AcDbLine
 10
-259.9999999999993
 20
-393.0
 30
0.0
 11
-259.9999999999993
 21
-397.0
 31
0.0
  0
LINE
  5
130
330
1F
100
AcDbEntity
  8
fianl-for laser cut
100
AcDbLine
 10
-259.9999999999993
 20
-397.0
 30
0.0
 11
-244.9999999999993
 21
-397.0
 31
0.0
  0
LINE
  5
131
330
1F
100
AcDbEntity
  8
fianl-for laser cut
100
AcDbLine
 10
-244.9999999999993
 20
-397.0
 30
0.0
 11
-244.9999999999993
 21
-393.0
 31
0.0
  0
LINE
  5
132
330
1F
100
AcDbEntity
  8
fianl-for laser cut
100
AcDbLine
 10
-244.9999999999993
 20
-393.0
 30
0.0
 11
-229.9999999999993
 21
-393.0
 31
0.0
  0
LINE
  5
133
330
1F
100
AcDbEntity
  8
fianl-for laser cut
100
AcDbLine
 10
-229.9999999999993
 20
-393.0
 30
0.0
 11
-229.9999999999993
 21
-397.0
 31
0.0
  0
LINE
  5
134
330
1F
100
AcDbEntity
  8
fianl-for laser cut
100
AcDbLine
 10
-229.9999999999993
 20
-397.0
 30
0.0
 11
-214.9999999999993
 21
-397.0
 31
0.0
  0
LINE
  5
135
330
1F
100
AcDbEntity
  8
fianl-for laser cut
100
AcDbLine
 10
-214.9999999999993
 20
-397.0
 30
0.0
 11
-214.9999999999993
 21
-393.0
 31
0.0
  0
LINE
  5
136
330
1F
100
AcDbEntity
  8
fianl-for laser cut
100
AcDbLine
 10
-214.9999999999993
 20
-393.0
 30
0.0
 11
-199.9999999999993
 21
-393.0
 31
0.0
  0
LINE
  5
137
330
1F
100
AcDbEntity
  8
fianl-for laser cut
100
AcDbLine
 10
-199.9999999999993
 20
-393.0
 30
0.0
 11
-199.9999999999993
 21
-397.0
 31
0.0
  0
LINE
  5
138
330
1F
100
AcDbEntity
  8
fianl-for laser cut
100
AcDbLine
 10
-199.9999999999993
 20
-397.0
 30
0.0
 11
-184.9999999999993
 21
-397.0
 31
0.0
  0
LINE
  5
139
330
1F
100
AcDbEntity
  8
fianl-for laser cut
100
AcDbLine
 10
-184.9999999999993
 20
-397.0
 30
0.0
 11
-184.9999999999993
 21
-393.0
 31
0.0
  0
LINE
  5
13A
330
1F
100
AcDbEntity
  8
fianl-for laser cut
100
AcDbLine
 10
-184.9999999999993
 20
-393.0
 30
0.0
 11
-169.9999999999993
 21
-393.0
 31
0.0
  0
LINE
  5
13B
330
1F
100
AcDbEntity
  8
fianl-for laser cut
100
AcDbLine
 10
-169.9999999999993
 20
-393.0
 30
0.0
 11
-169.9999999999993
 21
-357.0
 31
0.0
  0
POLYLINE
  5
13C
330
1F
100
AcDbEntity
  8
fianl-for laser cut
100
AcDb2dPolyline
 66
     1
 10
0.0
 20
0.0
 30
0.0
  0
VERTEX
  5
13D
330
13C
100
AcDbEntity
  8
fianl-for laser cut
100
AcDbVertex
100
AcDb2dVertex
 10
-169.9999999999993
 20
-357.0
 30
0.0
  0
VERTEX
  5
13E
330
13C
100
AcDbEntity
  8
fianl-for laser cut
100
AcDbVertex
100
AcDb2dVertex
 10
-189.9999999999993
 20
-357.0
 30
0.0
  0
VERTEX
  5
13F
330
13C
100
AcDbEntity
  8
fianl-for laser cut
100
AcDbVertex
100
AcDb2dVertex
 10
-189.9999999999993
 20
-317.0
 30
0.0
  0
VERTEX
  5
140
330
13C
100
AcDbEntity
  8
fianl-for laser cut
100
AcDbVertex
100
AcDb2dVertex
 10
-169.9999999999993
 20
-317.0
 30
0.0
  0
SEQEND
  5
141
330
13C
100
AcDbEntity
  8
fianl-for laser cut
  0
ARC
  5
142
330
1F
100
AcDbEntity
  8
fianl-for laser cut
100
AcDbCircle
 10
114.0000000000003
 20
-230.2512626584706
 30
0.0
 40
10.0
100
AcDbArc
 50
179.9999999999974
 51
224.9999999999947
  0
POLYLINE
  5
143
330
1F
100
AcDbEntity
  8
fianl-for laser cut
100
AcDb2dPolyline
 66
     1
 10
0.0
 20
0.0
 30
0.0
  0
VERTEX
  5
144
330
143
100
AcDbEntity
  8
fianl-for laser cut
100
AcDbVertex
100
AcDb2dVertex
 10
104.0000000000002
 20
-230.2512626584702
 30
0.0
  0
VERTEX
  5
145
330
143
100
AcDbEntity
  8
fianl-for laser cut
100
AcDbVertex
100
AcDb2dVertex
 10
103.9999999999998
 20
-77.0
 30
0.0
  0
SEQEND
  5
146
330
143
100
AcDbEntity
  8
fianl-for laser cut
  0
LINE
  5
147
330
1F
100
AcDbEntity
  8
fianl-for laser cut
100
AcDbLine
 10
103.9999999999998
 20
-77.0
 30
0.0
 11
-146.0000000000001
 21
-77.0
 31
0.0
  0
POLYLINE
  5
148
330
1F
100
AcDbEntity
  8
fianl-for laser cut
100
AcDb2dPolyline
 66
     1
 10
0.0
 20
0.0
 30
0.0
  0
VERTEX
  5
149
330
148
100
AcDbEntity
  8
fianl-for laser cut
100
AcDbVertex
100
AcDb2dVertex
 10
-146.0000000000001
 20
-77.0
 30
0.0
  0
VERTEX
  5
14A
330
148
100
AcDbEntity
  8
fianl-for laser cut
100
AcDbVertex
100
AcDb2dVertex
 10
-146.0000000000001
 20
-236.9999999999999
 30
0.0
  0
SEQEND
  5
14B
330
148
100
AcDbEntity
  8
fianl-for laser cut
  0
ARC
  5
14C
330
1F
100
AcDbEntity
  8
fianl-for laser cut
100
AcDbCircle
 10
-138.0000000000001
 20
-236.9999999999999
 30
0.0
 40
8.0
100
AcDbArc
 50
180.0
 51
269.9999999999987
  0
POLYLINE
  5
14D
330
1F
100
AcDbEntity
  8
fianl-for laser cut
100
AcDb2dPolyline
 66
     1
 10
0.0
 20
0.0
 30
0.0
  0
VERTEX
  5
14E
330
14D
100
AcDbEntity
  8
fianl-for laser cut
100
AcDbVertex
100
AcDb2dVertex
 10
-138.0000000000002
 20
-244.9999999999999
 30
0.0
  0
VERTEX
  5
14F
330
14D
100
AcDbEntity
  8
fianl-for laser cut
100
AcDbVertex
100
AcDb2dVertex
 10
89.25126265848678
 20
-245.0
 30
0.0
  0
SEQEND
  5
150
330
14D
100
AcDbEntity
  8
fianl-for laser cut
  0
ARC
  5
151
330
1F
100
AcDbEntity
  8
fianl-for laser cut
100
AcDbCircle
 10
89.25126265848672
 20
-255.0
 30
0.0
 40
10.0
100
AcDbArc
 50
45.00000000007254
 51
89.99999999999952
  0
LINE
  5
152
330
1F
100
AcDbEntity
  8
fianl-for laser cut
100
AcDbLine
 10
96.32233047033526
 20
-247.9289321881336
 30
0.0
 11
98.6966991411008
 21
-250.3033008588991
 31
0.0
  0
ARC
  5
153
330
1F
100
AcDbEntity
  8
fianl-for laser cut
100
AcDbCircle
 10
103.9999999999999
 20
-245.0
 30
0.0
 40
7.5
100
AcDbArc
 50
224.9999999999997
 51
44.99999999999992
  0
LINE
  5
154
330
1F
100
AcDbEntity
  8
fianl-for laser cut
100
AcDbLine
 10
109.303300858899
 20
-239.6966991411009
 30
0.0
 11
106.9289321881341
 21
-237.3223304703355
 31
0.0
  0
CIRCLE
  5
155
330
1F
100
AcDbEntity
  8
fianl-for laser cut
100
AcDbCircle
 10
104.9999999999999
 20
-246.0
 30
0.0
 40
2.5
  0
POLYLINE
  5
156
330
1F
100
AcDbEntity
  8
fianl-for laser cut
100
AcDb2dPolyline
 66
     1
 10
0.0
 20
0.0
 30
0.0
 70
     1
  0
VERTEX
  5
157
330
156
100
AcDbEntity
  8
fianl-for laser cut
100
AcDbVertex
100
AcDb2dVertex
 10
-53.00000000000006
 20
-224.0
 30
0.0
  0
VERTEX
  5
158
330
156
100
AcDbEntity
  8
fianl-for laser cut
100
AcDbVertex
100
AcDb2dVertex
 10
-53.00000000000006
 20
-230.0
 30
0.0
  0
VERTEX
  5
159
330
156
100
AcDbEntity
  8
fianl-for laser cut
100
AcDbVertex
100
AcDb2dVertex
 10
8.999999999999943
 20
-230.0
 30
0.0
  0
VERTEX
  5
15A
330
156
100
AcDbEntity
  8
fianl-for laser cut
100
AcDbVertex
100
AcDb2dVertex
 10
8.999999999999943
 20
-224.0
 30
0.0
  0
SEQEND
  5
15B
330
156
100
AcDbEntity
  8
fianl-for laser cut
  0
SPLINE
  5
15C
330
1F
100
AcDbEntity
  8
fianl-for laser cut
100
AcDbSpline
210
0.0
220
0.0
230
1.0
 70
    15
 71
     2
 72
    12
 73
     9
 74
     0
 42
0.000000001
 43
0.0000000001
 40
0.0
 40
0.0
 40
0.0
 40
2.356194490192345
 40
2.356194490192345
 40
4.71238898038469
 40
4.71238898038469
 40
7.068583470577035
 40
7.068583470577035
 40
9.42477796076938
 40
9.42477796076938
 40
9.42477796076938
 10
-123.9999999999994
 20
-359.5000000000007
 30
0.0
 41
1.0
 10
-125.4999999999993
 20
-359.5000000000007
 30
0.0
 41
0.7071067811865476
 10
-125.4999999999994
 20
-361.0000000000007
 30
0.0
 41
1.0
 10
-125.4999999999993
 20
-362.5000000000007
 30
0.0
 41
0.7071067811865476
 10
-123.9999999999994
 20
-362.5000000000007
 30
0.0
 41
1.0
 10
-122.4999999999991
 20
-362.5000000000007
 30
0.0
 41
0.7071067811865476
 10
-122.4999999999994
 20
-361.0000000000007
 30
0.0
 41
1.0
 10
-122.4999999999991
 20
-359.5000000000007
 30
0.0
 41
0.7071067811865476
 10
-123.9999999999994
 20
-359.5000000000007
 30
0.0
 41
1.0
  0
SPLINE
  5
15D
330
1F
100
AcDbEntity
  8
fianl-for laser cut
100
AcDbSpline
210
0.0
220
0.0
230
1.0
 70
    15
 71
     2
 72
    12
 73
     9
 74
     0
 42
0.000000001
 43
0.0000000001
 40
0.0
 40
0.0
 40
0.0
 40
2.356194490192345
 40
2.356194490192345
 40
4.71238898038469
 40
4.71238898038469
 40
7.068583470577035
 40
7.068583470577035
 40
9.42477796076938
 40
9.42477796076938
 40
9.42477796076938
 10
-123.9999999999994
 20
-311.5000000000007
 30
0.0
 41
1.0
 10
-125.4999999999993
 20
-311.5000000000006
 30
0.0
 41
0.7071067811865476
 10
-125.4999999999994
 20
-313.0000000000007
 30
0.0
 41
1.0
 10
-125.4999999999993
 20
-314.5000000000007
 30
0.0
 41
0.7071067811865476
 10
-123.9999999999994
 20
-314.5000000000007
 30
0.0
 41
1.0
 10
-122.4999999999991
 20
-314.5000000000007
 30
0.0
 41
0.7071067811865476
 10
-122.4999999999994
 20
-313.0000000000007
 30
0.0
 41
1.0
 10
-122.4999999999991
 20
-311.5000000000006
 30
0.0
 41
0.7071067811865476
 10
-123.9999999999994
 20
-311.5000000000007
 30
0.0
 41
1.0
  0
SPLINE
  5
15E
330
1F
100
AcDbEntity
  8
fianl-for laser cut
100
AcDbSpline
210
0.0
220
0.0
230
1.0
 70
    11
 71
     2
 72
    12
 73
     9
 74
     0
 42
0.000000001
 43
0.0000000001
 40
0.0
 40
0.0
 40
0.0
 40
19.99999999999994
 40
19.99999999999994
 40
24.99999999999994
 40
24.99999999999994
 40
44.99999999999988
 40
44.99999999999988
 40
49.99999999999987
 40
49.99999999999987
 40
49.99999999999987
 10
-71.99999999999937
 20
-347.0000000000007
 30
0.0
 10
-71.99999999999937
 20
-337.0000000000007
 30
0.0
 10
-71.99999999999937
 20
-327.0000000000007
 30
0.0
 10
-73.99999999999937
 20
-327.0000000000007
 30
0.0
 10
-75.99999999999937
 20
-327.0000000000007
 30
0.0
 10
-75.99999999999937
 20
-337.0000000000007
 30
0.0
 10
-75.99999999999937
 20
-347.0000000000007
 30
0.0
 10
-73.99999999999937
 20
-347.0000000000007
 30
0.0
 10
-71.99999999999937
 20
-347.0000000000007
 30
0.0
  0
SPLINE
  5
15F
330
1F
100
AcDbEntity
  8
fianl-for laser cut
100
AcDbSpline
210
0.0
220
0.0
230
1.0
 70
    15
 71
     2
 72
    12
 73
     9
 74
     0
 42
0.000000001
 43
0.0000000001
 40
0.0
 40
0.0
 40
0.0
 40
21.59844949342983
 40
21.59844949342983
 40
43.19689898685966
 40
43.19689898685966
 40
64.79534848028949
 40
64.79534848028949
 40
86.39379797371932
 40
86.39379797371932
 40
86.39379797371932
 10
-123.9999999999994
 20
-322.2500000000007
 30
0.0
 41
1.0
 10
-138.7499999999994
 20
-322.2500000000007
 30
0.0
 41
0.7071067811865476
 10
-138.7499999999994
 20
-337.0000000000007
 30
0.0
 41
1.0
 10
-138.7499999999994
 20
-351.7500000000007
 30
0.0
 41
0.7071067811865476
 10
-123.9999999999994
 20
-351.7500000000007
 30
0.0
 41
1.0
 10
-109.2499999999991
 20
-351.7500000000007
 30
0.0
 41
0.7071067811865476
 10
-109.2499999999994
 20
-337.0000000000007
 30
0.0
 41
1.0
 10
-109.2499999999991
 20
-322.2500000000007
 30
0.0
 41
0.7071067811865476
 10
-123.9999999999994
 20
-322.2500000000007
 30
0.0
 41
1.0
  0
LINE
  5
160
330
1F
100
AcDbEntity
  8
fianl-for laser cut
100
AcDbLine
 10
-31.99999999999937
 20
-367.0000000000007
 30
0.0
 11
-31.99999999999937
 21
-363.0000000000007
 31
0.0
  0
LINE
  5
161
330
1F
100
AcDbEntity
  8
fianl-for laser cut
100
AcDbLine
 10
-31.99999999999937
 20
-311.0000000000007
 30
0.0
 11
-31.99999999999937
 21
-307.0000000000007
 31
0.0
  0
POLYLINE
  5
162
330
1F
100
AcDbEntity
  8
fianl-for laser cut
100
AcDb2dPolyline
 66
     1
 10
0.0
 20
0.0
 30
0.0
 70
     1
  0
VERTEX
  5
163
330
162
100
AcDbEntity
  8
fianl-for laser cut
100
AcDbVertex
100
AcDb2dVertex
 10
-28.00000000004871
 20
-316.9999999999583
 30
0.0
  0
VERTEX
  5
164
330
162
100
AcDbEntity
  8
fianl-for laser cut
100
AcDbVertex
100
AcDb2dVertex
 10
-28.00000000004871
 20
-296.9999999999583
 30
0.0
  0
VERTEX
  5
165
330
162
100
AcDbEntity
  8
fianl-for laser cut
100
AcDbVertex
100
AcDb2dVertex
 10
-32.0000000000511
 20
-296.9999999999583
 30
0.0
  0
VERTEX
  5
166
330
162
100
AcDbEntity
  8
fianl-for laser cut
100
AcDbVertex
100
AcDb2dVertex
 10
-32.0000000000511
 20
-316.9999999999583
 30
0.0
  0
SEQEND
  5
167
330
162
100
AcDbEntity
  8
fianl-for laser cut
  0
POLYLINE
  5
168
330
1F
100
AcDbEntity
  8
fianl-for laser cut
100
AcDb2dPolyline
 66
     1
 10
0.0
 20
0.0
 30
0.0
 70
     1
  0
VERTEX
  5
169
330
168
100
AcDbEntity
  8
fianl-for laser cut
100
AcDbVertex
100
AcDb2dVertex
 10
-28.00000000004871
 20
-376.9999999999583
 30
0.0
  0
VERTEX
  5
16A
330
168
100
AcDbEntity
  8
fianl-for laser cut
100
AcDbVertex
100
AcDb2dVertex
 10
-28.00000000004871
 20
-356.9999999999583
 30
0.0
  0
VERTEX
  5
16B
330
168
100
AcDbEntity
  8
fianl-for laser cut
100
AcDbVertex
100
AcDb2dVertex
 10
-31.99999999999937
 20
-356.9999999999583
 30
0.0
  0
VERTEX
  5
16C
330
168
100
AcDbEntity
  8
fianl-for laser cut
100
AcDbVertex
100
AcDb2dVertex
 10
-31.99999999999937
 20
-376.9999999999583
 30
0.0
  0
SEQEND
  5
16D
330
168
100
AcDbEntity
  8
fianl-for laser cut
  0
LINE
  5
16E
330
1F
100
AcDbEntity
  8
fianl-for laser cut
100
AcDbLine
 10
108.0000000000006
 20
-317.0
 30
0.0
 11
108.0000000000006
 21
-281.0
 31
0.0
  0
LINE
  5
16F
330
1F
100
AcDbEntity
  8
fianl-for laser cut
100
AcDbLine
 10
108.0000000000006
 20
-281.0
 30
0.0
 11
93.00000000000063
 21
-281.0
 31
0.0
  0
LINE
  5
170
330
1F
100
AcDbEntity
  8
fianl-for laser cut
100
AcDbLine
 10
93.00000000000063
 20
-281.0
 30
0.0
 11
93.00000000000063
 21
-277.0
 31
0.0
  0
LINE
  5
171
330
1F
100
AcDbEntity
  8
fianl-for laser cut
100
AcDbLine
 10
93.00000000000063
 20
-277.0
 30
0.0
 11
78.00000000000063
 21
-277.0
 31
0.0
  0
LINE
  5
172
330
1F
100
AcDbEntity
  8
fianl-for laser cut
100
AcDbLine
 10
78.00000000000063
 20
-277.0
 30
0.0
 11
78.00000000000063
 21
-281.0
 31
0.0
  0
LINE
  5
173
330
1F
100
AcDbEntity
  8
fianl-for laser cut
100
AcDbLine
 10
78.00000000000063
 20
-281.0
 30
0.0
 11
63.00000000000063
 21
-281.0
 31
0.0
  0
LINE
  5
174
330
1F
100
AcDbEntity
  8
fianl-for laser cut
100
AcDbLine
 10
63.00000000000063
 20
-281.0
 30
0.0
 11
63.00000000000063
 21
-277.0
 31
0.0
  0
LINE
  5
175
330
1F
100
AcDbEntity
  8
fianl-for laser cut
100
AcDbLine
 10
63.00000000000063
 20
-277.0
 30
0.0
 11
48.00000000000063
 21
-277.0
 31
0.0
  0
LINE
  5
176
330
1F
100
AcDbEntity
  8
fianl-for laser cut
100
AcDbLine
 10
48.00000000000063
 20
-277.0
 30
0.0
 11
48.00000000000063
 21
-281.0
 31
0.0
  0
LINE
  5
177
330
1F
100
AcDbEntity
  8
fianl-for laser cut
100
AcDbLine
 10
48.00000000000063
 20
-281.0
 30
0.0
 11
33.00000000000063
 21
-281.0
 31
0.0
  0
LINE
  5
178
330
1F
100
AcDbEntity
  8
fianl-for laser cut
100
AcDbLine
 10
33.00000000000063
 20
-281.0
 30
0.0
 11
33.00000000000063
 21
-277.0
 31
0.0
  0
LINE
  5
179
330
1F
100
AcDbEntity
  8
fianl-for laser cut
100
AcDbLine
 10
33.00000000000063
 20
-277.0
 30
0.0
 11
18.00000000000063
 21
-277.0
 31
0.0
  0
LINE
  5
17A
330
1F
100
AcDbEntity
  8
fianl-for laser cut
100
AcDbLine
 10
18.00000000000063
 20
-277.0
 30
0.0
 11
18.00000000000063
 21
-281.0
 31
0.0
  0
LINE
  5
17B
330
1F
100
AcDbEntity
  8
fianl-for laser cut
100
AcDbLine
 10
18.00000000000063
 20
-281.0
 30
0.0
 11
8.000000000000625
 21
-281.0
 31
0.0
  0
LINE
  5
17C
330
1F
100
AcDbEntity
  8
fianl-for laser cut
100
AcDbLine
 10
8.000000000000625
 20
-281.0
 30
0.0
 11
8.000000000000625
 21
-277.0
 31
0.0
  0
LINE
  5
17D
330
1F
100
AcDbEntity
  8
fianl-for laser cut
100
AcDbLine
 10
8.000000000000625
 20
-277.0
 30
0.0
 11
-31.99999999999937
 21
-277.0
 31
0.0
  0
LINE
  5
17E
330
1F
100
AcDbEntity
  8
fianl-for laser cut
100
AcDbLine
 10
-31.99999999999937
 20
-277.0
 30
0.0
 11
-145.9402850002901
 21
-305.4850712500727
 31
0.0
  0
ARC
  5
17F
330
1F
100
AcDbEntity
  8
fianl-for laser cut
100
AcDbCircle
 10
-143.9999999999994
 20
-313.2462112512353
 30
0.0
 40
8.0
100
AcDbArc
 50
104.0362434679262
 51
180.0
  0
LINE
  5
180
330
1F
100
AcDbEntity
  8
fianl-for laser cut
100
AcDbLine
 10
-151.9999999999993
 20
-313.2462112512353
 30
0.0
 11
-151.9999999999993
 21
-360.7537887487647
 31
0.0
  0
ARC
  5
181
330
1F
100
AcDbEntity
  8
fianl-for laser cut
100
AcDbCircle
 10
-143.9999999999994
 20
-360.7537887487647
 30
0.0
 40
8.0
100
AcDbArc
 50
180.0
 51
255.9637565320735
  0
LINE
  5
182
330
1F
100
AcDbEntity
  8
fianl-for laser cut
100
AcDbLine
 10
-145.9402850002901
 20
-368.5149287499273
 30
0.0
 11
-31.99999999999937
 21
-397.0
 31
0.0
  0
LINE
  5
183
330
1F
100
AcDbEntity
  8
fianl-for laser cut
100
AcDbLine
 10
-31.99999999999937
 20
-397.0
 30
0.0
 11
8.000000000000625
 21
-397.0
 31
0.0
  0
LINE
  5
184
330
1F
100
AcDbEntity
  8
fianl-for laser cut
100
AcDbLine
 10
8.000000000000625
 20
-397.0
 30
0.0
 11
8.000000000000625
 21
-393.0
 31
0.0
  0
LINE
  5
185
330
1F
100
AcDbEntity
  8
fianl-for laser cut
100
AcDbLine
 10
8.000000000000625
 20
-393.0
 30
0.0
 11
18.00000000000063
 21
-393.0
 31
0.0
  0
LINE
  5
186
330
1F
100
AcDbEntity
  8
fianl-for laser cut
100
AcDbLine
 10
18.00000000000063
 20
-393.0
 30
0.0
 11
18.00000000000063
 21
-397.0
 31
0.0
  0
LINE
  5
187
330
1F
100
AcDbEntity
  8
fianl-for laser cut
100
AcDbLine
 10
18.00000000000063
 20
-397.0
 30
0.0
 11
33.00000000000063
 21
-397.0
 31
0.0
  0
LINE
  5
188
330
1F
100
AcDbEntity
  8
fianl-for laser cut
100
AcDbLine
 10
33.00000000000063
 20
-397.0
 30
0.0
 11
33.00000000000063
 21
-393.0
 31
0.0
  0
LINE
  5
189
330
1F
100
AcDbEntity
  8
fianl-for laser cut
100
AcDbLine
 10
33.00000000000063
 20
-393.0
 30
0.0
 11
48.00000000000063
 21
-393.0
 31
0.0
  0
LINE
  5
18A
330
1F
100
AcDbEntity
  8
fianl-for laser cut
100
AcDbLine
 10
48.00000000000063
 20
-393.0
 30
0.0
 11
48.00000000000063
 21
-397.0
 31
0.0
  0
LINE
  5
18B
330
1F
100
AcDbEntity
  8
fianl-for laser cut
100
AcDbLine
 10
48.00000000000063
 20
-397.0
 30
0.0
 11
63.00000000000063
 21
-397.0
 31
0.0
  0
LINE
  5
18C
330
1F
100
AcDbEntity
  8
fianl-for laser cut
100
AcDbLine
 10
63.00000000000063
 20
-397.0
 30
0.0
 11
63.00000000000063
 21
-393.0
 31
0.0
  0
LINE
  5
18D
330
1F
100
AcDbEntity
  8
fianl-for laser cut
100
AcDbLine
 10
63.00000000000063
 20
-393.0
 30
0.0
 11
78.00000000000063
 21
-393.0
 31
0.0
  0
LINE
  5
18E
330
1F
100
AcDbEntity
  8
fianl-for laser cut
100
AcDbLine
 10
78.00000000000063
 20
-393.0
 30
0.0
 11
78.00000000000063
 21
-397.0
 31
0.0
  0
LINE
  5
18F
330
1F
100
AcDbEntity
  8
fianl-for laser cut
100
AcDbLine
 10
78.00000000000063
 20
-397.0
 30
0.0
 11
93.00000000000063
 21
-397.0
 31
0.0
  0
LINE
  5
190
330
1F
100
AcDbEntity
  8
fianl-for laser cut
100
AcDbLine
 10
93.00000000000063
 20
-397.0
 30
0.0
 11
93.00000000000063
 21
-393.0
 31
0.0
  0
LINE
  5
191
330
1F
100
AcDbEntity
  8
fianl-for laser cut
100
AcDbLine
 10
93.00000000000063
 20
-393.0
 30
0.0
 11
108.0000000000006
 21
-393.0
 31
0.0
  0
LINE
  5
192
330
1F
100
AcDbEntity
  8
fianl-for laser cut
100
AcDbLine
 10
108.0000000000006
 20
-393.0
 30
0.0
 11
108.0000000000006
 21
-357.0
 31
0.0
  0
POLYLINE
  5
193
330
1F
100
AcDbEntity
  8
fianl-for laser cut
100
AcDb2dPolyline
 66
     1
 10
0.0
 20
0.0
 30
0.0
  0
VERTEX
  5
194
330
193
100
AcDbEntity
  8
fianl-for laser cut
100
AcDbVertex
100
AcDb2dVertex
 10
108.0000000000006
 20
-357.0
 30
0.0
  0
VERTEX
  5
195
330
193
100
AcDbEntity
  8
fianl-for laser cut
100
AcDbVertex
100
AcDb2dVertex
 10
88.00000000000063
 20
-357.0
 30
0.0
  0
VERTEX
  5
196
330
193
100
AcDbEntity
  8
fianl-for laser cut
100
AcDbVertex
100
AcDb2dVertex
 10
88.00000000000063
 20
-317.0
 30
0.0
  0
VERTEX
  5
197
330
193
100
AcDbEntity
  8
fianl-for laser cut
100
AcDbVertex
100
AcDb2dVertex
 10
108.0000000000006
 20
-317.0
 30
0.0
  0
SEQEND
  5
198
330
193
100
AcDbEntity
  8
fianl-for laser cut
  0
SPLINE
  5
199
330
1F
100
AcDbEntity
  8
fianl-for laser cut
100
AcDbSpline
210
0.0
220
0.0
230
1.0
 70
    11
 71
     2
 72
    20
 73
    17
 74
     0
 42
0.000000001
 43
0.0000000001
 40
0.0
 40
0.0
 40
0.0
 40
40.00000000007935
 40
40.00000000007935
 40
44.00000000003001
 40
44.00000000003001
 40
84.00000000003001
 40
84.00000000003001
 40
88.00000000006901
 40
88.00000000006901
 40
127.9999999999897
 40
127.9999999999897
 40
174.0000000001182
 40
174.0000000001182
 40
294.0000000001182
 40
294.0000000001182
 40
340.0000000002468
 40
340.0000000002468
 40
340.0000000002468
 10
99.00000000000068
 20
4.0
 30
0.0
 10
119.0000000000404
 20
4.0
 30
0.0
 10
139.00000000008
 20
4.0
 30
0.0
 10
139.00000000008
 20
5.99999999997533
 30
0.0
 10
139.00000000008
 20
7.99999999995066
 30
0.0
 10
159.00000000008
 20
7.999999999994884
 30
0.0
 10
179.00000000008
 20
8.000000000039108
 30
0.0
 10
179.00000000008
 20
6.000000000019554
 30
0.0
 10
179.00000000008
 20
4.0
 30
0.0
 10
199.0000000000404
 20
4.0
 30
0.0
 10
219.0000000000007
 20
4.0
 30
0.0
 10
219.0000000000007
 20
-9.000000000064347
 30
0.0
 10
219.0000000000007
 20
-22.00000000012869
 30
0.0
 10
159.0000000000007
 20
-22.00000000012869
 30
0.0
 10
99.00000000000068
 20
-22.00000000012869
 30
0.0
 10
99.00000000000068
 20
-9.000000000064347
 30
0.0
 10
99.00000000000068
 20
4.0
 30
0.0
  0
SPLINE
  5
19A
330
1F
100
AcDbEntity
  8
fianl-for laser cut
100
AcDbSpline
210
0.0
220
0.0
230
1.0
 70
    11
 71
     2
 72
    56
 73
    53
 74
     0
 42
0.000000001
 43
0.0000000001
 40
113.0
 40
113.0
 40
113.0
 40
138.9999999998447
 40
138.9999999998447
 40
206.9999999999285
 40
206.9999999999285
 40
232.9999999997733
 40
232.9999999997733
 40
250.9999999997732
 40
250.9999999997732
 40
254.9999999997732
 40
254.9999999997732
 40
269.9999999997732
 40
269.9999999997732
 40
273.9999999997733
 40
273.9999999997733
 40
288.9999999997733
 40
288.9999999997733
 40
292.9999999997732
 40
292.9999999997732
 40
307.9999999997733
 40
307.9999999997733
 40
311.9999999997733
 40
311.9999999997733
 40
326.9999999997733
 40
326.9999999997733
 40
330.9999999997733
 40
330.9999999997733
 40
345.9999999997733
 40
345.9999999997733
 40
465.9999999997733
 40
465.9999999997733
 40
480.9999999997733
 40
480.9999999997733
 40
484.9999999997733
 40
484.9999999997733
 40
499.9999999997733
 40
499.9999999997733
 40
503.9999999997733
 40
503.9999999997733
 40
518.9999999997733
 40
518.9999999997733
 40
522.9999999997733
 40
522.9999999997733
 40
537.9999999997733
 40
537.9999999997733
 40
541.9999999997733
 40
541.9999999997733
 40
556.9999999997733
 40
556.9999999997733
 40
560.9999999997734
 40
560.9999999997734
 40
578.9999999997733
 40
578.9999999997733
 40
578.9999999997733
 10
104.0
 20
99.0
 30
0.0
 10
116.9999999999224
 20
99.0000000000091
 30
0.0
 10
129.9999999998447
 20
99.00000000001819
 30
0.0
 10
159.9999999998447
 20
99.00000000003911
 30
0.0
 10
189.9999999998447
 20
99.00000000006003
 30
0.0
 10
202.9999999997671
 20
99.00000000003001
 30
0.0
 10
215.9999999996894
 20
99.0
 30
0.0
 10
215.9999999996894
 20
94.0
 30
0.0
 10
215.9999999996894
 20
89.0
 30
0.0
 10
217.9999999996894
 20
89.0
 30
0.0
 10
219.9999999996894
 20
89.0
 30
0.0
 10
219.9999999996894
 20
81.5
 30
0.0
 10
219.9999999996894
 20
74.0
 30
0.0
 10
217.9999999996894
 20
74.0
 30
0.0
 10
215.9999999996894
 20
74.0
 30
0.0
 10
215.9999999996894
 20
66.5
 30
0.0
 10
215.9999999996894
 20
59.0
 30
0.0
 10
217.9999999996894
 20
59.0
 30
0.0
 10
219.9999999996894
 20
59.0
 30
0.0
 10
219.9999999996894
 20
51.5
 30
0.0
 10
219.9999999996894
 20
44.0
 30
0.0
 10
217.9999999996894
 20
44.0
 30
0.0
 10
215.9999999996894
 20
44.0
 30
0.0
 10
215.9999999996894
 20
36.5
 30
0.0
 10
215.9999999996894
 20
29.0
 30
0.0
 10
217.9999999996894
 20
29.0
 30
0.0
 10
219.9999999996894
 20
29.0
 30
0.0
 10
219.9999999997671
 20
21.50000000002092
 30
0.0
 10
219.9999999998447
 20
14.00000000004184
 30
0.0
 10
159.9999999999224
 20
14.00000000002092
 30
0.0
 10
100.0
 20
14.0
 30
0.0
 10
100.0
 20
21.5
 30
0.0
 10
100.0
 20
29.0
 30
0.0
 10
102.0
 20
29.0
 30
0.0
 10
104.0
 20
29.0
 30
0.0
 10
104.0
 20
36.5
 30
0.0
 10
104.0
 20
44.0
 30
0.0
 10
102.0
 20
44.0
 30
0.0
 10
100.0
 20
44.0
 30
0.0
 10
100.0
 20
51.5
 30
0.0
 10
100.0
 20
59.0
 30
0.0
 10
102.0
 20
59.0
 30
0.0
 10
104.0
 20
59.0
 30
0.0
 10
104.0
 20
66.5
 30
0.0
 10
104.0
 20
74.0
 30
0.0
 10
102.0
 20
74.0
 30
0.0
 10
100.0
 20
74.0
 30
0.0
 10
100.0
 20
81.5
 30
0.0
 10
100.0
 20
89.0
 30
0.0
 10
102.0
 20
89.0
 30
0.0
 10
104.0
 20
89.0
 30
0.0
 10
104.0
 20
94.0
 30
0.0
 10
104.0
 20
99.0
 30
0.0
  0
SPLINE
  5
19B
330
1F
100
AcDbEntity
  8
fianl-for laser cut
100
AcDbSpline
210
0.0
220
0.0
230
1.0
 70
    15
 71
     2
 72
    12
 73
     9
 74
     0
 42
0.000000001
 43
0.0000000001
 40
0.0
 40
0.0
 40
0.0
 40
2.356194490192345
 40
2.356194490192345
 40
4.71238898038469
 40
4.71238898038469
 40
7.068583470577035
 40
7.068583470577035
 40
9.42477796076938
 40
9.42477796076938
 40
9.42477796076938
 10
154.9999999998784
 20
84.49999999999727
 30
0.0
 41
1.0
 10
156.4999999998784
 20
84.49999999999721
 30
0.0
 41
0.7071067811865476
 10
156.4999999998784
 20
82.99999999999727
 30
0.0
 41
1.0
 10
156.4999999998784
 20
81.4999999999972
 30
0.0
 41
0.7071067811865476
 10
154.9999999998784
 20
81.49999999999727
 30
0.0
 41
1.0
 10
153.4999999998784
 20
81.4999999999972
 30
0.0
 41
0.7071067811865476
 10
153.4999999998784
 20
82.99999999999727
 30
0.0
 41
1.0
 10
153.4999999998784
 20
84.49999999999721
 30
0.0
 41
0.7071067811865476
 10
154.9999999998784
 20
84.49999999999727
 30
0.0
 41
1.0
  0
SPLINE
  5
19C
330
1F
100
AcDbEntity
  8
fianl-for laser cut
100
AcDbSpline
210
0.0
220
0.0
230
1.0
 70
    15
 71
     2
 72
    12
 73
     9
 74
     0
 42
0.000000001
 43
0.0000000001
 40
0.0
 40
0.0
 40
0.0
 40
2.356194490192345
 40
2.356194490192345
 40
4.71238898038469
 40
4.71238898038469
 40
7.068583470577035
 40
7.068583470577035
 40
9.42477796076938
 40
9.42477796076938
 40
9.42477796076938
 10
164.9999999998784
 20
32.99999999999727
 30
0.0
 41
1.0
 10
166.4999999998783
 20
32.99999999999737
 30
0.0
 41
0.7071067811865476
 10
166.4999999998784
 20
34.49999999999727
 30
0.0
 41
1.0
 10
166.4999999998783
 20
35.99999999999739
 30
0.0
 41
0.7071067811865476
 10
164.9999999998784
 20
35.99999999999727
 30
0.0
 41
1.0
 10
163.4999999998785
 20
35.99999999999739
 30
0.0
 41
0.7071067811865476
 10
163.4999999998784
 20
34.49999999999727
 30
0.0
 41
1.0
 10
163.4999999998785
 20
32.99999999999737
 30
0.0
 41
0.7071067811865476
 10
164.9999999998784
 20
32.99999999999727
 30
0.0
 41
1.0
  0
SPLINE
  5
19D
330
1F
100
AcDbEntity
  8
fianl-for laser cut
100
AcDbSpline
210
0.0
220
0.0
230
1.0
 70
    15
 71
     2
 72
    12
 73
     9
 74
     0
 42
0.000000001
 43
0.0000000001
 40
0.0
 40
0.0
 40
0.0
 40
2.356194490192345
 40
2.356194490192345
 40
4.71238898038469
 40
4.71238898038469
 40
7.068583470577035
 40
7.068583470577035
 40
9.42477796076938
 40
9.42477796076938
 40
9.42477796076938
 10
154.9999999998784
 20
32.99999999999727
 30
0.0
 41
1.0
 10
156.4999999998784
 20
32.99999999999737
 30
0.0
 41
0.7071067811865476
 10
156.4999999998784
 20
34.49999999999727
 30
0.0
 41
1.0
 10
156.4999999998784
 20
35.99999999999739
 30
0.0
 41
0.7071067811865476
 10
154.9999999998784
 20
35.99999999999727
 30
0.0
 41
1.0
 10
153.4999999998784
 20
35.99999999999739
 30
0.0
 41
0.7071067811865476
 10
153.4999999998784
 20
34.49999999999727
 30
0.0
 41
1.0
 10
153.4999999998784
 20
32.99999999999737
 30
0.0
 41
0.7071067811865476
 10
154.9999999998784
 20
32.99999999999727
 30
0.0
 41
1.0
  0
SPLINE
  5
19E
330
1F
100
AcDbEntity
  8
fianl-for laser cut
100
AcDbSpline
210
0.0
220
0.0
230
1.0
 70
    15
 71
     2
 72
    12
 73
     9
 74
     0
 42
0.000000001
 43
0.0000000001
 40
0.0
 40
0.0
 40
0.0
 40
2.356194490192345
 40
2.356194490192345
 40
4.71238898038469
 40
4.71238898038469
 40
7.068583470577035
 40
7.068583470577035
 40
9.42477796076938
 40
9.42477796076938
 40
9.42477796076938
 10
164.9999999998784
 20
84.49999999999727
 30
0.0
 41
1.0
 10
166.4999999998783
 20
84.49999999999721
 30
0.0
 41
0.7071067811865476
 10
166.4999999998784
 20
82.99999999999727
 30
0.0
 41
1.0
 10
166.4999999998783
 20
81.4999999999972
 30
0.0
 41
0.7071067811865476
 10
164.9999999998784
 20
81.49999999999727
 30
0.0
 41
1.0
 10
163.4999999998785
 20
81.4999999999972
 30
0.0
 41
0.7071067811865476
 10
163.4999999998784
 20
82.99999999999727
 30
0.0
 41
1.0
 10
163.4999999998785
 20
84.49999999999721
 30
0.0
 41
0.7071067811865476
 10
164.9999999998784
 20
84.49999999999727
 30
0.0
 41
1.0
  0
LINE
  5
19F
330
1F
100
AcDbEntity
  8
fianl-for laser cut
100
AcDbLine
 10
149.9999999998784
 20
79.99999999999727
 30
0.0
 11
149.7499999998784
 21
79.99999999999727
 31
0.0
  0
LINE
  5
1A0
330
1F
100
AcDbEntity
  8
fianl-for laser cut
100
AcDbLine
 10
149.7499999998784
 20
79.99999999999727
 30
0.0
 11
149.7499999998784
 21
78.99999999999727
 31
0.0
  0
SPLINE
  5
1A1
330
1F
100
AcDbEntity
  8
fianl-for laser cut
100
AcDbSpline
210
0.0
220
0.0
230
1.0
 70
    24
 71
     2
 72
     6
 73
     3
 74
     0
 42
0.000000001
 43
0.0000000001
 40
0.0
 40
0.0
 40
0.0
 40
40.5
 40
40.5
 40
40.5
 10
149.7499999998784
 20
78.99999999999727
 30
0.0
 10
149.7499999998784
 20
58.74999999999727
 30
0.0
 10
149.7499999998784
 20
38.49999999999727
 30
0.0
  0
LINE
  5
1A2
330
1F
100
AcDbEntity
  8
fianl-for laser cut
100
AcDbLine
 10
149.7499999998784
 20
38.49999999999727
 30
0.0
 11
149.7499999998784
 21
37.49999999999727
 31
0.0
  0
LINE
  5
1A3
330
1F
100
AcDbEntity
  8
fianl-for laser cut
100
AcDbLine
 10
149.7499999998784
 20
37.49999999999727
 30
0.0
 11
149.9999999998784
 21
37.49999999999727
 31
0.0
  0
SPLINE
  5
1A4
330
1F
100
AcDbEntity
  8
fianl-for laser cut
100
AcDbSpline
210
0.0
220
0.0
230
1.0
 70
    24
 71
     2
 72
     6
 73
     3
 74
     0
 42
0.000000001
 43
0.0000000001
 40
40.5
 40
40.5
 40
40.5
 40
60.5
 40
60.5
 40
60.5
 10
149.9999999998784
 20
37.49999999999727
 30
0.0
 10
159.9999999998784
 20
37.49999999999727
 30
0.0
 10
169.9999999998784
 20
37.49999999999727
 30
0.0
  0
LINE
  5
1A5
330
1F
100
AcDbEntity
  8
fianl-for laser cut
100
AcDbLine
 10
169.9999999998784
 20
37.49999999999727
 30
0.0
 11
170.2499999998784
 21
37.49999999999727
 31
0.0
  0
LINE
  5
1A6
330
1F
100
AcDbEntity
  8
fianl-for laser cut
100
AcDbLine
 10
170.2499999998784
 20
37.49999999999727
 30
0.0
 11
170.2499999998784
 21
38.49999999999727
 31
0.0
  0
SPLINE
  5
1A7
330
1F
100
AcDbEntity
  8
fianl-for laser cut
100
AcDbSpline
210
0.0
220
0.0
230
1.0
 70
    24
 71
     2
 72
     6
 73
     3
 74
     0
 42
0.000000001
 43
0.0000000001
 40
60.5
 40
60.5
 40
60.5
 40
101.0
 40
101.0
 40
101.0
 10
170.2499999998784
 20
38.49999999999727
 30
0.0
 10
170.2499999998784
 20
58.74999999999727
 30
0.0
 10
170.2499999998784
 20
78.99999999999727
 30
0.0
  0
LINE
  5
1A8
330
1F
100
AcDbEntity
  8
fianl-for laser cut
100
AcDbLine
 10
170.2499999998784
 20
78.99999999999727
 30
0.0
 11
170.2499999998784
 21
79.99999999999727
 31
0.0
  0
LINE
  5
1A9
330
1F
100
AcDbEntity
  8
fianl-for laser cut
100
AcDbLine
 10
170.2499999998784
 20
79.99999999999727
 30
0.0
 11
169.9999999998784
 21
79.99999999999727
 31
0.0
  0
SPLINE
  5
1AA
330
1F
100
AcDbEntity
  8
fianl-for laser cut
100
AcDbSpline
210
0.0
220
0.0
230
1.0
 70
    24
 71
     2
 72
     6
 73
     3
 74
     0
 42
0.000000001
 43
0.0000000001
 40
101.0
 40
101.0
 40
101.0
 40
121.0
 40
121.0
 40
121.0
 10
169.9999999998784
 20
79.99999999999727
 30
0.0
 10
159.9999999998784
 20
79.99999999999727
 30
0.0
 10
149.9999999998784
 20
79.99999999999727
 30
0.0
  0
SPLINE
  5
1AB
330
1F
100
AcDbEntity
  8
fianl-for laser cut
100
AcDbSpline
210
0.0
220
0.0
230
1.0
 70
    11
 71
     2
 72
    94
 73
    91
 74
     0
 42
0.000000001
 43
0.0000000001
 40
-250.0
 40
-250.0
 40
-250.0
 40
0.0
 40
0.0
 40
30.0
 40
30.0
 40
80.00000000000006
 40
80.00000000000006
 40
95.00000000000006
 40
95.00000000000006
 40
99.00000000000006
 40
99.00000000000006
 40
114.0000000000001
 40
114.0000000000001
 40
118.0000000000001
 40
118.0000000000001
 40
133.0000000000001
 40
133.0000000000001
 40
137.0000000000001
 40
137.0000000000001
 40
152.0000000000001
 40
152.0000000000001
 40
156.0000000000001
 40
156.0000000000001
 40
171.0000000000001
 40
171.0000000000001
 40
175.0000000000001
 40
175.0000000000001
 40
190.0000000000001
 40
190.0000000000001
 40
194.0000000000001
 40
194.0000000000001
 40
208.0000000000001
 40
208.0000000000001
 40
212.0000000000001
 40
212.0000000000001
 40
222.0000000000001
 40
222.0000000000001
 40
260.0000000000001
 40
260.0000000000001
 40
270.0000000000001
 40
270.0000000000001
 40
274.0000000000001
 40
274.0000000000001
 40
288.0000000000001
 40
288.0000000000001
 40
292.0000000000001
 40
292.0000000000001
 40
307.0000000000001
 40
307.0000000000001
 40
311.0000000000001
 40
311.0000000000001
 40
326.0000000000001
 40
326.0000000000001
 40
330.0000000000001
 40
330.0000000000001
 40
345.0000000000001
 40
345.0000000000001
 40
349.0000000000001
 40
349.0000000000001
 40
364.0000000000001
 40
364.0000000000001
 40
368.0000000000001
 40
368.0000000000001
 40
383.0000000000001
 40
383.0000000000001
 40
387.0000000000001
 40
387.0000000000001
 40
417.0000000000001
 40
417.0000000000001
 40
432.0000000000001
 40
432.0000000000001
 40
448.0000000000001
 40
448.0000000000001
 40
463.0000000000001
 40
463.0000000000001
 40
467.0
 40
467.0
 40
482.0
 40
482.0
 40
692.0
 40
692.0
 40
707.0000000000001
 40
707.0000000000001
 40
711.0000000000001
 40
711.0000000000001
 40
726.0000000000002
 40
726.0000000000002
 40
742.0
 40
742.0
 40
772.0000000000001
 40
772.0000000000001
 40
772.0000000000001
 10
-328.0
 20
99.0
 30
0.0
 10
-203.0
 20
99.0
 30
0.0
 10
-78.0
 20
99.0
 30
0.0
 10
-63.0
 20
99.0
 30
0.0
 10
-48.0
 20
99.0
 30
0.0
 10
17.99981881541942
 20
99.0
 30
0.0
 10
83.99963763083883
 20
99.0
 30
0.0
 10
83.99963763083883
 20
91.5
 30
0.0
 10
83.99963763083883
 20
84.0
 30
0.0
 10
81.99963763083883
 20
84.0
 30
0.0
 10
79.99963763083883
 20
84.0
 30
0.0
 10
79.99963763083883
 20
76.5
 30
0.0
 10
79.99963763083883
 20
69.0
 30
0.0
 10
81.99963763083883
 20
69.0
 30
0.0
 10
83.99963763083883
 20
69.0
 30
0.0
 10
83.99963763083883
 20
61.5
 30
0.0
 10
83.99963763083883
 20
54.0
 30
0.0
 10
81.99963763083883
 20
54.0
 30
0.0
 10
79.99963763083883
 20
54.0
 30
0.0
 10
79.99963763083883
 20
46.5
 30
0.0
 10
79.99963763083883
 20
39.0
 30
0.0
 10
81.99963763083883
 20
39.0
 30
0.0
 10
83.99963763083883
 20
39.0
 30
0.0
 10
83.99963763083883
 20
31.5
 30
0.0
 10
83.99963763083883
 20
24.0
 30
0.0
 10
81.99963763083883
 20
24.0
 30
0.0
 10
79.99963763083883
 20
24.0
 30
0.0
 10
79.99963763083883
 20
16.5
 30
0.0
 10
79.99963763083883
 20
9.0
 30
0.0
 10
81.99963763083883
 20
9.0
 30
0.0
 10
83.99963763083883
 20
9.0
 30
0.0
 10
83.99963763083883
 20
6.0
 30
0.0
 10
83.99963763083883
 20
3.0
 30
0.0
 10
83.99963763083883
 20
1.0
 30
0.0
 10
83.99963763083883
 20
-1.0
 30
0.0
 10
78.99963763083883
 20
-1.0
 30
0.0
 10
73.99963763083883
 20
-1.0
 30
0.0
 10
17.99981881541942
 20
-1.0
 30
0.0
 10
-38.0
 20
-1.0
 30
0.0
 10
-43.0
 20
-1.0
 30
0.0
 10
-48.0
 20
-1.0
 30
0.0
 10
-48.0
 20
1.0
 30
0.0
 10
-48.0
 20
3.0
 30
0.0
 10
-48.0
 20
6.0
 30
0.0
 10
-48.0
 20
9.0
 30
0.0
 10
-46.0
 20
9.0
 30
0.0
 10
-44.0
 20
9.0
 30
0.0
 10
-44.0
 20
16.5
 30
0.0
 10
-44.0
 20
24.0
 30
0.0
 10
-46.0
 20
24.0
 30
0.0
 10
-48.0
 20
24.0
 30
0.0
 10
-48.0
 20
31.5
 30
0.0
 10
-48.0
 20
39.0
 30
0.0
 10
-46.0
 20
39.0
 30
0.0
 10
-44.0
 20
39.0
 30
0.0
 10
-44.0
 20
46.5
 30
0.0
 10
-44.0
 20
54.0
 30
0.0
 10
-46.0
 20
54.0
 30
0.0
 10
-48.0
 20
54.0
 30
0.0
 10
-48.0
 20
61.5
 30
0.0
 10
-48.0
 20
69.0
 30
0.0
 10
-46.0
 20
69.0
 30
0.0
 10
-44.0
 20
69.0
 30
0.0
 10
-44.0
 20
76.5
 30
0.0
 10
-44.0
 20
84.0
 30
0.0
 10
-46.0
 20
84.0
 30
0.0
 10
-48.0
 20
84.0
 30
0.0
 10
-63.0
 20
84.0
 30
0.0
 10
-78.0
 20
84.0
 30
0.0
 10
-78.0
 20
76.5
 30
0.0
 10
-78.0
 20
69.0
 30
0.0
 10
-86.0
 20
69.0
 30
0.0
 10
-94.0
 20
69.0
 30
0.0
 10
-94.0
 20
76.5
 30
0.0
 10
-94.0
 20
84.0
 30
0.0
 10
-96.0
 20
84.0
 30
0.0
 10
-98.0
 20
84.0
 30
0.0
 10
-98.0
 20
76.5
 30
0.0
 10
-98.0
 20
69.0
 30
0.0
 10
-203.0
 20
69.0
 30
0.0
 10
-308.0
 20
69.0
 30
0.0
 10
-308.0
 20
76.5
 30
0.0
 10
-308.0
 20
84.0
 30
0.0
 10
-310.0
 20
84.0
 30
0.0
 10
-312.0
 20
84.0
 30
0.0
 10
-312.0
 20
76.5
 30
0.0
 10
-312.0
 20
69.0
 30
0.0
 10
-320.0
 20
69.0
 30
0.0
 10
-328.0
 20
69.0
 30
0.0
 10
-328.0
 20
84.0
 30
0.0
 10
-328.0
 20
99.0
 30
0.0
  0
POLYLINE
  5
1AC
330
1F
100
AcDbEntity
  8
fianl-for laser cut
100
AcDb2dPolyline
 66
     1
 10
0.0
 20
0.0
 30
0.0
 70
     1
  0
VERTEX
  5
1AD
330
1AC
100
AcDbEntity
  8
fianl-for laser cut
100
AcDbVertex
100
AcDb2dVertex
 10
58.0
 20
84.0
 30
0.0
  0
VERTEX
  5
1AE
330
1AC
100
AcDbEntity
  8
fianl-for laser cut
100
AcDbVertex
100
AcDb2dVertex
 10
54.0
 20
84.0
 30
0.0
  0
VERTEX
  5
1AF
330
1AC
100
AcDbEntity
  8
fianl-for laser cut
100
AcDbVertex
100
AcDb2dVertex
 10
54.0
 20
69.0
 30
0.0
  0
VERTEX
  5
1B0
330
1AC
100
AcDbEntity
  8
fianl-for laser cut
100
AcDbVertex
100
AcDb2dVertex
 10
58.0
 20
69.0
 30
0.0
  0
SEQEND
  5
1B1
330
1AC
100
AcDbEntity
  8
fianl-for laser cut
  0
POLYLINE
  5
1B2
330
1F
100
AcDbEntity
  8
fianl-for laser cut
100
AcDb2dPolyline
 66
     1
 10
0.0
 20
0.0
 30
0.0
 70
     1
  0
VERTEX
  5
1B3
330
1B2
100
AcDbEntity
  8
fianl-for laser cut
100
AcDbVertex
100
AcDb2dVertex
 10
58.0
 20
54.0
 30
0.0
  0
VERTEX
  5
1B4
330
1B2
100
AcDbEntity
  8
fianl-for laser cut
100
AcDbVertex
100
AcDb2dVertex
 10
54.0
 20
54.0
 30
0.0
  0
VERTEX
  5
1B5
330
1B2
100
AcDbEntity
  8
fianl-for laser cut
100
AcDbVertex
100
AcDb2dVertex
 10
54.0
 20
39.0
 30
0.0
  0
VERTEX
  5
1B6
330
1B2
100
AcDbEntity
  8
fianl-for laser cut
100
AcDbVertex
100
AcDb2dVertex
 10
58.0
 20
39.0
 30
0.0
  0
SEQEND
  5
1B7
330
1B2
100
AcDbEntity
  8
fianl-for laser cut
  0
POLYLINE
  5
1B8
330
1F
100
AcDbEntity
  8
fianl-for laser cut
100
AcDb2dPolyline
 66
     1
 10
0.0
 20
0.0
 30
0.0
 70
     1
  0
VERTEX
  5
1B9
330
1B8
100
AcDbEntity
  8
fianl-for laser cut
100
AcDbVertex
100
AcDb2dVertex
 10
58.0
 20
24.0
 30
0.0
  0
VERTEX
  5
1BA
330
1B8
100
AcDbEntity
  8
fianl-for laser cut
100
AcDbVertex
100
AcDb2dVertex
 10
54.0
 20
24.0
 30
0.0
  0
VERTEX
  5
1BB
330
1B8
100
AcDbEntity
  8
fianl-for laser cut
100
AcDbVertex
100
AcDb2dVertex
 10
54.0
 20
9.0
 30
0.0
  0
VERTEX
  5
1BC
330
1B8
100
AcDbEntity
  8
fianl-for laser cut
100
AcDbVertex
100
AcDb2dVertex
 10
58.0
 20
9.0
 30
0.0
  0
SEQEND
  5
1BD
330
1B8
100
AcDbEntity
  8
fianl-for laser cut
  0
POLYLINE
  5
1BE
330
1F
100
AcDbEntity
  8
fianl-for laser cut
100
AcDb2dPolyline
 66
     1
 10
0.0
 20
0.0
 30
0.0
 70
     1
  0
VERTEX
  5
1BF
330
1BE
100
AcDbEntity
  8
fianl-for laser cut
100
AcDbVertex
100
AcDb2dVertex
 10
-18.0
 20
84.0
 30
0.0
  0
VERTEX
  5
1C0
330
1BE
100
AcDbEntity
  8
fianl-for laser cut
100
AcDbVertex
100
AcDb2dVertex
 10
-22.0
 20
84.0
 30
0.0
  0
VERTEX
  5
1C1
330
1BE
100
AcDbEntity
  8
fianl-for laser cut
100
AcDbVertex
100
AcDb2dVertex
 10
-22.0
 20
69.0
 30
0.0
  0
VERTEX
  5
1C2
330
1BE
100
AcDbEntity
  8
fianl-for laser cut
100
AcDbVertex
100
AcDb2dVertex
 10
-18.0
 20
69.0
 30
0.0
  0
SEQEND
  5
1C3
330
1BE
100
AcDbEntity
  8
fianl-for laser cut
  0
POLYLINE
  5
1C4
330
1F
100
AcDbEntity
  8
fianl-for laser cut
100
AcDb2dPolyline
 66
     1
 10
0.0
 20
0.0
 30
0.0
 70
     1
  0
VERTEX
  5
1C5
330
1C4
100
AcDbEntity
  8
fianl-for laser cut
100
AcDbVertex
100
AcDb2dVertex
 10
-18.0
 20
54.0
 30
0.0
  0
VERTEX
  5
1C6
330
1C4
100
AcDbEntity
  8
fianl-for laser cut
100
AcDbVertex
100
AcDb2dVertex
 10
-22.0
 20
54.0
 30
0.0
  0
VERTEX
  5
1C7
330
1C4
100
AcDbEntity
  8
fianl-for laser cut
100
AcDbVertex
100
AcDb2dVertex
 10
-22.0
 20
39.0
 30
0.0
  0
VERTEX
  5
1C8
330
1C4
100
AcDbEntity
  8
fianl-for laser cut
100
AcDbVertex
100
AcDb2dVertex
 10
-18.0
 20
39.0
 30
0.0
  0
SEQEND
  5
1C9
330
1C4
100
AcDbEntity
  8
fianl-for laser cut
  0
POLYLINE
  5
1CA
330
1F
100
AcDbEntity
  8
fianl-for laser cut
100
AcDb2dPolyline
 66
     1
 10
0.0
 20
0.0
 30
0.0
 70
     1
  0
VERTEX
  5
1CB
330
1CA
100
AcDbEntity
  8
fianl-for laser cut
100
AcDbVertex
100
AcDb2dVertex
 10
-18.0
 20
24.0
 30
0.0
  0
VERTEX
  5
1CC
330
1CA
100
AcDbEntity
  8
fianl-for laser cut
100
AcDbVertex
100
AcDb2dVertex
 10
-22.0
 20
24.0
 30
0.0
  0
VERTEX
  5
1CD
330
1CA
100
AcDbEntity
  8
fianl-for laser cut
100
AcDbVertex
100
AcDb2dVertex
 10
-22.0
 20
9.0
 30
0.0
  0
VERTEX
  5
1CE
330
1CA
100
AcDbEntity
  8
fianl-for laser cut
100
AcDbVertex
100
AcDb2dVertex
 10
-18.0
 20
9.0
 30
0.0
  0
SEQEND
  5
1CF
330
1CA
100
AcDbEntity
  8
fianl-for laser cut
  0
POLYLINE
  5
1D0
330
1F
100
AcDbEntity
  8
fianl-for laser cut
100
AcDb2dPolyline
 66
     1
 10
0.0
 20
0.0
 30
0.0
 70
     1
  0
VERTEX
  5
1D1
330
1D0
100
AcDbEntity
  8
fianl-for laser cut
100
AcDbVertex
100
AcDb2dVertex
 10
-226.0
 20
33.0
 30
0.0
  0
VERTEX
  5
1D2
330
1D0
100
AcDbEntity
  8
fianl-for laser cut
100
AcDbVertex
100
AcDb2dVertex
 10
-222.0
 20
33.0
 30
0.0
  0
VERTEX
  5
1D3
330
1D0
100
AcDbEntity
  8
fianl-for laser cut
100
AcDbVertex
100
AcDb2dVertex
 10
-222.0
 20
48.0
 30
0.0
  0
VERTEX
  5
1D4
330
1D0
100
AcDbEntity
  8
fianl-for laser cut
100
AcDbVertex
100
AcDb2dVertex
 10
-226.0
 20
48.0
 30
0.0
  0
SEQEND
  5
1D5
330
1D0
100
AcDbEntity
  8
fianl-for laser cut
  0
POLYLINE
  5
1D6
330
1F
100
AcDbEntity
  8
fianl-for laser cut
100
AcDb2dPolyline
 66
     1
 10
0.0
 20
0.0
 30
0.0
 70
     1
  0
VERTEX
  5
1D7
330
1D6
100
AcDbEntity
  8
fianl-for laser cut
100
AcDbVertex
100
AcDb2dVertex
 10
-226.0
 20
3.0
 30
0.0
  0
VERTEX
  5
1D8
330
1D6
100
AcDbEntity
  8
fianl-for laser cut
100
AcDbVertex
100
AcDb2dVertex
 10
-222.0
 20
3.0
 30
0.0
  0
VERTEX
  5
1D9
330
1D6
100
AcDbEntity
  8
fianl-for laser cut
100
AcDbVertex
100
AcDb2dVertex
 10
-222.0
 20
18.0
 30
0.0
  0
VERTEX
  5
1DA
330
1D6
100
AcDbEntity
  8
fianl-for laser cut
100
AcDbVertex
100
AcDb2dVertex
 10
-226.0
 20
18.0
 30
0.0
  0
SEQEND
  5
1DB
330
1D6
100
AcDbEntity
  8
fianl-for laser cut
  0
POLYLINE
  5
1DC
330
1F
100
AcDbEntity
  8
fianl-for laser cut
100
AcDb2dPolyline
 66
     1
 10
0.0
 20
0.0
 30
0.0
 70
     1
  0
VERTEX
  5
1DD
330
1DC
100
AcDbEntity
  8
fianl-for laser cut
100
AcDbVertex
100
AcDb2dVertex
 10
-226.0
 20
-27.0
 30
0.0
  0
VERTEX
  5
1DE
330
1DC
100
AcDbEntity
  8
fianl-for laser cut
100
AcDbVertex
100
AcDb2dVertex
 10
-222.0
 20
-27.0
 30
0.0
  0
VERTEX
  5
1DF
330
1DC
100
AcDbEntity
  8
fianl-for laser cut
100
AcDbVertex
100
AcDb2dVertex
 10
-222.0
 20
-12.0
 30
0.0
  0
VERTEX
  5
1E0
330
1DC
100
AcDbEntity
  8
fianl-for laser cut
100
AcDbVertex
100
AcDb2dVertex
 10
-226.0
 20
-12.0
 30
0.0
  0
SEQEND
  5
1E1
330
1DC
100
AcDbEntity
  8
fianl-for laser cut
  0
POLYLINE
  5
1E2
330
1F
100
AcDbEntity
  8
fianl-for laser cut
100
AcDb2dPolyline
 66
     1
 10
0.0
 20
0.0
 30
0.0
 70
     1
  0
VERTEX
  5
1E3
330
1E2
100
AcDbEntity
  8
fianl-for laser cut
100
AcDbVertex
100
AcDb2dVertex
 10
-302.0
 20
33.0
 30
0.0
  0
VERTEX
  5
1E4
330
1E2
100
AcDbEntity
  8
fianl-for laser cut
100
AcDbVertex
100
AcDb2dVertex
 10
-298.0
 20
33.0
 30
0.0
  0
VERTEX
  5
1E5
330
1E2
100
AcDbEntity
  8
fianl-for laser cut
100
AcDbVertex
100
AcDb2dVertex
 10
-298.0
 20
48.0
 30
0.0
  0
VERTEX
  5
1E6
330
1E2
100
AcDbEntity
  8
fianl-for laser cut
100
AcDbVertex
100
AcDb2dVertex
 10
-302.0
 20
48.0
 30
0.0
  0
SEQEND
  5
1E7
330
1E2
100
AcDbEntity
  8
fianl-for laser cut
  0
POLYLINE
  5
1E8
330
1F
100
AcDbEntity
  8
fianl-for laser cut
100
AcDb2dPolyline
 66
     1
 10
0.0
 20
0.0
 30
0.0
 70
     1
  0
VERTEX
  5
1E9
330
1E8
100
AcDbEntity
  8
fianl-for laser cut
100
AcDbVertex
100
AcDb2dVertex
 10
-302.0
 20
3.0
 30
0.0
  0
VERTEX
  5
1EA
330
1E8
100
AcDbEntity
  8
fianl-for laser cut
100
AcDbVertex
100
AcDb2dVertex
 10
-298.0
 20
3.0
 30
0.0
  0
VERTEX
  5
1EB
330
1E8
100
AcDbEntity
  8
fianl-for laser cut
100
AcDbVertex
100
AcDb2dVertex
 10
-298.0
 20
18.0
 30
0.0
  0
VERTEX
  5
1EC
330
1E8
100
AcDbEntity
  8
fianl-for laser cut
100
AcDbVertex
100
AcDb2dVertex
 10
-302.0
 20
18.0
 30
0.0
  0
SEQEND
  5
1ED
330
1E8
100
AcDbEntity
  8
fianl-for laser cut
  0
POLYLINE
  5
1EE
330
1F
100
AcDbEntity
  8
fianl-for laser cut
100
AcDb2dPolyline
 66
     1
 10
0.0
 20
0.0
 30
0.0
 70
     1
  0
VERTEX
  5
1EF
330
1EE
100
AcDbEntity
  8
fianl-for laser cut
100
AcDbVertex
100
AcDb2dVertex
 10
-302.0
 20
-27.0
 30
0.0
  0
VERTEX
  5
1F0
330
1EE
100
AcDbEntity
  8
fianl-for laser cut
100
AcDbVertex
100
AcDb2dVertex
 10
-298.0
 20
-27.0
 30
0.0
  0
VERTEX
  5
1F1
330
1EE
100
AcDbEntity
  8
fianl-for laser cut
100
AcDbVertex
100
AcDb2dVertex
 10
-298.0
 20
-12.0
 30
0.0
  0
VERTEX
  5
1F2
330
1EE
100
AcDbEntity
  8
fianl-for laser cut
100
AcDbVertex
100
AcDb2dVertex
 10
-302.0
 20
-12.0
 30
0.0
  0
SEQEND
  5
1F3
330
1EE
100
AcDbEntity
  8
fianl-for laser cut
  0
SPLINE
  5
1F4
330
1F
100
AcDbEntity
  8
fianl-for laser cut
100
AcDbSpline
210
0.0
220
0.0
230
1.0
 70
    11
 71
     2
 72
    94
 73
    91
 74
     0
 42
0.000000001
 43
0.0000000001
 40
-250.0
 40
-250.0
 40
-250.0
 40
0.0
 40
0.0
 40
30.0
 40
30.0
 40
80.00000000000006
 40
80.00000000000006
 40
95.00000000000006
 40
95.00000000000006
 40
99.00000000000006
 40
99.00000000000006
 40
114.0000000000001
 40
114.0000000000001
 40
118.0000000000001
 40
118.0000000000001
 40
133.0000000000001
 40
133.0000000000001
 40
137.0000000000001
 40
137.0000000000001
 40
152.0000000000001
 40
152.0000000000001
 40
156.0000000000001
 40
156.0000000000001
 40
171.0000000000001
 40
171.0000000000001
 40
175.0000000000001
 40
175.0000000000001
 40
190.0000000000001
 40
190.0000000000001
 40
194.0000000000001
 40
194.0000000000001
 40
208.0000000000001
 40
208.0000000000001
 40
212.0000000000001
 40
212.0000000000001
 40
222.0000000000001
 40
222.0000000000001
 40
260.0000000000001
 40
260.0000000000001
 40
270.0000000000001
 40
270.0000000000001
 40
274.0000000000001
 40
274.0000000000001
 40
288.0000000000001
 40
288.0000000000001
 40
292.0000000000001
 40
292.0000000000001
 40
307.0000000000001
 40
307.0000000000001
 40
311.0000000000001
 40
311.0000000000001
 40
326.0000000000001
 40
326.0000000000001
 40
330.0000000000001
 40
330.0000000000001
 40
345.0000000000001
 40
345.0000000000001
 40
349.0000000000001
 40
349.0000000000001
 40
364.0000000000001
 40
364.0000000000001
 40
368.0000000000001
 40
368.0000000000001
 40
383.0000000000001
 40
383.0000000000001
 40
387.0000000000001
 40
387.0000000000001
 40
417.0000000000001
 40
417.0000000000001
 40
432.0000000000001
 40
432.0000000000001
 40
448.0000000000001
 40
448.0000000000001
 40
463.0000000000001
 40
463.0000000000001
 40
467.0
 40
467.0
 40
482.0
 40
482.0
 40
692.0
 40
692.0
 40
707.0000000000001
 40
707.0000000000001
 40
711.0000000000001
 40
711.0000000000001
 40
726.0000000000002
 40
726.0000000000002
 40
742.0
 40
742.0
 40
772.0000000000001
 40
772.0000000000001
 40
772.0000000000001
 10
84.0
 20
-42.0
 30
0.0
 10
-41.0
 20
-42.0
 30
0.0
 10
-166.0
 20
-42.0
 30
0.0
 10
-181.0
 20
-42.0
 30
0.0
 10
-196.0
 20
-42.0
 30
0.0
 10
-261.9998188154194
 20
-42.0
 30
0.0
 10
-327.9996376308388
 20
-42.0
 30
0.0
 10
-327.9996376308388
 20
-34.5
 30
0.0
 10
-327.9996376308388
 20
-27.0
 30
0.0
 10
-325.9996376308388
 20
-27.0
 30
0.0
 10
-323.9996376308388
 20
-27.0
 30
0.0
 10
-323.9996376308388
 20
-19.5
 30
0.0
 10
-323.9996376308388
 20
-12.0
 30
0.0
 10
-325.9996376308388
 20
-12.0
 30
0.0
 10
-327.9996376308388
 20
-12.0
 30
0.0
 10
-327.9996376308388
 20
-4.5
 30
0.0
 10
-327.9996376308388
 20
3.0
 30
0.0
 10
-325.9996376308388
 20
3.0
 30
0.0
 10
-323.9996376308388
 20
3.0
 30
0.0
 10
-323.9996376308388
 20
10.5
 30
0.0
 10
-323.9996376308388
 20
18.0
 30
0.0
 10
-325.9996376308388
 20
18.0
 30
0.0
 10
-327.9996376308388
 20
18.0
 30
0.0
 10
-327.9996376308388
 20
25.5
 30
0.0
 10
-327.9996376308388
 20
33.0
 30
0.0
 10
-325.9996376308388
 20
33.0
 30
0.0
 10
-323.9996376308388
 20
33.0
 30
0.0
 10
-323.9996376308388
 20
40.5
 30
0.0
 10
-323.9996376308388
 20
48.0
 30
0.0
 10
-325.9996376308388
 20
48.0
 30
0.0
 10
-327.9996376308388
 20
48.0
 30
0.0
 10
-327.9996376308388
 20
51.0
 30
0.0
 10
-327.9996376308388
 20
54.0
 30
0.0
 10
-327.9996376308388
 20
56.0
 30
0.0
 10
-327.9996376308388
 20
58.0
 30
0.0
 10
-322.9996376308388
 20
58.0
 30
0.0
 10
-317.9996376308388
 20
58.0
 30
0.0
 10
-261.9998188154194
 20
58.0
 30
0.0
 10
-206.0
 20
58.0
 30
0.0
 10
-201.0
 20
58.0
 30
0.0
 10
-196.0
 20
58.0
 30
0.0
 10
-196.0
 20
56.0
 30
0.0
 10
-196.0
 20
54.0
 30
0.0
 10
-196.0
 20
51.0
 30
0.0
 10
-196.0
 20
48.0
 30
0.0
 10
-198.0
 20
48.0
 30
0.0
 10
-200.0
 20
48.0
 30
0.0
 10
-200.0
 20
40.5
 30
0.0
 10
-200.0
 20
33.0
 30
0.0
 10
-198.0
 20
33.0
 30
0.0
 10
-196.0
 20
33.0
 30
0.0
 10
-196.0
 20
25.5
 30
0.0
 10
-196.0
 20
18.0
 30
0.0
 10
-198.0
 20
18.0
 30
0.0
 10
-200.0
 20
18.0
 30
0.0
 10
-200.0
 20
10.5
 30
0.0
 10
-200.0
 20
3.0
 30
0.0
 10
-198.0
 20
3.0
 30
0.0
 10
-196.0
 20
3.0
 30
0.0
 10
-196.0
 20
-4.5
 30
0.0
 10
-196.0
 20
-12.0
 30
0.0
 10
-198.0
 20
-12.0
 30
0.0
 10
-200.0
 20
-12.0
 30
0.0
 10
-200.0
 20
-19.5
 30
0.0
 10
-200.0
 20
-27.0
 30
0.0
 10
-198.0
 20
-27.0
 30
0.0
 10
-196.0
 20
-27.0
 30
0.0
 10
-181.0
 20
-27.0
 30
0.0
 10
-166.0
 20
-27.0
 30
0.0
 10
-166.0
 20
-19.5
 30
0.0
 10
-166.0
 20
-12.0
 30
0.0
 10
-158.0
 20
-12.0
 30
0.0
 10
-150.0
 20
-12.0
 30
0.0
 10
-150.0
 20
-19.5
 30
0.0
 10
-150.0
 20
-27.0
 30
0.0
 10
-148.0
 20
-27.0
 30
0.0
 10
-146.0
 20
-27.0
 30
0.0
 10
-146.0
 20
-19.5
 30
0.0
 10
-146.0
 20
-12.0
 30
0.0
 10
-41.0
 20
-12.0
 30
0.0
 10
64.0
 20
-12.0
 30
0.0
 10
64.0
 20
-19.5
 30
0.0
 10
64.0
 20
-27.0
 30
0.0
 10
66.0
 20
-27.0
 30
0.0
 10
68.0
 20
-27.0
 30
0.0
 10
68.0
 20
-19.5
 30
0.0
 10
68.0
 20
-12.0
 30
0.0
 10
76.0
 20
-12.0
 30
0.0
 10
84.0
 20
-12.0
 30
0.0
 10
84.0
 20
-27.0
 30
0.0
 10
84.0
 20
-42.0
 30
0.0
  0
SPLINE
  5
1F5
330
1F
100
AcDbEntity
  8
fianl-for laser cut
100
AcDbSpline
210
0.0
220
0.0
230
1.0
 70
    11
 71
     2
 72
    66
 73
    63
 74
     0
 42
0.000000001
 43
0.0000000001
 40
0.0
 40
0.0
 40
0.0
 40
75.99999999999994
 40
75.99999999999994
 40
115.9999999999999
 40
115.9999999999999
 40
143.9999999999999
 40
143.9999999999999
 40
183.9999999999999
 40
183.9999999999999
 40
187.9999999999999
 40
187.9999999999999
 40
207.9999999999999
 40
207.9999999999999
 40
212.0
 40
212.0
 40
252.0
 40
252.0
 40
256.0
 40
256.0
 40
276.0
 40
276.0
 40
280.0
 40
280.0
 40
311.9999999999999
 40
311.9999999999999
 40
321.9999999999999
 40
321.9999999999999
 40
325.9999999999999
 40
325.9999999999999
 40
335.9999999999999
 40
335.9999999999999
 40
339.9999999999999
 40
339.9999999999999
 40
349.9999999999999
 40
349.9999999999999
 40
433.9999999999999
 40
433.9999999999999
 40
448.9999999999999
 40
448.9999999999999
 40
452.9999999999999
 40
452.9999999999999
 40
467.9999999999999
 40
467.9999999999999
 40
580.0
 40
580.0
 40
595.0
 40
595.0
 40
599.0
 40
599.0
 40
614.0
 40
614.0
 40
698.0
 40
698.0
 40
708.0
 40
708.0
 40
712.0
 40
712.0
 40
722.0
 40
722.0
 40
726.0
 40
726.0
 40
736.0
 40
736.0
 40
736.0
 10
279.0
 20
160.0
 30
0.0
 10
237.0
 20
160.0
 30
0.0
 10
195.0
 20
160.0
 30
0.0
 10
175.0
 20
160.0
 30
0.0
 10
155.0
 20
160.0
 30
0.0
 10
145.0
 20
160.0
 30
0.0
 10
135.0
 20
160.0
 30
0.0
 10
115.0
 20
160.0
 30
0.0
 10
95.0
 20
160.0
 30
0.0
 10
95.0
 20
158.0
 30
0.0
 10
95.0
 20
156.0
 30
0.0
 10
85.0
 20
156.0
 30
0.0
 10
75.0
 20
156.0
 30
0.0
 10
75.0
 20
158.0
 30
0.0
 10
75.0
 20
160.0
 30
0.0
 10
55.0
 20
160.0
 30
0.0
 10
35.0
 20
160.0
 30
0.0
 10
35.0
 20
158.0
 30
0.0
 10
35.0
 20
156.0
 30
0.0
 10
25.0
 20
156.0
 30
0.0
 10
15.0
 20
156.0
 30
0.0
 10
15.0
 20
158.0
 30
0.0
 10
15.0
 20
160.0
 30
0.0
 10
-5.0
 20
160.0
 30
0.0
 10
-25.0
 20
160.0
 30
0.0
 10
-25.0
 20
165.0
 30
0.0
 10
-25.0
 20
170.0
 30
0.0
 10
-23.0
 20
170.0
 30
0.0
 10
-21.0
 20
170.0
 30
0.0
 10
-21.0
 20
175.0
 30
0.0
 10
-21.0
 20
180.0
 30
0.0
 10
-23.0
 20
180.0
 30
0.0
 10
-25.0
 20
180.0
 30
0.0
 10
-25.0
 20
185.0
 30
0.0
 10
-25.0
 20
190.0
 30
0.0
 10
21.0
 20
190.0
 30
0.0
 10
67.0
 20
190.0
 30
0.0
 10
67.0
 20
182.5
 30
0.0
 10
67.0
 20
175.0
 30
0.0
 10
69.0
 20
175.0
 30
0.0
 10
71.0
 20
175.0
 30
0.0
 10
71.0
 20
182.5
 30
0.0
 10
71.0
 20
190.0
 30
0.0
 10
127.0
 20
190.0
 30
0.0
 10
183.0
 20
190.0
 30
0.0
 10
183.0
 20
182.5
 30
0.0
 10
183.0
 20
175.0
 30
0.0
 10
185.0
 20
175.0
 30
0.0
 10
187.0
 20
175.0
 30
0.0
 10
187.0
 20
182.5
 30
0.0
 10
187.0
 20
190.0
 30
0.0
 10
233.0
 20
190.0
 30
0.0
 10
279.0
 20
190.0
 30
0.0
 10
279.0
 20
185.0
 30
0.0
 10
279.0
 20
180.0
 30
0.0
 10
277.0
 20
180.0
 30
0.0
 10
275.0
 20
180.0
 30
0.0
 10
275.0
 20
175.0
 30
0.0
 10
275.0
 20
170.0
 30
0.0
 10
277.0
 20
170.0
 30
0.0
 10
279.0
 20
170.0
 30
0.0
 10
279.0
 20
165.0
 30
0.0
 10
279.0
 20
160.0
 30
0.0
  0
SPLINE
  5
1F6
330
1F
100
AcDbEntity
  8
fianl-for laser cut
100
AcDbSpline
210
0.0
220
0.0
230
1.0
 70
    11
 71
     2
 72
    66
 73
    63
 74
     0
 42
0.000000001
 43
0.0000000001
 40
0.0
 40
0.0
 40
0.0
 40
75.99999999999994
 40
75.99999999999994
 40
115.9999999999999
 40
115.9999999999999
 40
143.9999999999999
 40
143.9999999999999
 40
183.9999999999999
 40
183.9999999999999
 40
187.9999999999999
 40
187.9999999999999
 40
207.9999999999999
 40
207.9999999999999
 40
212.0
 40
212.0
 40
252.0
 40
252.0
 40
256.0
 40
256.0
 40
276.0
 40
276.0
 40
280.0
 40
280.0
 40
311.9999999999999
 40
311.9999999999999
 40
321.9999999999999
 40
321.9999999999999
 40
325.9999999999999
 40
325.9999999999999
 40
335.9999999999999
 40
335.9999999999999
 40
339.9999999999999
 40
339.9999999999999
 40
349.9999999999999
 40
349.9999999999999
 40
433.9999999999999
 40
433.9999999999999
 40
448.9999999999999
 40
448.9999999999999
 40
452.9999999999999
 40
452.9999999999999
 40
467.9999999999999
 40
467.9999999999999
 40
580.0
 40
580.0
 40
595.0
 40
595.0
 40
599.0
 40
599.0
 40
614.0
 40
614.0
 40
698.0
 40
698.0
 40
708.0
 40
708.0
 40
712.0
 40
712.0
 40
722.0
 40
722.0
 40
726.0
 40
726.0
 40
736.0
 40
736.0
 40
736.0
 10
278.0
 20
203.0
 30
0.0
 10
236.0
 20
203.0
 30
0.0
 10
194.0
 20
203.0
 30
0.0
 10
174.0
 20
203.0
 30
0.0
 10
154.0
 20
203.0
 30
0.0
 10
144.0
 20
203.0
 30
0.0
 10
134.0
 20
203.0
 30
0.0
 10
114.0
 20
203.0
 30
0.0
 10
94.0
 20
203.0
 30
0.0
 10
94.0
 20
201.0
 30
0.0
 10
94.0
 20
199.0
 30
0.0
 10
84.0
 20
199.0
 30
0.0
 10
74.0
 20
199.0
 30
0.0
 10
74.0
 20
201.0
 30
0.0
 10
74.0
 20
203.0
 30
0.0
 10
54.0
 20
203.0
 30
0.0
 10
34.0
 20
203.0
 30
0.0
 10
34.0
 20
201.0
 30
0.0
 10
34.0
 20
199.0
 30
0.0
 10
24.0
 20
199.0
 30
0.0
 10
14.0
 20
199.0
 30
0.0
 10
14.0
 20
201.0
 30
0.0
 10
14.0
 20
203.0
 30
0.0
 10
-6.0
 20
203.0
 30
0.0
 10
-26.0
 20
203.0
 30
0.0
 10
-26.0
 20
208.0
 30
0.0
 10
-26.0
 20
213.0
 30
0.0
 10
-24.0
 20
213.0
 30
0.0
 10
-22.0
 20
213.0
 30
0.0
 10
-22.0
 20
218.0
 30
0.0
 10
-22.0
 20
223.0
 30
0.0
 10
-24.0
 20
223.0
 30
0.0
 10
-26.0
 20
223.0
 30
0.0
 10
-26.0
 20
228.0
 30
0.0
 10
-26.0
 20
233.0
 30
0.0
 10
20.0
 20
233.0
 30
0.0
 10
66.0
 20
233.0
 30
0.0
 10
66.0
 20
225.5
 30
0.0
 10
66.0
 20
218.0
 30
0.0
 10
68.0
 20
218.0
 30
0.0
 10
70.0
 20
218.0
 30
0.0
 10
70.0
 20
225.5
 30
0.0
 10
70.0
 20
233.0
 30
0.0
 10
126.0
 20
233.0
 30
0.0
 10
182.0
 20
233.0
 30
0.0
 10
182.0
 20
225.5
 30
0.0
 10
182.0
 20
218.0
 30
0.0
 10
184.0
 20
218.0
 30
0.0
 10
186.0
 20
218.0
 30
0.0
 10
186.0
 20
225.5
 30
0.0
 10
186.0
 20
233.0
 30
0.0
 10
232.0
 20
233.0
 30
0.0
 10
278.0
 20
233.0
 30
0.0
 10
278.0
 20
228.0
 30
0.0
 10
278.0
 20
223.0
 30
0.0
 10
276.0
 20
223.0
 30
0.0
 10
274.0
 20
223.0
 30
0.0
 10
274.0
 20
218.0
 30
0.0
 10
274.0
 20
213.0
 30
0.0
 10
276.0
 20
213.0
 30
0.0
 10
278.0
 20
213.0
 30
0.0
 10
278.0
 20
208.0
 30
0.0
 10
278.0
 20
203.0
 30
0.0
  0
ARC
  5
1F7
330
1F
100
AcDbEntity
  8
fianl-for laser cut
100
AcDbCircle
 10
231.9981633974045
 20
124.9298995902818
 30
0.0
 40
2.5
100
AcDbArc
 50
116.7125822461268
 51
296.7125822461239
  0
LINE
  5
1F8
330
1F
100
AcDbEntity
  8
fianl-for laser cut
100
AcDbLine
 10
230.874375463439
 20
127.1630813292975
 30
0.0
 11
236.0705093185285
 21
131.4571127384231
 31
0.0
  0
LINE
  5
1F9
330
1F
100
AcDbEntity
  8
fianl-for laser cut
100
AcDbLine
 10
236.0705093185285
 20
131.4571127384231
 30
0.0
 11
231.4002198863598
 21
136.3178646763781
 31
0.0
  0
ARC
  5
1FA
330
1F
100
AcDbEntity
  8
fianl-for laser cut
100
AcDbCircle
 10
232.7723180366322
 20
138.4076844451668
 30
0.0
 40
2.5
100
AcDbArc
 50
56.71258224612588
 51
236.7125822461235
  0
LINE
  5
1FB
330
1F
100
AcDbEntity
  8
fianl-for laser cut
100
AcDbLine
 10
234.1444161869044
 20
140.4975042139552
 30
0.0
 11
240.4612233994001
 21
138.144535998546
 31
0.0
  0
LINE
  5
1FC
330
1F
100
AcDbEntity
  8
fianl-for laser cut
100
AcDbLine
 10
240.4612233994001
 20
138.144535998546
 30
0.0
 11
242.3356133430798
 21
144.6195012588075
 31
0.0
  0
ARC
  5
1FD
330
1F
100
AcDbEntity
  8
fianl-for laser cut
100
AcDbCircle
 10
244.8314994273178
 20
144.47613928858
 30
0.0
 40
2.5
100
AcDbArc
 50
356.7125822461263
 51
176.7125822461237
  0
LINE
  5
1FE
330
1F
100
AcDbEntity
  8
fianl-for laser cut
100
AcDbLine
 10
247.3273855115557
 20
144.332777318353
 30
0.0
 11
248.4480588689615
 21
137.6857776938182
 31
0.0
  0
LINE
  5
1FF
330
1F
100
AcDbEntity
  8
fianl-for laser cut
100
AcDbLine
 10
248.4480588689615
 20
137.6857776938182
 30
0.0
 11
254.9927382448096
 21
139.2999910161247
 31
0.0
  0
ARC
  5
200
330
1F
100
AcDbEntity
  8
fianl-for laser cut
100
AcDbCircle
 10
256.1165261787751
 20
137.0668092771091
 30
0.0
 40
2.5
100
AcDbArc
 50
296.7125822461263
 51
116.7125822461239
  0
LINE
  5
201
330
1F
100
AcDbEntity
  8
fianl-for laser cut
100
AcDbLine
 10
257.2403141127406
 20
134.8336275380932
 30
0.0
 11
252.0441802576512
 21
130.5395961289678
 31
0.0
  0
LINE
  5
202
330
1F
100
AcDbEntity
  8
fianl-for laser cut
100
AcDbLine
 10
252.0441802576512
 20
130.5395961289678
 30
0.0
 11
256.7144696898196
 21
125.6788441910123
 31
0.0
  0
ARC
  5
203
330
1F
100
AcDbEntity
  8
fianl-for laser cut
100
AcDbCircle
 10
255.3423715395471
 20
123.5890244222242
 30
0.0
 40
2.5
100
AcDbArc
 50
236.7125822461259
 51
56.71258224612353
  0
LINE
  5
204
330
1F
100
AcDbEntity
  8
fianl-for laser cut
100
AcDbLine
 10
253.9702733892747
 20
121.4992046534355
 30
0.0
 11
247.6534661767795
 21
123.8521728688445
 31
0.0
  0
LINE
  5
205
330
1F
100
AcDbEntity
  8
fianl-for laser cut
100
AcDbLine
 10
247.653466176779
 20
123.8521728688452
 30
0.0
 11
245.7790762330998
 21
117.3772076085831
 31
0.0
  0
ARC
  5
206
330
1F
100
AcDbEntity
  8
fianl-for laser cut
100
AcDbCircle
 10
243.2831901488618
 20
117.5205695788106
 30
0.0
 40
2.5
100
AcDbArc
 50
176.7125822461263
 51
356.7125822461237
  0
LINE
  5
207
330
1F
100
AcDbEntity
  8
fianl-for laser cut
100
AcDbLine
 10
240.7873040646239
 20
117.6639315490377
 30
0.0
 11
239.6666307072179
 21
124.3109311735725
 31
0.0
  0
LINE
  5
208
330
1F
100
AcDbEntity
  8
fianl-for laser cut
100
AcDbLine
 10
239.6666307072179
 20
124.3109311735725
 30
0.0
 11
233.12195133137
 21
122.6967178512659
 31
0.0
  0
CIRCLE
  5
209
330
1F
100
AcDbEntity
  8
fianl-for laser cut
100
AcDbCircle
 10
74.3370910599109
 20
140.7469684091527
 30
0.0
 40
3.0
  0
LINE
  5
20A
330
1F
100
AcDbEntity
  8
fianl-for laser cut
100
AcDbLine
 10
245.4909644903625
 20
155.9572152760745
 30
0.0
 11
74.91053894082017
 21
150.7305127461043
 31
0.0
  0
ARC
  5
20B
330
1F
100
AcDbEntity
  8
fianl-for laser cut
100
AcDbCircle
 10
74.3370910599109
 20
140.7469684091527
 30
0.0
 40
10.0
100
AcDbArc
 50
86.71258224612379
 51
266.7125822461238
  0
LINE
  5
20C
330
1F
100
AcDbEntity
  8
fianl-for laser cut
100
AcDbLine
 10
73.76364317900169
 20
130.7634240722009
 30
0.0
 11
242.6237250858162
 21
106.0394935913159
 31
0.0
  0
LINE
  5
20D
330
1F
100
AcDbEntity
  8
fianl-for laser cut
100
AcDbLine
 10
242.6237250858162
 20
106.0394935913159
 30
0.0
 11
275.4466723474299
 21
106.205006225508
 31
0.0
  0
ARC
  5
20E
330
1F
100
AcDbEntity
  8
fianl-for laser cut
100
AcDbCircle
 10
244.0573447880893
 20
130.9983544336953
 30
0.0
 40
40.00000000000022
100
AcDbArc
 50
321.6960082363336
 51
31.72915625591394
  0
LINE
  5
20F
330
1F
100
AcDbEntity
  8
fianl-for laser cut
100
AcDbLine
 10
278.0790888327971
 20
152.0345359350133
 30
0.0
 11
245.4909644903625
 21
155.9572152760745
 31
0.0
  0
ARC
  5
210
330
1F
100
AcDbEntity
  8
fianl-for laser cut
100
AcDbCircle
 10
-17.8520856868264
 20
283.196104985569
 30
0.0
 40
25.0
100
AcDbArc
 50
80.87710379461952
 51
260.8771037946195
  0
LINE
  5
211
330
1F
100
AcDbEntity
  8
fianl-for laser cut
100
AcDbLine
 10
-21.81590166594208
 20
258.5123418428939
 30
0.0
 11
79.2974404922295
 21
257.4673358120358
 31
0.0
  0
ARC
  5
212
330
1F
100
AcDbEntity
  8
fianl-for laser cut
100
AcDbCircle
 10
80.88296688387572
 20
267.3408410691063
 30
0.0
 40
10.00000000000011
100
AcDbArc
 50
260.8771037946186
 51
80.87710379461792
  0
LINE
  5
213
330
1F
100
AcDbEntity
  8
fianl-for laser cut
100
AcDbLine
 10
82.46849327552195
 20
277.2143463261768
 30
0.0
 11
-13.88826970771083
 21
307.8798681282447
 31
0.0
  0
SPLINE
  5
214
330
1F
100
AcDbEntity
  8
fianl-for laser cut
100
AcDbSpline
210
0.0
220
0.0
230
1.0
 70
    15
 71
     2
 72
    12
 73
     9
 74
     0
 42
0.000000001
 43
0.0000000001
 40
0.0
 40
0.0
 40
0.0
 40
4.71238898038469
 40
4.71238898038469
 40
9.42477796076938
 40
9.42477796076938
 40
14.13716694115407
 40
14.13716694115407
 40
18.84955592153876
 40
18.84955592153876
 40
18.84955592153876
 10
83.8450184609967
 20
266.8651831516127
 30
0.0
 41
1.0
 10
84.32067637849053
 20
269.8272347287334
 30
0.0
 41
0.7071067811865476
 10
81.35862480136961
 20
270.3028926462275
 30
0.0
 41
1.0
 10
78.39657322424848
 20
270.7785505637212
 30
0.0
 41
0.7071067811865476
 10
77.92091530675464
 20
267.8164989866004
 30
0.0
 41
1.0
 10
77.44525738926066
 20
264.8544474094793
 30
0.0
 41
0.7071067811865476
 10
80.40730896638195
 20
264.3787894919851
 30
0.0
 41
1.0
 10
83.36936054350286
 20
263.9031315744917
 30
0.0
 41
0.7071067811865476
 10
83.8450184609967
 20
266.8651831516127
 30
0.0
 41
1.0
  0
ARC
  5
215
330
1F
100
AcDbEntity
  8
fianl-for laser cut
100
AcDbCircle
 10
-10.95072234315307
 20
273.654220014751
 30
0.0
 40
4.115228302108667
100
AcDbArc
 50
92.76576183424436
 51
158.9884457549903
  0
SPLINE
  5
216
330
1F
100
AcDbEntity
  8
fianl-for laser cut
100
AcDbSpline
210
0.0
220
0.0
230
1.0
 70
    24
 71
     2
 72
     6
 73
     3
 74
     0
 42
0.000000001
 43
0.0000000001
 40
88.04680161818567
 40
88.04680161818567
 40
88.04680161818567
 40
97.70315206567267
 40
97.70315206567267
 40
97.70315206567267
 10
-11.14929406676856
 20
277.7646546935966
 30
0.0
 10
-6.30082643049559
 20
277.9988801832717
 30
0.0
 10
-1.452358794222619
 20
278.2331056729467
 30
0.0
  0
SPLINE
  5
217
330
1F
100
AcDbEntity
  8
fianl-for laser cut
100
AcDbSpline
210
0.0
220
0.0
230
1.0
 70
    24
 71
     2
 72
     6
 73
     3
 74
     0
 42
0.000000001
 43
0.0000000001
 40
97.70298455779107
 40
97.70298455779107
 40
97.70298455779107
 40
97.7238089497383
 40
97.7238089497383
 40
97.7238089497383
 10
-1.452358794222619
 20
278.2331056729467
 30
0.0
 10
-1.44207830705426
 20
278.2314547917956
 30
0.0
 10
-1.431797819885901
 20
278.2298039106445
 30
0.0
  0
SPLINE
  5
218
330
1F
100
AcDbEntity
  8
fianl-for laser cut
100
AcDbSpline
210
0.0
220
0.0
230
1.0
 70
    12
 71
     2
 72
     8
 73
     5
 74
     0
 42
0.000000001
 43
0.0000000001
 40
97.7238089497383
 40
97.7238089497383
 40
97.7238089497383
 40
101.6507997667256
 40
101.6507997667256
 40
105.5777905837128
 40
105.5777905837128
 40
105.5777905837128
 10
-1.431797819885901
 20
278.2298039106445
 30
0.0
 41
1.0
 10
0.8391083892404037
 20
277.8651328405656
 30
0.0
 41
0.7071067811865539
 10
1.203779459319321
 20
280.136039049692
 30
0.0
 41
1.0
 10
1.568450529398004
 20
282.406945258818
 30
0.0
 41
0.7071067811865539
 10
-0.7024556797282457
 20
282.7716163288969
 30
0.0
 41
1.0
  0
SPLINE
  5
219
330
1F
100
AcDbEntity
  8
fianl-for laser cut
100
AcDbSpline
210
0.0
220
0.0
230
1.0
 70
    24
 71
     2
 72
     6
 73
     3
 74
     0
 42
0.000000001
 43
0.0000000001
 40
105.5777905837128
 40
105.5777905837128
 40
105.5777905837128
 40
105.598614975661
 40
105.598614975661
 40
105.598614975661
 10
-0.7024556797282457
 20
282.7716163288969
 30
0.0
 10
-0.7127361668970025
 20
282.7732672100481
 30
0.0
 10
-0.7230166540657592
 20
282.7749180911992
 30
0.0
  0
SPLINE
  5
21A
330
1F
100
AcDbEntity
  8
fianl-for laser cut
100
AcDbSpline
210
0.0
220
0.0
230
1.0
 70
    24
 71
     2
 72
     6
 73
     3
 74
     0
 42
0.000000001
 43
0.0000000001
 40
105.661088151503
 40
105.661088151503
 40
105.661088151503
 40
115.3693320709763
 40
115.3693320709763
 40
115.3693320709763
 10
-0.7230166540657592
 20
282.7749180911992
 30
0.0
 10
-5.254379012009281
 20
284.5153936529382
 30
0.0
 10
-9.785741369952802
 20
286.2558692146772
 30
0.0
  0
ARC
  5
21B
330
1F
100
AcDbEntity
  8
fianl-for laser cut
100
AcDbCircle
 10
-8.31020071600824
 20
290.0974683292429
 30
0.0
 40
4.115228302108667
100
AcDbArc
 50
182.7657618342501
 51
248.988445754996
  0
SPLINE
  5
21C
330
1F
100
AcDbEntity
  8
fianl-for laser cut
100
AcDbSpline
210
0.0
220
0.0
230
1.0
 70
    24
 71
     2
 72
     6
 73
     3
 74
     0
 42
0.000000001
 43
0.0000000001
 40
120.6214046014316
 40
120.6214046014316
 40
120.6214046014316
 40
130.2777550489187
 40
130.2777550489187
 40
130.2777550489187
 10
-12.42063539485378
 20
289.8988966056272
 30
0.0
 10
-12.65486088452883
 20
294.7473642419002
 30
0.0
 10
-12.88908637420388
 20
299.5958318781732
 30
0.0
  0
SPLINE
  5
21D
330
1F
100
AcDbEntity
  8
fianl-for laser cut
100
AcDbSpline
210
0.0
220
0.0
230
1.0
 70
    24
 71
     2
 72
     6
 73
     3
 74
     0
 42
0.000000001
 43
0.0000000001
 40
130.2775875410371
 40
130.2775875410371
 40
130.2775875410371
 40
130.2984119329845
 40
130.2984119329845
 40
130.2984119329845
 10
-12.88908637420388
 20
299.5958318781732
 30
0.0
 10
-12.88743549305275
 20
299.6061123653415
 30
0.0
 10
-12.88578461190161
 20
299.6163928525098
 30
0.0
  0
SPLINE
  5
21E
330
1F
100
AcDbEntity
  8
fianl-for laser cut
100
AcDbSpline
210
0.0
220
0.0
230
1.0
 70
    12
 71
     2
 72
     8
 73
     5
 74
     0
 42
0.000000001
 43
0.0000000001
 40
0.0
 40
0.0
 40
0.0
 40
3.926990816987255
 40
3.926990816987255
 40
7.85398163397451
 40
7.85398163397451
 40
7.85398163397451
 10
-12.88578461190161
 20
299.6163928525098
 30
0.0
 41
1.0
 10
-12.52111354182241
 20
301.8872990616364
 30
0.0
 41
0.7071067811865079
 10
-14.79201975094907
 20
302.2519701317151
 30
0.0
 41
1.0
 10
-17.06292596007532
 20
302.6166412017938
 30
0.0
 41
0.7071067811865079
 10
-17.42759703015395
 20
300.3457349926671
 30
0.0
 41
1.0
  0
SPLINE
  5
21F
330
1F
100
AcDbEntity
  8
fianl-for laser cut
100
AcDbSpline
210
0.0
220
0.0
230
1.0
 70
    24
 71
     2
 72
     6
 73
     3
 74
     0
 42
0.000000001
 43
0.0000000001
 40
7.85398163397451
 40
7.85398163397451
 40
7.85398163397451
 40
7.87480602592206
 40
7.87480602592206
 40
7.87480602592206
 10
-17.42759703015395
 20
300.3457349926671
 30
0.0
 10
-17.42924791130508
 20
300.3354545054985
 30
0.0
 10
-17.43089879245622
 20
300.32517401833
 30
0.0
  0
SPLINE
  5
220
330
1F
100
AcDbEntity
  8
fianl-for laser cut
100
AcDbSpline
210
0.0
220
0.0
230
1.0
 70
    24
 71
     2
 72
     6
 73
     3
 74
     0
 42
0.000000001
 43
0.0000000001
 40
7.937279201764608
 40
7.937279201764608
 40
7.937279201764608
 40
17.6455231212381
 40
17.6455231212381
 40
17.6455231212381
 10
-17.43089879245622
 20
300.32517401833
 30
0.0
 10
-19.17137435419522
 20
295.7938116603866
 30
0.0
 10
-20.91184991593423
 20
291.2624493024432
 30
0.0
  0
ARC
  5
221
330
1F
100
AcDbEntity
  8
fianl-for laser cut
100
AcDbCircle
 10
-24.75344903049995
 20
292.737989956388
 30
0.0
 40
4.115228302108667
100
AcDbArc
 50
272.7657618342444
 51
338.9884457549903
  0
SPLINE
  5
222
330
1F
100
AcDbEntity
  8
fianl-for laser cut
100
AcDbSpline
210
0.0
220
0.0
230
1.0
 70
    24
 71
     2
 72
     6
 73
     3
 74
     0
 42
0.000000001
 43
0.0000000001
 40
22.89759565169347
 40
22.89759565169347
 40
22.89759565169347
 40
32.55394609918061
 40
32.55394609918061
 40
32.55394609918061
 10
-24.55487730688458
 20
288.6275552775423
 30
0.0
 10
-29.40334494315749
 20
288.3933297878671
 30
0.0
 10
-34.25181257943041
 20
288.1591042981918
 30
0.0
  0
SPLINE
  5
223
330
1F
100
AcDbEntity
  8
fianl-for laser cut
100
AcDbSpline
210
0.0
220
0.0
230
1.0
 70
    24
 71
     2
 72
     6
 73
     3
 74
     0
 42
0.000000001
 43
0.0000000001
 40
32.55377859129885
 40
32.55377859129885
 40
32.55377859129885
 40
32.57460298324633
 40
32.57460298324633
 40
32.57460298324633
 10
-34.25181257943041
 20
288.1591042981918
 30
0.0
 10
-34.26209306659882
 20
288.1607551793429
 30
0.0
 10
-34.27237355376724
 20
288.162406060494
 30
0.0
  0
SPLINE
  5
224
330
1F
100
AcDbEntity
  8
fianl-for laser cut
100
AcDbSpline
210
0.0
220
0.0
230
1.0
 70
    12
 71
     2
 72
     8
 73
     5
 74
     0
 42
0.000000001
 43
0.0000000001
 40
32.57460298324633
 40
32.57460298324633
 40
32.57460298324633
 40
36.50159380023359
 40
36.50159380023359
 40
40.42858461722084
 40
40.42858461722084
 40
40.42858461722084
 10
-34.27237355376724
 20
288.162406060494
 30
0.0
 41
1.0
 10
-36.54327976289353
 20
288.5270771305726
 30
0.0
 41
0.7071067811865214
 10
-36.90795083297201
 20
286.2561709214469
 30
0.0
 41
1.0
 10
-37.27262190305061
 20
283.9852647123205
 30
0.0
 41
0.7071067811865214
 10
-35.00171569392455
 20
283.6205936422421
 30
0.0
 41
1.0
  0
SPLINE
  5
225
330
1F
100
AcDbEntity
  8
fianl-for laser cut
100
AcDbSpline
210
0.0
220
0.0
230
1.0
 70
    24
 71
     2
 72
     6
 73
     3
 74
     0
 42
0.000000001
 43
0.0000000001
 40
40.42858461722084
 40
40.42858461722084
 40
40.42858461722084
 40
40.44940900916765
 40
40.44940900916765
 40
40.44940900916765
 10
-35.00171569392455
 20
283.6205936422421
 30
0.0
 10
-34.99143520675648
 20
283.6189427610909
 30
0.0
 10
-34.9811547195884
 20
283.6172918799398
 30
0.0
  0
SPLINE
  5
226
330
1F
100
AcDbEntity
  8
fianl-for laser cut
100
AcDbSpline
210
0.0
220
0.0
230
1.0
 70
    24
 71
     2
 72
     6
 73
     3
 74
     0
 42
0.000000001
 43
0.0000000001
 40
40.51188218500968
 40
40.51188218500968
 40
40.51188218500968
 40
50.22012610448427
 40
50.22012610448427
 40
50.22012610448427
 10
-34.9811547195884
 20
283.6172918799398
 30
0.0
 10
-30.44979236164431
 20
281.8768163182008
 30
0.0
 10
-25.91843000370022
 20
280.1363407564618
 30
0.0
  0
ARC
  5
227
330
1F
100
AcDbEntity
  8
fianl-for laser cut
100
AcDbCircle
 10
-27.39397065764479
 20
276.2947416418961
 30
0.0
 40
4.115228302108667
100
AcDbArc
 50
2.76576183425009
 51
68.988445754996
  0
SPLINE
  5
228
330
1F
100
AcDbEntity
  8
fianl-for laser cut
100
AcDbSpline
210
0.0
220
0.0
230
1.0
 70
    24
 71
     2
 72
     6
 73
     3
 74
     0
 42
0.000000001
 43
0.0000000001
 40
55.47219863493974
 40
55.47219863493974
 40
55.47219863493974
 40
65.12854908242682
 40
65.12854908242682
 40
65.12854908242682
 10
-23.28353597879914
 20
276.4933133655118
 30
0.0
 10
-23.04931048912408
 20
271.6448457292386
 30
0.0
 10
-22.81508499944903
 20
266.7963780929654
 30
0.0
  0
SPLINE
  5
229
330
1F
100
AcDbEntity
  8
fianl-for laser cut
100
AcDbSpline
210
0.0
220
0.0
230
1.0
 70
    24
 71
     2
 72
     6
 73
     3
 74
     0
 42
0.000000001
 43
0.0000000001
 40
65.12838157454522
 40
65.12838157454522
 40
65.12838157454522
 40
65.1492059664925
 40
65.1492059664925
 40
65.1492059664925
 10
-22.81508499944903
 20
266.7963780929654
 30
0.0
 10
-22.81673588060016
 20
266.7860976057971
 30
0.0
 10
-22.8183867617513
 20
266.7758171186288
 30
0.0
  0
SPLINE
  5
22A
330
1F
100
AcDbEntity
  8
fianl-for laser cut
100
AcDbSpline
210
0.0
220
0.0
230
1.0
 70
    12
 71
     2
 72
     8
 73
     5
 74
     0
 42
0.000000001
 43
0.0000000001
 40
65.1492059664925
 40
65.1492059664925
 40
65.1492059664925
 40
69.07619678347976
 40
69.07619678347976
 40
73.003187600467
 40
73.003187600467
 40
73.003187600467
 10
-22.8183867617513
 20
266.7758171186288
 30
0.0
 41
1.0
 10
-23.18305783183025
 20
264.5049109095029
 30
0.0
 41
0.7071067811865444
 10
-20.91215162270419
 20
264.1402398394239
 30
0.0
 41
1.0
 10
-18.64124541357813
 20
263.7755687693446
 30
0.0
 41
0.7071067811865444
 10
-18.27657434349908
 20
266.046474978471
 30
0.0
 41
1.0
  0
SPLINE
  5
22B
330
1F
100
AcDbEntity
  8
fianl-for laser cut
100
AcDbSpline
210
0.0
220
0.0
230
1.0
 70
    24
 71
     2
 72
     6
 73
     3
 74
     0
 42
0.000000001
 43
0.0000000001
 40
73.003187600467
 40
73.003187600467
 40
73.003187600467
 40
73.02401199241409
 40
73.02401199241409
 40
73.02401199241409
 10
-18.27657434349908
 20
266.046474978471
 30
0.0
 10
-18.27492346234794
 20
266.0567554656393
 30
0.0
 10
-18.27327258119681
 20
266.0670359528076
 30
0.0
  0
SPLINE
  5
22C
330
1F
100
AcDbEntity
  8
fianl-for laser cut
100
AcDbSpline
210
0.0
220
0.0
230
1.0
 70
    24
 71
     2
 72
     6
 73
     3
 74
     0
 42
0.000000001
 43
0.0000000001
 40
73.08648516825644
 40
73.08648516825644
 40
73.08648516825644
 40
82.79472908773037
 40
82.79472908773037
 40
82.79472908773037
 10
-18.27327258119681
 20
266.0670359528076
 30
0.0
 10
-16.53279701945786
 20
270.5983983107517
 30
0.0
 10
-14.79232145771891
 20
275.1297606686958
 30
0.0
  0
ARC
  5
22D
330
1F
100
AcDbEntity
  8
fianl-for laser cut
100
AcDbCircle
 10
66.03618402088239
 20
316.3162368573248
 30
0.0
 40
25.0
100
AcDbArc
 50
260.8771037946195
 51
80.87710379461946
  0
LINE
  5
22E
330
1F
100
AcDbEntity
  8
fianl-for laser cut
100
AcDbLine
 10
69.99999999999807
 20
341.0
 30
0.0
 11
-31.11334215817351
 21
342.0450060308581
 31
0.0
  0
ARC
  5
22F
330
1F
100
AcDbEntity
  8
fianl-for laser cut
100
AcDbCircle
 10
-32.69886854981974
 20
332.1715007737876
 30
0.0
 40
10.00000000000011
100
AcDbArc
 50
80.87710379461853
 51
260.8771037946179
  0
LINE
  5
230
330
1F
100
AcDbEntity
  8
fianl-for laser cut
100
AcDbLine
 10
-34.28439494146596
 20
322.297995516717
 30
0.0
 11
62.07236804176682
 21
291.6324737146492
 31
0.0
  0
SPLINE
  5
231
330
1F
100
AcDbEntity
  8
fianl-for laser cut
100
AcDbSpline
210
0.0
220
0.0
230
1.0
 70
    15
 71
     2
 72
    12
 73
     9
 74
     0
 42
0.000000001
 43
0.0000000001
 40
0.0
 40
0.0
 40
0.0
 40
4.71238898038469
 40
4.71238898038469
 40
9.42477796076938
 40
9.42477796076938
 40
14.13716694115407
 40
14.13716694115407
 40
18.84955592153876
 40
18.84955592153876
 40
18.84955592153876
 10
-35.66092012694071
 20
332.6471586912812
 30
0.0
 41
1.0
 10
-36.13657804443457
 20
329.6851071141602
 30
0.0
 41
0.7071067811865476
 10
-33.17452646731363
 20
329.2094491966664
 30
0.0
 41
1.0
 10
-30.21247489019253
 20
328.7337912791724
 30
0.0
 41
0.7071067811865476
 10
-29.73681697269865
 20
331.6958428562934
 30
0.0
 41
1.0
 10
-29.2611590552047
 20
334.6578944334143
 30
0.0
 41
0.7071067811865476
 10
-32.22321063232596
 20
335.1335523509088
 30
0.0
 41
1.0
 10
-35.1852622094469
 20
335.609210268402
 30
0.0
 41
0.7071067811865476
 10
-35.66092012694071
 20
332.6471586912812
 30
0.0
 41
1.0
  0
ARC
  5
232
330
1F
100
AcDbEntity
  8
fianl-for laser cut
100
AcDbCircle
 10
59.13482067720906
 20
325.8581218281429
 30
0.0
 40
4.115228302108667
100
AcDbArc
 50
272.7657618342444
 51
338.9884457549903
  0
SPLINE
  5
233
330
1F
100
AcDbEntity
  8
fianl-for laser cut
100
AcDbSpline
210
0.0
220
0.0
230
1.0
 70
    24
 71
     2
 72
     6
 73
     3
 74
     0
 42
0.000000001
 43
0.0000000001
 40
88.04680161818567
 40
88.04680161818567
 40
88.04680161818567
 40
97.70315206567267
 40
97.70315206567267
 40
97.70315206567267
 10
59.33339240082455
 20
321.7476871492972
 30
0.0
 10
54.48492476455158
 20
321.5134616596222
 30
0.0
 10
49.63645712827861
 20
321.2792361699471
 30
0.0
  0
SPLINE
  5
234
330
1F
100
AcDbEntity
  8
fianl-for laser cut
100
AcDbSpline
210
0.0
220
0.0
230
1.0
 70
    24
 71
     2
 72
     6
 73
     3
 74
     0
 42
0.000000001
 43
0.0000000001
 40
97.70298455779107
 40
97.70298455779107
 40
97.70298455779107
 40
97.7238089497383
 40
97.7238089497383
 40
97.7238089497383
 10
49.63645712827861
 20
321.2792361699471
 30
0.0
 10
49.62617664111025
 20
321.2808870510983
 30
0.0
 10
49.61589615394189
 20
321.2825379322494
 30
0.0
  0
SPLINE
  5
235
330
1F
100
AcDbEntity
  8
fianl-for laser cut
100
AcDbSpline
210
0.0
220
0.0
230
1.0
 70
    12
 71
     2
 72
     8
 73
     5
 74
     0
 42
0.000000001
 43
0.0000000001
 40
97.7238089497383
 40
97.7238089497383
 40
97.7238089497383
 40
101.6507997667256
 40
101.6507997667256
 40
105.5777905837128
 40
105.5777905837128
 40
105.5777905837128
 10
49.61589615394189
 20
321.2825379322494
 30
0.0
 41
1.0
 10
47.34498994481557
 20
321.647209002328
 30
0.0
 41
0.7071067811865539
 10
46.98031887473667
 20
319.3763027932018
 30
0.0
 41
1.0
 10
46.61564780465796
 20
317.1053965840755
 30
0.0
 41
0.7071067811865539
 10
48.88655401378423
 20
316.7407255139969
 30
0.0
 41
1.0
  0
SPLINE
  5
236
330
1F
100
AcDbEntity
  8
fianl-for laser cut
100
AcDbSpline
210
0.0
220
0.0
230
1.0
 70
    24
 71
     2
 72
     6
 73
     3
 74
     0
 42
0.000000001
 43
0.0000000001
 40
105.5777905837128
 40
105.5777905837128
 40
105.5777905837128
 40
105.598614975661
 40
105.598614975661
 40
105.598614975661
 10
48.88655401378423
 20
316.7407255139969
 30
0.0
 10
48.89683450095299
 20
316.7390746328458
 30
0.0
 10
48.90711498812175
 20
316.7374237516947
 30
0.0
  0
SPLINE
  5
237
330
1F
100
AcDbEntity
  8
fianl-for laser cut
100
AcDbSpline
210
0.0
220
0.0
230
1.0
 70
    24
 71
     2
 72
     6
 73
     3
 74
     0
 42
0.000000001
 43
0.0000000001
 40
105.661088151503
 40
105.661088151503
 40
105.661088151503
 40
115.3693320709763
 40
115.3693320709763
 40
115.3693320709763
 10
48.90711498812175
 20
316.7374237516947
 30
0.0
 10
53.43847734606527
 20
314.9969481899557
 30
0.0
 10
57.96983970400879
 20
313.2564726282167
 30
0.0
  0
ARC
  5
238
330
1F
100
AcDbEntity
  8
fianl-for laser cut
100
AcDbCircle
 10
56.49429905006423
 20
309.4148735136509
 30
0.0
 40
4.115228302108667
100
AcDbArc
 50
2.765761834250088
 51
68.988445754996
  0
SPLINE
  5
239
330
1F
100
AcDbEntity
  8
fianl-for laser cut
100
AcDbSpline
210
0.0
220
0.0
230
1.0
 70
    24
 71
     2
 72
     6
 73
     3
 74
     0
 42
0.000000001
 43
0.0000000001
 40
120.6214046014316
 40
120.6214046014316
 40
120.6214046014316
 40
130.2777550489187
 40
130.2777550489187
 40
130.2777550489187
 10
60.60473372890976
 20
309.6134452372667
 30
0.0
 10
60.83895921858482
 20
304.7649776009937
 30
0.0
 10
61.07318470825987
 20
299.9165099647207
 30
0.0
  0
SPLINE
  5
23A
330
1F
100
AcDbEntity
  8
fianl-for laser cut
100
AcDbSpline
210
0.0
220
0.0
230
1.0
 70
    24
 71
     2
 72
     6
 73
     3
 74
     0
 42
0.000000001
 43
0.0000000001
 40
130.2775875410371
 40
130.2775875410371
 40
130.2775875410371
 40
130.2984119329845
 40
130.2984119329845
 40
130.2984119329845
 10
61.07318470825987
 20
299.9165099647207
 30
0.0
 10
61.07153382710874
 20
299.9062294775524
 30
0.0
 10
61.0698829459576
 20
299.8959489903841
 30
0.0
  0
SPLINE
  5
23B
330
1F
100
AcDbEntity
  8
fianl-for laser cut
100
AcDbSpline
210
0.0
220
0.0
230
1.0
 70
    12
 71
     2
 72
     8
 73
     5
 74
     0
 42
0.000000001
 43
0.0000000001
 40
0.0
 40
0.0
 40
0.0
 40
3.926990816987255
 40
3.926990816987255
 40
7.85398163397451
 40
7.85398163397451
 40
7.85398163397451
 10
61.0698829459576
 20
299.8959489903841
 30
0.0
 41
1.0
 10
60.70521187587841
 20
297.6250427812573
 30
0.0
 41
0.7071067811865079
 10
62.97611808500506
 20
297.2603717111788
 30
0.0
 41
1.0
 10
65.24702429413132
 20
296.8957006410999
 30
0.0
 41
0.7071067811865079
 10
65.61169536420994
 20
299.1666068502268
 30
0.0
 41
1.0
  0
SPLINE
  5
23C
330
1F
100
AcDbEntity
  8
fianl-for laser cut
100
AcDbSpline
210
0.0
220
0.0
230
1.0
 70
    24
 71
     2
 72
     6
 73
     3
 74
     0
 42
0.000000001
 43
0.0000000001
 40
7.85398163397451
 40
7.85398163397451
 40
7.85398163397451
 40
7.87480602592206
 40
7.87480602592206
 40
7.87480602592206
 10
65.61169536420994
 20
299.1666068502268
 30
0.0
 10
65.61334624536107
 20
299.1768873373953
 30
0.0
 10
65.61499712651221
 20
299.1871678245639
 30
0.0
  0
SPLINE
  5
23D
330
1F
100
AcDbEntity
  8
fianl-for laser cut
100
AcDbSpline
210
0.0
220
0.0
230
1.0
 70
    24
 71
     2
 72
     6
 73
     3
 74
     0
 42
0.000000001
 43
0.0000000001
 40
7.937279201764608
 40
7.937279201764608
 40
7.937279201764608
 40
17.6455231212381
 40
17.6455231212381
 40
17.6455231212381
 10
65.61499712651221
 20
299.1871678245639
 30
0.0
 10
67.35547268825121
 20
303.7185301825073
 30
0.0
 10
69.09594824999022
 20
308.2498925404507
 30
0.0
  0
ARC
  5
23E
330
1F
100
AcDbEntity
  8
fianl-for laser cut
100
AcDbCircle
 10
72.93754736455594
 20
306.7743518865059
 30
0.0
 40
4.115228302108667
100
AcDbArc
 50
92.76576183424436
 51
158.9884457549903
  0
SPLINE
  5
23F
330
1F
100
AcDbEntity
  8
fianl-for laser cut
100
AcDbSpline
210
0.0
220
0.0
230
1.0
 70
    24
 71
     2
 72
     6
 73
     3
 74
     0
 42
0.000000001
 43
0.0000000001
 40
22.89759565169347
 40
22.89759565169347
 40
22.89759565169347
 40
32.55394609918061
 40
32.55394609918061
 40
32.55394609918061
 10
72.73897564094057
 20
310.8847865653515
 30
0.0
 10
77.58744327721348
 20
311.1190120550268
 30
0.0
 10
82.4359109134864
 20
311.3532375447021
 30
0.0
  0
SPLINE
  5
240
330
1F
100
AcDbEntity
  8
fianl-for laser cut
100
AcDbSpline
210
0.0
220
0.0
230
1.0
 70
    24
 71
     2
 72
     6
 73
     3
 74
     0
 42
0.000000001
 43
0.0000000001
 40
32.55377859129885
 40
32.55377859129885
 40
32.55377859129885
 40
32.57460298324633
 40
32.57460298324633
 40
32.57460298324633
 10
82.4359109134864
 20
311.3532375447021
 30
0.0
 10
82.44619140065481
 20
311.351586663551
 30
0.0
 10
82.45647188782323
 20
311.3499357823998
 30
0.0
  0
SPLINE
  5
241
330
1F
100
AcDbEntity
  8
fianl-for laser cut
100
AcDbSpline
210
0.0
220
0.0
230
1.0
 70
    12
 71
     2
 72
     8
 73
     5
 74
     0
 42
0.000000001
 43
0.0000000001
 40
32.57460298324633
 40
32.57460298324633
 40
32.57460298324633
 40
36.50159380023359
 40
36.50159380023359
 40
40.42858461722084
 40
40.42858461722084
 40
40.42858461722084
 10
82.45647188782323
 20
311.3499357823998
 30
0.0
 41
1.0
 10
84.72737809694951
 20
310.9852647123212
 30
0.0
 41
0.7071067811865214
 10
85.092049167028
 20
313.2561709214469
 30
0.0
 41
1.0
 10
85.45672023710658
 20
315.5270771305734
 30
0.0
 41
0.7071067811865214
 10
83.18581402798054
 20
315.8917482006518
 30
0.0
 41
1.0
  0
SPLINE
  5
242
330
1F
100
AcDbEntity
  8
fianl-for laser cut
100
AcDbSpline
210
0.0
220
0.0
230
1.0
 70
    24
 71
     2
 72
     6
 73
     3
 74
     0
 42
0.000000001
 43
0.0000000001
 40
40.42858461722084
 40
40.42858461722084
 40
40.42858461722084
 40
40.44940900916765
 40
40.44940900916765
 40
40.44940900916765
 10
83.18581402798054
 20
315.8917482006518
 30
0.0
 10
83.17553354081247
 20
315.893399081803
 30
0.0
 10
83.16525305364439
 20
315.8950499629541
 30
0.0
  0
SPLINE
  5
243
330
1F
100
AcDbEntity
  8
fianl-for laser cut
100
AcDbSpline
210
0.0
220
0.0
230
1.0
 70
    24
 71
     2
 72
     6
 73
     3
 74
     0
 42
0.000000001
 43
0.0000000001
 40
40.51188218500968
 40
40.51188218500968
 40
40.51188218500968
 40
50.22012610448427
 40
50.22012610448427
 40
50.22012610448427
 10
83.16525305364439
 20
315.8950499629541
 30
0.0
 10
78.6338906957003
 20
317.6355255246931
 30
0.0
 10
74.10252833775621
 20
319.3760010864321
 30
0.0
  0
ARC
  5
244
330
1F
100
AcDbEntity
  8
fianl-for laser cut
100
AcDbCircle
 10
75.57806899170077
 20
323.2176002009978
 30
0.0
 40
4.115228302108667
100
AcDbArc
 50
182.7657618342501
 51
248.988445754996
  0
SPLINE
  5
245
330
1F
100
AcDbEntity
  8
fianl-for laser cut
100
AcDbSpline
210
0.0
220
0.0
230
1.0
 70
    24
 71
     2
 72
     6
 73
     3
 74
     0
 42
0.000000001
 43
0.0000000001
 40
55.47219863493974
 40
55.47219863493974
 40
55.47219863493974
 40
65.12854908242682
 40
65.12854908242682
 40
65.12854908242682
 10
71.46763431285513
 20
323.0190284773821
 30
0.0
 10
71.23340882318007
 20
327.8674961136553
 30
0.0
 10
70.99918333350502
 20
332.7159637499285
 30
0.0
  0
SPLINE
  5
246
330
1F
100
AcDbEntity
  8
fianl-for laser cut
100
AcDbSpline
210
0.0
220
0.0
230
1.0
 70
    24
 71
     2
 72
     6
 73
     3
 74
     0
 42
0.000000001
 43
0.0000000001
 40
65.12838157454522
 40
65.12838157454522
 40
65.12838157454522
 40
65.1492059664925
 40
65.1492059664925
 40
65.1492059664925
 10
70.99918333350502
 20
332.7159637499285
 30
0.0
 10
71.00083421465615
 20
332.7262442370968
 30
0.0
 10
71.00248509580729
 20
332.7365247242651
 30
0.0
  0
SPLINE
  5
247
330
1F
100
AcDbEntity
  8
fianl-for laser cut
100
AcDbSpline
210
0.0
220
0.0
230
1.0
 70
    12
 71
     2
 72
     8
 73
     5
 74
     0
 42
0.000000001
 43
0.0000000001
 40
65.1492059664925
 40
65.1492059664925
 40
65.1492059664925
 40
69.07619678347976
 40
69.07619678347976
 40
73.003187600467
 40
73.003187600467
 40
73.003187600467
 10
71.00248509580729
 20
332.7365247242651
 30
0.0
 41
1.0
 10
71.36715616588626
 20
335.0074309333909
 30
0.0
 41
0.7071067811865444
 10
69.09624995676018
 20
335.37210200347
 30
0.0
 41
1.0
 10
66.82534374763415
 20
335.7367730735492
 30
0.0
 41
0.7071067811865444
 10
66.46067267755507
 20
333.4658668644229
 30
0.0
 41
1.0
  0
SPLINE
  5
248
330
1F
100
AcDbEntity
  8
fianl-for laser cut
100
AcDbSpline
210
0.0
220
0.0
230
1.0
 70
    24
 71
     2
 72
     6
 73
     3
 74
     0
 42
0.000000001
 43
0.0000000001
 40
73.003187600467
 40
73.003187600467
 40
73.003187600467
 40
73.02401199241409
 40
73.02401199241409
 40
73.02401199241409
 10
66.46067267755507
 20
333.4658668644229
 30
0.0
 10
66.45902179640393
 20
333.4555863772546
 30
0.0
 10
66.4573709152528
 20
333.4453058900863
 30
0.0
  0
SPLINE
  5
249
330
1F
100
AcDbEntity
  8
fianl-for laser cut
100
AcDbSpline
210
0.0
220
0.0
230
1.0
 70
    24
 71
     2
 72
     6
 73
     3
 74
     0
 42
0.000000001
 43
0.0000000001
 40
73.08648516825644
 40
73.08648516825644
 40
73.08648516825644
 40
82.79472908773037
 40
82.79472908773037
 40
82.79472908773037
 10
66.4573709152528
 20
333.4453058900863
 30
0.0
 10
64.71689535351385
 20
328.9139435321422
 30
0.0
 10
62.9764197917749
 20
324.3825811741981
 30
0.0
  0
ARC
  5
24A
330
1F
100
AcDbEntity
  8
fianl-for laser cut
100
AcDbCircle
 10
-51.13159261804503
 20
197.0896972970613
 30
0.0
 40
6.0
100
AcDbArc
 50
270.0
 51
0.0
  0
POLYLINE
  5
24B
330
1F
100
AcDbEntity
  8
fianl-for laser cut
100
AcDb2dPolyline
 66
     1
 10
0.0
 20
0.0
 30
0.0
  0
VERTEX
  5
24C
330
24B
100
AcDbEntity
  8
fianl-for laser cut
100
AcDbVertex
100
AcDb2dVertex
 10
-51.13159261804526
 20
191.0896972970613
 30
0.0
  0
VERTEX
  5
24D
330
24B
100
AcDbEntity
  8
fianl-for laser cut
100
AcDbVertex
100
AcDb2dVertex
 10
-52.13159261804503
 20
191.0896972970613
 30
0.0
  0
SEQEND
  5
24E
330
24B
100
AcDbEntity
  8
fianl-for laser cut
  0
ARC
  5
24F
330
1F
100
AcDbEntity
  8
fianl-for laser cut
100
AcDbCircle
 10
-52.13159261804503
 20
193.0896972970613
 30
0.0
 40
2.0
100
AcDbArc
 50
179.9999999999935
 51
270.0
  0
POLYLINE
  5
250
330
1F
100
AcDbEntity
  8
fianl-for laser cut
100
AcDb2dPolyline
 66
     1
 10
0.0
 20
0.0
 30
0.0
  0
VERTEX
  5
251
330
250
100
AcDbEntity
  8
fianl-for laser cut
100
AcDbVertex
100
AcDb2dVertex
 10
-54.13159261804498
 20
193.0896972970615
 30
0.0
  0
VERTEX
  5
252
330
250
100
AcDbEntity
  8
fianl-for laser cut
100
AcDbVertex
100
AcDb2dVertex
 10
-54.13159261804498
 20
193.971663308311
 30
0.0
  0
SEQEND
  5
253
330
250
100
AcDbEntity
  8
fianl-for laser cut
  0
ARC
  5
254
330
1F
100
AcDbEntity
  8
fianl-for laser cut
100
AcDbCircle
 10
-55.13159261804503
 20
195.0896972970611
 30
0.0
 40
1.50000000000018
100
AcDbArc
 50
311.8103148957752
 51
228.1896851042259
  0
POLYLINE
  5
255
330
1F
100
AcDbEntity
  8
fianl-for laser cut
100
AcDb2dPolyline
 66
     1
 10
0.0
 20
0.0
 30
0.0
  0
VERTEX
  5
256
330
255
100
AcDbEntity
  8
fianl-for laser cut
100
AcDbVertex
100
AcDb2dVertex
 10
-56.13159261804503
 20
193.971663308311
 30
0.0
  0
VERTEX
  5
257
330
255
100
AcDbEntity
  8
fianl-for laser cut
100
AcDbVertex
100
AcDb2dVertex
 10
-56.13159261804503
 20
193.0896972970615
 30
0.0
  0
SEQEND
  5
258
330
255
100
AcDbEntity
  8
fianl-for laser cut
  0
ARC
  5
259
330
1F
100
AcDbEntity
  8
fianl-for laser cut
100
AcDbCircle
 10
-58.13159261804503
 20
193.0896972970613
 30
0.0
 40
2.0
100
AcDbArc
 50
269.9999999999935
 51
0.0
  0
POLYLINE
  5
25A
330
1F
100
AcDbEntity
  8
fianl-for laser cut
100
AcDb2dPolyline
 66
     1
 10
0.0
 20
0.0
 30
0.0
  0
VERTEX
  5
25B
330
25A
100
AcDbEntity
  8
fianl-for laser cut
100
AcDbVertex
100
AcDb2dVertex
 10
-58.13159261804503
 20
191.0896972970613
 30
0.0
  0
VERTEX
  5
25C
330
25A
100
AcDbEntity
  8
fianl-for laser cut
100
AcDbVertex
100
AcDb2dVertex
 10
-59.13159261804503
 20
191.0896972970613
 30
0.0
  0
SEQEND
  5
25D
330
25A
100
AcDbEntity
  8
fianl-for laser cut
  0
ARC
  5
25E
330
1F
100
AcDbEntity
  8
fianl-for laser cut
100
AcDbCircle
 10
-59.13159261804503
 20
197.0896972970613
 30
0.0
 40
6.0
100
AcDbArc
 50
180.0
 51
270.0
  0
POLYLINE
  5
25F
330
1F
100
AcDbEntity
  8
fianl-for laser cut
100
AcDb2dPolyline
 66
     1
 10
0.0
 20
0.0
 30
0.0
  0
VERTEX
  5
260
330
25F
100
AcDbEntity
  8
fianl-for laser cut
100
AcDbVertex
100
AcDb2dVertex
 10
-65.13159261804503
 20
197.0896972970613
 30
0.0
  0
VERTEX
  5
261
330
25F
100
AcDbEntity
  8
fianl-for laser cut
100
AcDbVertex
100
AcDb2dVertex
 10
-65.13159261804503
 20
199.0896972970613
 30
0.0
  0
VERTEX
  5
262
330
25F
100
AcDbEntity
  8
fianl-for laser cut
100
AcDbVertex
100
AcDb2dVertex
 10
-45.13159261804503
 20
199.0896972970613
 30
0.0
  0
VERTEX
  5
263
330
25F
100
AcDbEntity
  8
fianl-for laser cut
100
AcDbVertex
100
AcDb2dVertex
 10
-45.13159261804503
 20
197.0896972970611
 30
0.0
  0
SEQEND
  5
264
330
25F
100
AcDbEntity
  8
fianl-for laser cut
  0
ARC
  5
265
330
1F
100
AcDbEntity
  8
fianl-for laser cut
100
AcDbCircle
 10
-51.23186440254483
 20
185.1573549415825
 30
0.0
 40
6.0
100
AcDbArc
 50
270.0
 51
0.0
  0
POLYLINE
  5
266
330
1F
100
AcDbEntity
  8
fianl-for laser cut
100
AcDb2dPolyline
 66
     1
 10
0.0
 20
0.0
 30
0.0
  0
VERTEX
  5
267
330
266
100
AcDbEntity
  8
fianl-for laser cut
100
AcDbVertex
100
AcDb2dVertex
 10
-51.23186440254506
 20
179.1573549415825
 30
0.0
  0
VERTEX
  5
268
330
266
100
AcDbEntity
  8
fianl-for laser cut
100
AcDbVertex
100
AcDb2dVertex
 10
-52.23186440254483
 20
179.1573549415825
 30
0.0
  0
SEQEND
  5
269
330
266
100
AcDbEntity
  8
fianl-for laser cut
  0
ARC
  5
26A
330
1F
100
AcDbEntity
  8
fianl-for laser cut
100
AcDbCircle
 10
-52.23186440254483
 20
181.1573549415825
 30
0.0
 40
2.0
100
AcDbArc
 50
179.9999999999935
 51
270.0
  0
POLYLINE
  5
26B
330
1F
100
AcDbEntity
  8
fianl-for laser cut
100
AcDb2dPolyline
 66
     1
 10
0.0
 20
0.0
 30
0.0
  0
VERTEX
  5
26C
330
26B
100
AcDbEntity
  8
fianl-for laser cut
100
AcDbVertex
100
AcDb2dVertex
 10
-54.23186440254477
 20
181.1573549415828
 30
0.0
  0
VERTEX
  5
26D
330
26B
100
AcDbEntity
  8
fianl-for laser cut
100
AcDbVertex
100
AcDb2dVertex
 10
-54.23186440254477
 20
182.0393209528322
 30
0.0
  0
SEQEND
  5
26E
330
26B
100
AcDbEntity
  8
fianl-for laser cut
  0
ARC
  5
26F
330
1F
100
AcDbEntity
  8
fianl-for laser cut
100
AcDbCircle
 10
-55.23186440254483
 20
183.1573549415823
 30
0.0
 40
1.50000000000018
100
AcDbArc
 50
311.8103148957752
 51
228.1896851042259
  0
POLYLINE
  5
270
330
1F
100
AcDbEntity
  8
fianl-for laser cut
100
AcDb2dPolyline
 66
     1
 10
0.0
 20
0.0
 30
0.0
  0
VERTEX
  5
271
330
270
100
AcDbEntity
  8
fianl-for laser cut
100
AcDbVertex
100
AcDb2dVertex
 10
-56.23186440254483
 20
182.0393209528322
 30
0.0
  0
VERTEX
  5
272
330
270
100
AcDbEntity
  8
fianl-for laser cut
100
AcDbVertex
100
AcDb2dVertex
 10
-56.23186440254483
 20
181.1573549415828
 30
0.0
  0
SEQEND
  5
273
330
270
100
AcDbEntity
  8
fianl-for laser cut
  0
ARC
  5
274
330
1F
100
AcDbEntity
  8
fianl-for laser cut
100
AcDbCircle
 10
-58.23186440254483
 20
181.1573549415825
 30
0.0
 40
2.0
100
AcDbArc
 50
269.9999999999935
 51
0.0
  0
POLYLINE
  5
275
330
1F
100
AcDbEntity
  8
fianl-for laser cut
100
AcDb2dPolyline
 66
     1
 10
0.0
 20
0.0
 30
0.0
  0
VERTEX
  5
276
330
275
100
AcDbEntity
  8
fianl-for laser cut
100
AcDbVertex
100
AcDb2dVertex
 10
-58.23186440254483
 20
179.1573549415825
 30
0.0
  0
VERTEX
  5
277
330
275
100
AcDbEntity
  8
fianl-for laser cut
100
AcDbVertex
100
AcDb2dVertex
 10
-59.23186440254483
 20
179.1573549415825
 30
0.0
  0
SEQEND
  5
278
330
275
100
AcDbEntity
  8
fianl-for laser cut
  0
ARC
  5
279
330
1F
100
AcDbEntity
  8
fianl-for laser cut
100
AcDbCircle
 10
-59.23186440254483
 20
185.1573549415825
 30
0.0
 40
6.0
100
AcDbArc
 50
180.0
 51
270.0
  0
POLYLINE
  5
27A
330
1F
100
AcDbEntity
  8
fianl-for laser cut
100
AcDb2dPolyline
 66
     1
 10
0.0
 20
0.0
 30
0.0
  0
VERTEX
  5
27B
330
27A
100
AcDbEntity
  8
fianl-for laser cut
100
AcDbVertex
100
AcDb2dVertex
 10
-65.23186440254483
 20
185.1573549415825
 30
0.0
  0
VERTEX
  5
27C
330
27A
100
AcDbEntity
  8
fianl-for laser cut
100
AcDbVertex
100
AcDb2dVertex
 10
-65.23186440254483
 20
187.1573549415825
 30
0.0
  0
VERTEX
  5
27D
330
27A
100
AcDbEntity
  8
fianl-for laser cut
100
AcDbVertex
100
AcDb2dVertex
 10
-45.23186440254483
 20
187.1573549415825
 30
0.0
  0
VERTEX
  5
27E
330
27A
100
AcDbEntity
  8
fianl-for laser cut
100
AcDbVertex
100
AcDb2dVertex
 10
-45.23186440254483
 20
185.1573549415823
 30
0.0
  0
SEQEND
  5
27F
330
27A
100
AcDbEntity
  8
fianl-for laser cut
  0
POLYLINE
  5
280
330
1F
100
AcDbEntity
  8
fianl-for laser cut
100
AcDb2dPolyline
 66
     1
 10
0.0
 20
0.0
 30
0.0
  0
VERTEX
  5
281
330
280
100
AcDbEntity
  8
fianl-for laser cut
100
AcDbVertex
100
AcDb2dVertex
 10
-285.0
 20
131.5
 30
0.0
  0
VERTEX
  5
282
330
280
100
AcDbEntity
  8
fianl-for laser cut
100
AcDbVertex
100
AcDb2dVertex
 10
-275.0
 20
131.5
 30
0.0
  0
VERTEX
  5
283
330
280
100
AcDbEntity
  8
fianl-for laser cut
100
AcDbVertex
100
AcDb2dVertex
 10
-275.0
 20
127.5
 30
0.0
  0
VERTEX
  5
284
330
280
100
AcDbEntity
  8
fianl-for laser cut
100
AcDbVertex
100
AcDb2dVertex
 10
-265.0
 20
127.5
 30
0.0
  0
VERTEX
  5
285
330
280
100
AcDbEntity
  8
fianl-for laser cut
100
AcDbVertex
100
AcDb2dVertex
 10
-265.0
 20
131.5
 30
0.0
  0
VERTEX
  5
286
330
280
100
AcDbEntity
  8
fianl-for laser cut
100
AcDbVertex
100
AcDb2dVertex
 10
-255.0
 20
131.5
 30
0.0
  0
SEQEND
  5
287
330
280
100
AcDbEntity
  8
fianl-for laser cut
  0
POLYLINE
  5
288
330
1F
100
AcDbEntity
  8
fianl-for laser cut
100
AcDb2dPolyline
 66
     1
 10
0.0
 20
0.0
 30
0.0
  0
VERTEX
  5
289
330
288
100
AcDbEntity
  8
fianl-for laser cut
100
AcDbVertex
100
AcDb2dVertex
 10
-255.0
 20
131.5
 30
0.0
  0
VERTEX
  5
28A
330
288
100
AcDbEntity
  8
fianl-for laser cut
100
AcDbVertex
100
AcDb2dVertex
 10
-255.0
 20
165.5
 30
0.0
  0
VERTEX
  5
28B
330
288
100
AcDbEntity
  8
fianl-for laser cut
100
AcDbVertex
100
AcDb2dVertex
 10
-251.0
 20
165.5
 30
0.0
  0
VERTEX
  5
28C
330
288
100
AcDbEntity
  8
fianl-for laser cut
100
AcDbVertex
100
AcDb2dVertex
 10
-251.0
 20
185.5
 30
0.0
  0
VERTEX
  5
28D
330
288
100
AcDbEntity
  8
fianl-for laser cut
100
AcDbVertex
100
AcDb2dVertex
 10
-255.0
 20
185.5
 30
0.0
  0
VERTEX
  5
28E
330
288
100
AcDbEntity
  8
fianl-for laser cut
100
AcDbVertex
100
AcDb2dVertex
 10
-255.0
 20
225.5
 30
0.0
  0
VERTEX
  5
28F
330
288
100
AcDbEntity
  8
fianl-for laser cut
100
AcDbVertex
100
AcDb2dVertex
 10
-251.0
 20
225.5
 30
0.0
  0
VERTEX
  5
290
330
288
100
AcDbEntity
  8
fianl-for laser cut
100
AcDbVertex
100
AcDb2dVertex
 10
-251.0
 20
245.5
 30
0.0
  0
VERTEX
  5
291
330
288
100
AcDbEntity
  8
fianl-for laser cut
100
AcDbVertex
100
AcDb2dVertex
 10
-255.0
 20
245.5
 30
0.0
  0
VERTEX
  5
292
330
288
100
AcDbEntity
  8
fianl-for laser cut
100
AcDbVertex
100
AcDb2dVertex
 10
-255.0
 20
285.5
 30
0.0
  0
VERTEX
  5
293
330
288
100
AcDbEntity
  8
fianl-for laser cut
100
AcDbVertex
100
AcDb2dVertex
 10
-251.0
 20
285.5
 30
0.0
  0
VERTEX
  5
294
330
288
100
AcDbEntity
  8
fianl-for laser cut
100
AcDbVertex
100
AcDb2dVertex
 10
-251.0
 20
305.5
 30
0.0
  0
VERTEX
  5
295
330
288
100
AcDbEntity
  8
fianl-for laser cut
100
AcDbVertex
100
AcDb2dVertex
 10
-255.0
 20
305.5
 30
0.0
  0
VERTEX
  5
296
330
288
100
AcDbEntity
  8
fianl-for laser cut
100
AcDbVertex
100
AcDb2dVertex
 10
-255.0
 20
341.5
 30
0.0
  0
SEQEND
  5
297
330
288
100
AcDbEntity
  8
fianl-for laser cut
  0
POLYLINE
  5
298
330
1F
100
AcDbEntity
  8
fianl-for laser cut
100
AcDb2dPolyline
 66
     1
 10
0.0
 20
0.0
 30
0.0
  0
VERTEX
  5
299
330
298
100
AcDbEntity
  8
fianl-for laser cut
100
AcDbVertex
100
AcDb2dVertex
 10
-255.0
 20
341.5
 30
0.0
  0
VERTEX
  5
29A
330
298
100
AcDbEntity
  8
fianl-for laser cut
100
AcDbVertex
100
AcDb2dVertex
 10
-265.0
 20
341.5
 30
0.0
  0
VERTEX
  5
29B
330
298
100
AcDbEntity
  8
fianl-for laser cut
100
AcDbVertex
100
AcDb2dVertex
 10
-265.0
 20
345.5
 30
0.0
  0
VERTEX
  5
29C
330
298
100
AcDbEntity
  8
fianl-for laser cut
100
AcDbVertex
100
AcDb2dVertex
 10
-275.0
 20
345.5
 30
0.0
  0
VERTEX
  5
29D
330
298
100
AcDbEntity
  8
fianl-for laser cut
100
AcDbVertex
100
AcDb2dVertex
 10
-275.0
 20
341.5
 30
0.0
  0
VERTEX
  5
29E
330
298
100
AcDbEntity
  8
fianl-for laser cut
100
AcDbVertex
100
AcDb2dVertex
 10
-285.0
 20
341.5
 30
0.0
  0
SEQEND
  5
29F
330
298
100
AcDbEntity
  8
fianl-for laser cut
  0
POLYLINE
  5
2A0
330
1F
100
AcDbEntity
  8
fianl-for laser cut
100
AcDb2dPolyline
 66
     1
 10
0.0
 20
0.0
 30
0.0
  0
VERTEX
  5
2A1
330
2A0
100
AcDbEntity
  8
fianl-for laser cut
100
AcDbVertex
100
AcDb2dVertex
 10
-285.0
 20
341.5
 30
0.0
  0
VERTEX
  5
2A2
330
2A0
100
AcDbEntity
  8
fianl-for laser cut
100
AcDbVertex
100
AcDb2dVertex
 10
-285.0
 20
131.5
 30
0.0
  0
SEQEND
  5
2A3
330
2A0
100
AcDbEntity
  8
fianl-for laser cut
  0
POLYLINE
  5
2A4
330
1F
100
AcDbEntity
  8
fianl-for laser cut
100
AcDb2dPolyline
 66
     1
 10
0.0
 20
0.0
 30
0.0
  0
VERTEX
  5
2A5
330
2A4
100
AcDbEntity
  8
fianl-for laser cut
100
AcDbVertex
100
AcDb2dVertex
 10
-299.0
 20
341.5
 30
0.0
  0
VERTEX
  5
2A6
330
2A4
100
AcDbEntity
  8
fianl-for laser cut
100
AcDbVertex
100
AcDb2dVertex
 10
-299.0
 20
267.5
 30
0.0
  0
VERTEX
  5
2A7
330
2A4
100
AcDbEntity
  8
fianl-for laser cut
100
AcDbVertex
100
AcDb2dVertex
 10
-295.0
 20
267.5
 30
0.0
  0
VERTEX
  5
2A8
330
2A4
100
AcDbEntity
  8
fianl-for laser cut
100
AcDbVertex
100
AcDb2dVertex
 10
-295.0
 20
207.5
 30
0.0
  0
VERTEX
  5
2A9
330
2A4
100
AcDbEntity
  8
fianl-for laser cut
100
AcDbVertex
100
AcDb2dVertex
 10
-299.0
 20
207.5
 30
0.0
  0
VERTEX
  5
2AA
330
2A4
100
AcDbEntity
  8
fianl-for laser cut
100
AcDbVertex
100
AcDb2dVertex
 10
-299.0
 20
131.5
 30
0.0
  0
SEQEND
  5
2AB
330
2A4
100
AcDbEntity
  8
fianl-for laser cut
  0
POLYLINE
  5
2AC
330
1F
100
AcDbEntity
  8
fianl-for laser cut
100
AcDb2dPolyline
 66
     1
 10
0.0
 20
0.0
 30
0.0
  0
VERTEX
  5
2AD
330
2AC
100
AcDbEntity
  8
fianl-for laser cut
100
AcDbVertex
100
AcDb2dVertex
 10
-299.0
 20
131.5
 30
0.0
  0
VERTEX
  5
2AE
330
2AC
100
AcDbEntity
  8
fianl-for laser cut
100
AcDbVertex
100
AcDb2dVertex
 10
-309.0
 20
131.5
 30
0.0
  0
VERTEX
  5
2AF
330
2AC
100
AcDbEntity
  8
fianl-for laser cut
100
AcDbVertex
100
AcDb2dVertex
 10
-309.0
 20
127.5
 30
0.0
  0
VERTEX
  5
2B0
330
2AC
100
AcDbEntity
  8
fianl-for laser cut
100
AcDbVertex
100
AcDb2dVertex
 10
-319.0
 20
127.5
 30
0.0
  0
VERTEX
  5
2B1
330
2AC
100
AcDbEntity
  8
fianl-for laser cut
100
AcDbVertex
100
AcDb2dVertex
 10
-319.0
 20
131.5
 30
0.0
  0
VERTEX
  5
2B2
330
2AC
100
AcDbEntity
  8
fianl-for laser cut
100
AcDbVertex
100
AcDb2dVertex
 10
-329.0
 20
131.5
 30
0.0
  0
SEQEND
  5
2B3
330
2AC
100
AcDbEntity
  8
fianl-for laser cut
  0
POLYLINE
  5
2B4
330
1F
100
AcDbEntity
  8
fianl-for laser cut
100
AcDb2dPolyline
 66
     1
 10
0.0
 20
0.0
 30
0.0
  0
VERTEX
  5
2B5
330
2B4
100
AcDbEntity
  8
fianl-for laser cut
100
AcDbVertex
100
AcDb2dVertex
 10
-329.0
 20
131.5
 30
0.0
  0
VERTEX
  5
2B6
330
2B4
100
AcDbEntity
  8
fianl-for laser cut
100
AcDbVertex
100
AcDb2dVertex
 10
-329.0
 20
341.5
 30
0.0
  0
SEQEND
  5
2B7
330
2B4
100
AcDbEntity
  8
fianl-for laser cut
  0
POLYLINE
  5
2B8
330
1F
100
AcDbEntity
  8
fianl-for laser cut
100
AcDb2dPolyline
 66
     1
 10
0.0
 20
0.0
 30
0.0
  0
VERTEX
  5
2B9
330
2B8
100
AcDbEntity
  8
fianl-for laser cut
100
AcDbVertex
100
AcDb2dVertex
 10
-329.0
 20
341.5
 30
0.0
  0
VERTEX
  5
2BA
330
2B8
100
AcDbEntity
  8
fianl-for laser cut
100
AcDbVertex
100
AcDb2dVertex
 10
-319.0
 20
341.5
 30
0.0
  0
VERTEX
  5
2BB
330
2B8
100
AcDbEntity
  8
fianl-for laser cut
100
AcDbVertex
100
AcDb2dVertex
 10
-319.0
 20
345.5
 30
0.0
  0
VERTEX
  5
2BC
330
2B8
100
AcDbEntity
  8
fianl-for laser cut
100
AcDbVertex
100
AcDb2dVertex
 10
-309.0
 20
345.5
 30
0.0
  0
VERTEX
  5
2BD
330
2B8
100
AcDbEntity
  8
fianl-for laser cut
100
AcDbVertex
100
AcDb2dVertex
 10
-309.0
 20
341.5
 30
0.0
  0
VERTEX
  5
2BE
330
2B8
100
AcDbEntity
  8
fianl-for laser cut
100
AcDbVertex
100
AcDb2dVertex
 10
-299.0
 20
341.5
 30
0.0
  0
SEQEND
  5
2BF
330
2B8
100
AcDbEntity
  8
fianl-for laser cut
  0
ARC
  5
2C0
330
1F
100
AcDbEntity
  8
fianl-for laser cut
100
AcDbCircle
 10
-101.4982394338334
 20
148.1982459303351
 30
0.0
 40
3.0
100
AcDbArc
 50
270.0
 51
0.0
  0
POLYLINE
  5
2C1
330
1F
100
AcDbEntity
  8
fianl-for laser cut
100
AcDb2dPolyline
 66
     1
 10
0.0
 20
0.0
 30
0.0
  0
VERTEX
  5
2C2
330
2C1
100
AcDbEntity
  8
fianl-for laser cut
100
AcDbVertex
100
AcDb2dVertex
 10
-101.4982394338334
 20
145.1982459303351
 30
0.0
  0
VERTEX
  5
2C3
330
2C1
100
AcDbEntity
  8
fianl-for laser cut
100
AcDbVertex
100
AcDb2dVertex
 10
-103.9982394338336
 20
145.1982459303351
 30
0.0
  0
SEQEND
  5
2C4
330
2C1
100
AcDbEntity
  8
fianl-for laser cut
  0
ARC
  5
2C5
330
1F
100
AcDbEntity
  8
fianl-for laser cut
100
AcDbCircle
 10
-103.9982394338334
 20
153.1982459303351
 30
0.0
 40
8.0
100
AcDbArc
 50
180.000000000001
 51
270.0
  0
POLYLINE
  5
2C6
330
1F
100
AcDbEntity
  8
fianl-for laser cut
100
AcDb2dPolyline
 66
     1
 10
0.0
 20
0.0
 30
0.0
  0
VERTEX
  5
2C7
330
2C6
100
AcDbEntity
  8
fianl-for laser cut
100
AcDbVertex
100
AcDb2dVertex
 10
-111.9982394338334
 20
153.1982459303351
 30
0.0
  0
VERTEX
  5
2C8
330
2C6
100
AcDbEntity
  8
fianl-for laser cut
100
AcDbVertex
100
AcDb2dVertex
 10
-111.9982394338336
 20
168.1982459303351
 30
0.0
  0
SEQEND
  5
2C9
330
2C6
100
AcDbEntity
  8
fianl-for laser cut
  0
SPLINE
  5
2CA
330
1F
100
AcDbEntity
  8
fianl-for laser cut
100
AcDbSpline
210
0.0
220
0.0
230
1.0
 70
    28
 71
     2
 72
     6
 73
     3
 74
     0
 42
0.000000001
 43
0.0000000001
 40
217.7111994048093
 40
217.7111994048093
 40
217.7111994048093
 40
232.7111994048093
 40
232.7111994048093
 40
232.7111994048093
 10
-111.9982394338336
 20
168.1982459303351
 30
0.0
 41
1.0
 10
-104.3982394338336
 20
168.1982459303351
 30
0.0
 41
1.0
 10
-97.19823943383358
 20
168.1982459303351
 30
0.0
 41
1.0
  0
SPLINE
  5
2CB
330
1F
100
AcDbEntity
  8
fianl-for laser cut
100
AcDbSpline
210
0.0
220
0.0
230
1.0
 70
    28
 71
     2
 72
     6
 73
     3
 74
     0
 42
0.000000001
 43
0.0000000001
 40
232.7111994048093
 40
232.7111994048093
 40
232.7111994048093
 40
237.7111994048093
 40
237.7111994048093
 40
237.7111994048093
 10
-97.19823943383358
 20
168.1982459303351
 30
0.0
 41
1.0
 10
-97.19823943383358
 20
170.6982459303351
 30
0.0
 41
1.0
 10
-97.19823943383358
 20
173.1982459303351
 30
0.0
 41
1.0
  0
SPLINE
  5
2CC
330
1F
100
AcDbEntity
  8
fianl-for laser cut
100
AcDbSpline
210
0.0
220
0.0
230
1.0
 70
    28
 71
     2
 72
     6
 73
     3
 74
     0
 42
0.000000001
 43
0.0000000001
 40
0.0
 40
0.0
 40
0.0
 40
24.99999999999999
 40
24.99999999999999
 40
24.99999999999999
 10
-97.19823943383358
 20
173.1982459303351
 30
0.0
 41
1.0
 10
-97.19823943383358
 20
185.6982459303351
 30
0.0
 41
1.0
 10
-97.19823943383358
 20
198.1982459303349
 30
0.0
 41
1.0
  0
SPLINE
  5
2CD
330
1F
100
AcDbEntity
  8
fianl-for laser cut
100
AcDbSpline
210
0.0
220
0.0
230
1.0
 70
    12
 71
     2
 72
     6
 73
     3
 74
     0
 42
0.000000001
 43
0.0000000001
 40
24.99999999999999
 40
24.99999999999999
 40
24.99999999999999
 40
44.99999999999999
 40
44.99999999999999
 40
44.99999999999999
 10
-97.19823943383358
 20
198.1982459303349
 30
0.0
 41
1.0
 10
-86.9964472783762
 20
198.1793986687228
 30
0.0
 41
1.0
 10
-76.80182374474828
 20
198.23594045356
 30
0.0
 41
1.0
  0
SPLINE
  5
2CE
330
1F
100
AcDbEntity
  8
fianl-for laser cut
100
AcDbSpline
210
0.0
220
0.0
230
1.0
 70
    28
 71
     2
 72
     8
 73
     5
 74
     0
 42
0.000000001
 43
0.0000000001
 40
44.99999999999999
 40
44.99999999999999
 40
44.99999999999999
 40
69.99999999999997
 40
69.99999999999997
 40
74.99999999999996
 40
74.99999999999996
 40
74.99999999999996
 10
-76.80182374474828
 20
198.23594045356
 30
0.0
 41
1.0
 10
-76.80182374474828
 20
185.7359404535603
 30
0.0
 41
1.0
 10
-76.80182374474828
 20
173.23594045356
 30
0.0
 41
1.0
 10
-76.80182374474828
 20
170.7359404535603
 30
0.0
 41
1.0
 10
-76.80182374474828
 20
168.23594045356
 30
0.0
 41
1.0
  0
SPLINE
  5
2CF
330
1F
100
AcDbEntity
  8
fianl-for laser cut
100
AcDbSpline
210
0.0
220
0.0
230
1.0
 70
    12
 71
     2
 72
     6
 73
     3
 74
     0
 42
0.000000001
 43
0.0000000001
 40
74.99999999999996
 40
74.99999999999996
 40
74.99999999999996
 40
89.99999999999996
 40
89.99999999999996
 40
89.99999999999996
 10
-76.80182374474828
 20
168.23594045356
 30
0.0
 41
1.0
 10
-69.59644727837656
 20
168.1793986687226
 30
0.0
 41
1.0
 10
-61.99823943383308
 20
168.1982459303351
 30
0.0
 41
1.0
  0
POLYLINE
  5
2D0
330
1F
100
AcDbEntity
  8
fianl-for laser cut
100
AcDb2dPolyline
 66
     1
 10
0.0
 20
0.0
 30
0.0
  0
VERTEX
  5
2D1
330
2D0
100
AcDbEntity
  8
fianl-for laser cut
100
AcDbVertex
100
AcDb2dVertex
 10
-61.99823943383308
 20
168.1982459303351
 30
0.0
  0
VERTEX
  5
2D2
330
2D0
100
AcDbEntity
  8
fianl-for laser cut
100
AcDbVertex
100
AcDb2dVertex
 10
-61.99823943383308
 20
153.1982459303351
 30
0.0
  0
SEQEND
  5
2D3
330
2D0
100
AcDbEntity
  8
fianl-for laser cut
  0
ARC
  5
2D4
330
1F
100
AcDbEntity
  8
fianl-for laser cut
100
AcDbCircle
 10
-69.99823943383308
 20
153.1982459303351
 30
0.0
 40
8.0
100
AcDbArc
 50
269.9999999999996
 51
0.0
  0
POLYLINE
  5
2D5
330
1F
100
AcDbEntity
  8
fianl-for laser cut
100
AcDb2dPolyline
 66
     1
 10
0.0
 20
0.0
 30
0.0
  0
VERTEX
  5
2D6
330
2D5
100
AcDbEntity
  8
fianl-for laser cut
100
AcDbVertex
100
AcDb2dVertex
 10
-69.99823943383308
 20
145.1982459303351
 30
0.0
  0
VERTEX
  5
2D7
330
2D5
100
AcDbEntity
  8
fianl-for laser cut
100
AcDbVertex
100
AcDb2dVertex
 10
-72.49823943383433
 20
145.1982459303351
 30
0.0
  0
SEQEND
  5
2D8
330
2D5
100
AcDbEntity
  8
fianl-for laser cut
  0
ARC
  5
2D9
330
1F
100
AcDbEntity
  8
fianl-for laser cut
100
AcDbCircle
 10
-72.49823943383433
 20
148.1982459303351
 30
0.0
 40
3.0
100
AcDbArc
 50
180.0
 51
270.0
  0
POLYLINE
  5
2DA
330
1F
100
AcDbEntity
  8
fianl-for laser cut
100
AcDb2dPolyline
 66
     1
 10
0.0
 20
0.0
 30
0.0
  0
VERTEX
  5
2DB
330
2DA
100
AcDbEntity
  8
fianl-for laser cut
100
AcDbVertex
100
AcDb2dVertex
 10
-75.49823943383433
 20
148.1982459303351
 30
0.0
  0
VERTEX
  5
2DC
330
2DA
100
AcDbEntity
  8
fianl-for laser cut
100
AcDbVertex
100
AcDb2dVertex
 10
-75.49823943383433
 20
151.8753702748013
 30
0.0
  0
SEQEND
  5
2DD
330
2DA
100
AcDbEntity
  8
fianl-for laser cut
  0
ARC
  5
2DE
330
1F
100
AcDbEntity
  8
fianl-for laser cut
100
AcDbCircle
 10
-76.99823943383433
 20
153.1982459303335
 30
0.0
 40
2.0
100
AcDbArc
 50
318.5903778907213
 51
221.4096221092658
  0
POLYLINE
  5
2DF
330
1F
100
AcDbEntity
  8
fianl-for laser cut
100
AcDb2dPolyline
 66
     1
 10
0.0
 20
0.0
 30
0.0
  0
VERTEX
  5
2E0
330
2DF
100
AcDbEntity
  8
fianl-for laser cut
100
AcDbVertex
100
AcDb2dVertex
 10
-78.49823943383444
 20
151.8753702748013
 30
0.0
  0
VERTEX
  5
2E1
330
2DF
100
AcDbEntity
  8
fianl-for laser cut
100
AcDbVertex
100
AcDb2dVertex
 10
-78.49823943383433
 20
148.1982459303351
 30
0.0
  0
SEQEND
  5
2E2
330
2DF
100
AcDbEntity
  8
fianl-for laser cut
  0
ARC
  5
2E3
330
1F
100
AcDbEntity
  8
fianl-for laser cut
100
AcDbCircle
 10
-81.49823943383433
 20
148.1982459303351
 30
0.0
 40
3.0
100
AcDbArc
 50
270.0000000000011
 51
0.0
  0
POLYLINE
  5
2E4
330
1F
100
AcDbEntity
  8
fianl-for laser cut
100
AcDb2dPolyline
 66
     1
 10
0.0
 20
0.0
 30
0.0
  0
VERTEX
  5
2E5
330
2E4
100
AcDbEntity
  8
fianl-for laser cut
100
AcDbVertex
100
AcDb2dVertex
 10
-81.49823943383433
 20
145.1982459303351
 30
0.0
  0
VERTEX
  5
2E6
330
2E4
100
AcDbEntity
  8
fianl-for laser cut
100
AcDbVertex
100
AcDb2dVertex
 10
-92.49823943383342
 20
145.1982459303351
 30
0.0
  0
SEQEND
  5
2E7
330
2E4
100
AcDbEntity
  8
fianl-for laser cut
  0
ARC
  5
2E8
330
1F
100
AcDbEntity
  8
fianl-for laser cut
100
AcDbCircle
 10
-92.49823943383342
 20
148.1982459303351
 30
0.0
 40
3.0
100
AcDbArc
 50
180.0000000000005
 51
270.0
  0
POLYLINE
  5
2E9
330
1F
100
AcDbEntity
  8
fianl-for laser cut
100
AcDb2dPolyline
 66
     1
 10
0.0
 20
0.0
 30
0.0
  0
VERTEX
  5
2EA
330
2E9
100
AcDbEntity
  8
fianl-for laser cut
100
AcDbVertex
100
AcDb2dVertex
 10
-95.49823943383342
 20
148.1982459303351
 30
0.0
  0
VERTEX
  5
2EB
330
2E9
100
AcDbEntity
  8
fianl-for laser cut
100
AcDbVertex
100
AcDb2dVertex
 10
-95.4982394338333
 20
151.8753702748027
 30
0.0
  0
SEQEND
  5
2EC
330
2E9
100
AcDbEntity
  8
fianl-for laser cut
  0
ARC
  5
2ED
330
1F
100
AcDbEntity
  8
fianl-for laser cut
100
AcDbCircle
 10
-96.99823943383342
 20
153.1982459303349
 30
0.0
 40
2.0
100
AcDbArc
 50
318.5903778907302
 51
221.4096221092698
  0
POLYLINE
  5
2EE
330
1F
100
AcDbEntity
  8
fianl-for laser cut
100
AcDb2dPolyline
 66
     1
 10
0.0
 20
0.0
 30
0.0
  0
VERTEX
  5
2EF
330
2EE
100
AcDbEntity
  8
fianl-for laser cut
100
AcDbVertex
100
AcDb2dVertex
 10
-98.49823943383342
 20
151.8753702748027
 30
0.0
  0
VERTEX
  5
2F0
330
2EE
100
AcDbEntity
  8
fianl-for laser cut
100
AcDbVertex
100
AcDb2dVertex
 10
-98.49823943383342
 20
148.1982459303351
 30
0.0
  0
SEQEND
  5
2F1
330
2EE
100
AcDbEntity
  8
fianl-for laser cut
  0
SPLINE
  5
2F2
330
1F
100
AcDbEntity
  8
fianl-for laser cut
100
AcDbSpline
210
0.0
220
0.0
230
1.0
 70
    15
 71
     2
 72
    12
 73
     9
 74
     0
 42
0.000000001
 43
0.0000000001
 40
0.0
 40
0.0
 40
0.0
 40
2.356194490192345
 40
2.356194490192345
 40
4.71238898038469
 40
4.71238898038469
 40
7.068583470577035
 40
7.068583470577035
 40
9.42477796076938
 40
9.42477796076938
 40
9.42477796076938
 10
-213.9999999998231
 20
207.7499999999945
 30
0.0
 41
1.0
 10
-212.4999999998231
 20
207.7499999999945
 30
0.0
 41
0.7071067811865476
 10
-212.4999999998231
 20
206.2499999999945
 30
0.0
 41
1.0
 10
-212.4999999998231
 20
204.7499999999947
 30
0.0
 41
0.7071067811865476
 10
-213.9999999998231
 20
204.7499999999945
 30
0.0
 41
1.0
 10
-215.4999999998231
 20
204.7499999999947
 30
0.0
 41
0.7071067811865476
 10
-215.4999999998231
 20
206.2499999999945
 30
0.0
 41
1.0
 10
-215.4999999998231
 20
207.7499999999945
 30
0.0
 41
0.7071067811865476
 10
-213.9999999998231
 20
207.7499999999945
 30
0.0
 41
1.0
  0
LINE
  5
2F3
330
1F
100
AcDbEntity
  8
fianl-for laser cut
100
AcDbLine
 10
-218.9999999998231
 20
203.2499999999945
 30
0.0
 11
-219.2499999998231
 21
203.2499999999945
 31
0.0
  0
LINE
  5
2F4
330
1F
100
AcDbEntity
  8
fianl-for laser cut
100
AcDbLine
 10
-219.2499999998231
 20
203.2499999999945
 30
0.0
 11
-219.2499999998231
 21
202.2499999999945
 31
0.0
  0
SPLINE
  5
2F5
330
1F
100
AcDbEntity
  8
fianl-for laser cut
100
AcDbSpline
210
0.0
220
0.0
230
1.0
 70
    24
 71
     2
 72
     6
 73
     3
 74
     0
 42
0.000000001
 43
0.0000000001
 40
0.0
 40
0.0
 40
0.0
 40
40.5
 40
40.5
 40
40.5
 10
-219.2499999998231
 20
202.2499999999945
 30
0.0
 10
-219.2499999998231
 20
181.9999999999945
 30
0.0
 10
-219.2499999998231
 20
161.7499999999945
 30
0.0
  0
LINE
  5
2F6
330
1F
100
AcDbEntity
  8
fianl-for laser cut
100
AcDbLine
 10
-219.2499999998231
 20
161.7499999999945
 30
0.0
 11
-219.2499999998231
 21
160.7499999999945
 31
0.0
  0
LINE
  5
2F7
330
1F
100
AcDbEntity
  8
fianl-for laser cut
100
AcDbLine
 10
-219.2499999998231
 20
160.7499999999945
 30
0.0
 11
-218.9999999998231
 21
160.7499999999945
 31
0.0
  0
SPLINE
  5
2F8
330
1F
100
AcDbEntity
  8
fianl-for laser cut
100
AcDbSpline
210
0.0
220
0.0
230
1.0
 70
    24
 71
     2
 72
     6
 73
     3
 74
     0
 42
0.000000001
 43
0.0000000001
 40
40.5
 40
40.5
 40
40.5
 40
60.5
 40
60.5
 40
60.5
 10
-218.9999999998231
 20
160.7499999999945
 30
0.0
 10
-208.9999999998231
 20
160.7499999999945
 30
0.0
 10
-198.9999999998231
 20
160.7499999999945
 30
0.0
  0
LINE
  5
2F9
330
1F
100
AcDbEntity
  8
fianl-for laser cut
100
AcDbLine
 10
-198.9999999998231
 20
160.7499999999945
 30
0.0
 11
-198.7499999998231
 21
160.7499999999945
 31
0.0
  0
LINE
  5
2FA
330
1F
100
AcDbEntity
  8
fianl-for laser cut
100
AcDbLine
 10
-198.7499999998231
 20
160.7499999999945
 30
0.0
 11
-198.7499999998231
 21
161.7499999999945
 31
0.0
  0
SPLINE
  5
2FB
330
1F
100
AcDbEntity
  8
fianl-for laser cut
100
AcDbSpline
210
0.0
220
0.0
230
1.0
 70
    24
 71
     2
 72
     6
 73
     3
 74
     0
 42
0.000000001
 43
0.0000000001
 40
60.5
 40
60.5
 40
60.5
 40
101.0
 40
101.0
 40
101.0
 10
-198.7499999998231
 20
161.7499999999945
 30
0.0
 10
-198.7499999998231
 20
181.9999999999945
 30
0.0
 10
-198.7499999998231
 20
202.2499999999945
 30
0.0
  0
LINE
  5
2FC
330
1F
100
AcDbEntity
  8
fianl-for laser cut
100
AcDbLine
 10
-198.7499999998231
 20
202.2499999999945
 30
0.0
 11
-198.7499999998231
 21
203.2499999999945
 31
0.0
  0
LINE
  5
2FD
330
1F
100
AcDbEntity
  8
fianl-for laser cut
100
AcDbLine
 10
-198.7499999998231
 20
203.2499999999945
 30
0.0
 11
-198.9999999998231
 21
203.2499999999945
 31
0.0
  0
SPLINE
  5
2FE
330
1F
100
AcDbEntity
  8
fianl-for laser cut
100
AcDbSpline
210
0.0
220
0.0
230
1.0
 70
    24
 71
     2
 72
     6
 73
     3
 74
     0
 42
0.000000001
 43
0.0000000001
 40
101.0
 40
101.0
 40
101.0
 40
121.0
 40
121.0
 40
121.0
 10
-198.9999999998231
 20
203.2499999999945
 30
0.0
 10
-208.9999999998231
 20
203.2499999999945
 30
0.0
 10
-218.9999999998231
 20
203.2499999999945
 30
0.0
  0
SPLINE
  5
2FF
330
1F
100
AcDbEntity
  8
fianl-for laser cut
100
AcDbSpline
210
0.0
220
0.0
230
1.0
 70
    15
 71
     2
 72
    12
 73
     9
 74
     0
 42
0.000000001
 43
0.0000000001
 40
0.0
 40
0.0
 40
0.0
 40
2.356194490192345
 40
2.356194490192345
 40
4.71238898038469
 40
4.71238898038469
 40
7.068583470577035
 40
7.068583470577035
 40
9.42477796076938
 40
9.42477796076938
 40
9.42477796076938
 10
-203.9999999998231
 20
156.2499999999945
 30
0.0
 41
1.0
 10
-202.4999999998231
 20
156.2499999999945
 30
0.0
 41
0.7071067811865476
 10
-202.4999999998231
 20
157.7499999999945
 30
0.0
 41
1.0
 10
-202.4999999998231
 20
159.2499999999947
 30
0.0
 41
0.7071067811865476
 10
-203.9999999998231
 20
159.2499999999945
 30
0.0
 41
1.0
 10
-205.4999999998231
 20
159.2499999999947
 30
0.0
 41
0.7071067811865476
 10
-205.4999999998231
 20
157.7499999999945
 30
0.0
 41
1.0
 10
-205.4999999998231
 20
156.2499999999945
 30
0.0
 41
0.7071067811865476
 10
-203.9999999998231
 20
156.2499999999945
 30
0.0
 41
1.0
  0
SPLINE
  5
300
330
1F
100
AcDbEntity
  8
fianl-for laser cut
100
AcDbSpline
210
0.0
220
0.0
230
1.0
 70
    15
 71
     2
 72
    12
 73
     9
 74
     0
 42
0.000000001
 43
0.0000000001
 40
0.0
 40
0.0
 40
0.0
 40
2.356194490192345
 40
2.356194490192345
 40
4.71238898038469
 40
4.71238898038469
 40
7.068583470577035
 40
7.068583470577035
 40
9.42477796076938
 40
9.42477796076938
 40
9.42477796076938
 10
-203.9999999998231
 20
207.7499999999945
 30
0.0
 41
1.0
 10
-202.4999999998231
 20
207.7499999999945
 30
0.0
 41
0.7071067811865476
 10
-202.4999999998231
 20
206.2499999999945
 30
0.0
 41
1.0
 10
-202.4999999998231
 20
204.7499999999947
 30
0.0
 41
0.7071067811865476
 10
-203.9999999998231
 20
204.7499999999945
 30
0.0
 41
1.0
 10
-205.4999999998231
 20
204.7499999999947
 30
0.0
 41
0.7071067811865476
 10
-205.4999999998231
 20
206.2499999999945
 30
0.0
 41
1.0
 10
-205.4999999998231
 20
207.7499999999945
 30
0.0
 41
0.7071067811865476
 10
-203.9999999998231
 20
207.7499999999945
 30
0.0
 41
1.0
  0
SPLINE
  5
301
330
1F
100
AcDbEntity
  8
fianl-for laser cut
100
AcDbSpline
210
0.0
220
0.0
230
1.0
 70
    15
 71
     2
 72
    12
 73
     9
 74
     0
 42
0.000000001
 43
0.0000000001
 40
0.0
 40
0.0
 40
0.0
 40
2.356194490192345
 40
2.356194490192345
 40
4.71238898038469
 40
4.71238898038469
 40
7.068583470577035
 40
7.068583470577035
 40
9.42477796076938
 40
9.42477796076938
 40
9.42477796076938
 10
-213.9999999998231
 20
156.2499999999945
 30
0.0
 41
1.0
 10
-212.4999999998231
 20
156.2499999999945
 30
0.0
 41
0.7071067811865476
 10
-212.4999999998231
 20
157.7499999999945
 30
0.0
 41
1.0
 10
-212.4999999998231
 20
159.2499999999947
 30
0.0
 41
0.7071067811865476
 10
-213.9999999998231
 20
159.2499999999945
 30
0.0
 41
1.0
 10
-215.4999999998231
 20
159.2499999999947
 30
0.0
 41
0.7071067811865476
 10
-215.4999999998231
 20
157.7499999999945
 30
0.0
 41
1.0
 10
-215.4999999998231
 20
156.2499999999945
 30
0.0
 41
0.7071067811865476
 10
-213.9999999998231
 20
156.2499999999945
 30
0.0
 41
1.0
  0
LINE
  5
302
330
1F
100
AcDbEntity
  8
fianl-for laser cut
100
AcDbLine
 10
-158.9999999998231
 20
203.2500000000414
 30
0.0
 11
-159.2499999998231
 21
203.2500000000412
 31
0.0
  0
LINE
  5
303
330
1F
100
AcDbEntity
  8
fianl-for laser cut
100
AcDbLine
 10
-159.2499999998231
 20
203.2500000000412
 30
0.0
 11
-159.2499999998231
 21
202.2500000000414
 31
0.0
  0
SPLINE
  5
304
330
1F
100
AcDbEntity
  8
fianl-for laser cut
100
AcDbSpline
210
0.0
220
0.0
230
1.0
 70
    24
 71
     2
 72
     6
 73
     3
 74
     0
 42
0.000000001
 43
0.0000000001
 40
0.0
 40
0.0
 40
0.0
 40
40.5
 40
40.5
 40
40.5
 10
-159.2499999998231
 20
202.2500000000414
 30
0.0
 10
-159.2499999998231
 20
182.0000000000414
 30
0.0
 10
-159.2499999998231
 20
161.7500000000414
 30
0.0
  0
LINE
  5
305
330
1F
100
AcDbEntity
  8
fianl-for laser cut
100
AcDbLine
 10
-159.2499999998231
 20
161.7500000000414
 30
0.0
 11
-159.2499999998231
 21
160.7500000000412
 31
0.0
  0
LINE
  5
306
330
1F
100
AcDbEntity
  8
fianl-for laser cut
100
AcDbLine
 10
-159.2499999998231
 20
160.7500000000412
 30
0.0
 11
-158.9999999998231
 21
160.7500000000414
 31
0.0
  0
SPLINE
  5
307
330
1F
100
AcDbEntity
  8
fianl-for laser cut
100
AcDbSpline
210
0.0
220
0.0
230
1.0
 70
    24
 71
     2
 72
     6
 73
     3
 74
     0
 42
0.000000001
 43
0.0000000001
 40
40.5
 40
40.5
 40
40.5
 40
60.5
 40
60.5
 40
60.5
 10
-158.9999999998231
 20
160.7500000000414
 30
0.0
 10
-148.9999999998231
 20
160.7500000000414
 30
0.0
 10
-138.9999999998231
 20
160.7500000000414
 30
0.0
  0
LINE
  5
308
330
1F
100
AcDbEntity
  8
fianl-for laser cut
100
AcDbLine
 10
-138.9999999998231
 20
160.7500000000414
 30
0.0
 11
-138.7499999998231
 21
160.7500000000414
 31
0.0
  0
LINE
  5
309
330
1F
100
AcDbEntity
  8
fianl-for laser cut
100
AcDbLine
 10
-138.7499999998231
 20
160.7500000000414
 30
0.0
 11
-138.7499999998231
 21
161.7500000000414
 31
0.0
  0
SPLINE
  5
30A
330
1F
100
AcDbEntity
  8
fianl-for laser cut
100
AcDbSpline
210
0.0
220
0.0
230
1.0
 70
    24
 71
     2
 72
     6
 73
     3
 74
     0
 42
0.000000001
 43
0.0000000001
 40
60.5
 40
60.5
 40
60.5
 40
101.0
 40
101.0
 40
101.0
 10
-138.7499999998231
 20
161.7500000000414
 30
0.0
 10
-138.7499999998231
 20
182.0000000000414
 30
0.0
 10
-138.7499999998231
 20
202.2500000000414
 30
0.0
  0
LINE
  5
30B
330
1F
100
AcDbEntity
  8
fianl-for laser cut
100
AcDbLine
 10
-138.7499999998231
 20
202.2500000000414
 30
0.0
 11
-138.7499999998231
 21
203.2500000000414
 31
0.0
  0
LINE
  5
30C
330
1F
100
AcDbEntity
  8
fianl-for laser cut
100
AcDbLine
 10
-138.7499999998231
 20
203.2500000000414
 30
0.0
 11
-138.9999999998231
 21
203.2500000000414
 31
0.0
  0
SPLINE
  5
30D
330
1F
100
AcDbEntity
  8
fianl-for laser cut
100
AcDbSpline
210
0.0
220
0.0
230
1.0
 70
    24
 71
     2
 72
     6
 73
     3
 74
     0
 42
0.000000001
 43
0.0000000001
 40
101.0
 40
101.0
 40
101.0
 40
121.0
 40
121.0
 40
121.0
 10
-138.9999999998231
 20
203.2500000000414
 30
0.0
 10
-148.9999999998231
 20
203.2500000000414
 30
0.0
 10
-158.9999999998231
 20
203.2500000000414
 30
0.0
  0
SPLINE
  5
30E
330
1F
100
AcDbEntity
  8
fianl-for laser cut
100
AcDbSpline
210
0.0
220
0.0
230
1.0
 70
    15
 71
     2
 72
    12
 73
     9
 74
     0
 42
0.000000001
 43
0.0000000001
 40
0.0
 40
0.0
 40
0.0
 40
2.356194490192345
 40
2.356194490192345
 40
4.71238898038469
 40
4.71238898038469
 40
7.068583470577035
 40
7.068583470577035
 40
9.42477796076938
 40
9.42477796076938
 40
9.42477796076938
 10
-143.9999999998231
 20
207.7500000000414
 30
0.0
 41
1.0
 10
-142.4999999998231
 20
207.7500000000412
 30
0.0
 41
0.7071067811865476
 10
-142.4999999998231
 20
206.2500000000414
 30
0.0
 41
1.0
 10
-142.4999999998231
 20
204.7500000000413
 30
0.0
 41
0.7071067811865476
 10
-143.9999999998231
 20
204.7500000000414
 30
0.0
 41
1.0
 10
-145.4999999998231
 20
204.7500000000413
 30
0.0
 41
0.7071067811865476
 10
-145.4999999998231
 20
206.2500000000414
 30
0.0
 41
1.0
 10
-145.4999999998231
 20
207.7500000000412
 30
0.0
 41
0.7071067811865476
 10
-143.9999999998231
 20
207.7500000000414
 30
0.0
 41
1.0
  0
SPLINE
  5
30F
330
1F
100
AcDbEntity
  8
fianl-for laser cut
100
AcDbSpline
210
0.0
220
0.0
230
1.0
 70
    15
 71
     2
 72
    12
 73
     9
 74
     0
 42
0.000000001
 43
0.0000000001
 40
0.0
 40
0.0
 40
0.0
 40
2.356194490192345
 40
2.356194490192345
 40
4.71238898038469
 40
4.71238898038469
 40
7.068583470577035
 40
7.068583470577035
 40
9.42477796076938
 40
9.42477796076938
 40
9.42477796076938
 10
-153.9999999998231
 20
156.2500000000414
 30
0.0
 41
1.0
 10
-152.4999999998232
 20
156.2500000000412
 30
0.0
 41
0.7071067811865476
 10
-152.4999999998231
 20
157.7500000000414
 30
0.0
 41
1.0
 10
-152.4999999998232
 20
159.2500000000414
 30
0.0
 41
0.7071067811865476
 10
-153.9999999998231
 20
159.2500000000414
 30
0.0
 41
1.0
 10
-155.4999999998231
 20
159.2500000000414
 30
0.0
 41
0.7071067811865476
 10
-155.4999999998231
 20
157.7500000000414
 30
0.0
 41
1.0
 10
-155.4999999998231
 20
156.2500000000412
 30
0.0
 41
0.7071067811865476
 10
-153.9999999998231
 20
156.2500000000414
 30
0.0
 41
1.0
  0
SPLINE
  5
310
330
1F
100
AcDbEntity
  8
fianl-for laser cut
100
AcDbSpline
210
0.0
220
0.0
230
1.0
 70
    15
 71
     2
 72
    12
 73
     9
 74
     0
 42
0.000000001
 43
0.0000000001
 40
0.0
 40
0.0
 40
0.0
 40
2.356194490192345
 40
2.356194490192345
 40
4.71238898038469
 40
4.71238898038469
 40
7.068583470577035
 40
7.068583470577035
 40
9.42477796076938
 40
9.42477796076938
 40
9.42477796076938
 10
-143.9999999998231
 20
156.2500000000414
 30
0.0
 41
1.0
 10
-142.4999999998231
 20
156.2500000000412
 30
0.0
 41
0.7071067811865476
 10
-142.4999999998231
 20
157.7500000000414
 30
0.0
 41
1.0
 10
-142.4999999998231
 20
159.2500000000414
 30
0.0
 41
0.7071067811865476
 10
-143.9999999998231
 20
159.2500000000414
 30
0.0
 41
1.0
 10
-145.4999999998231
 20
159.2500000000414
 30
0.0
 41
0.7071067811865476
 10
-145.4999999998231
 20
157.7500000000414
 30
0.0
 41
1.0
 10
-145.4999999998231
 20
156.2500000000412
 30
0.0
 41
0.7071067811865476
 10
-143.9999999998231
 20
156.2500000000414
 30
0.0
 41
1.0
  0
SPLINE
  5
311
330
1F
100
AcDbEntity
  8
fianl-for laser cut
100
AcDbSpline
210
0.0
220
0.0
230
1.0
 70
    15
 71
     2
 72
    12
 73
     9
 74
     0
 42
0.000000001
 43
0.0000000001
 40
0.0
 40
0.0
 40
0.0
 40
2.356194490192345
 40
2.356194490192345
 40
4.71238898038469
 40
4.71238898038469
 40
7.068583470577035
 40
7.068583470577035
 40
9.42477796076938
 40
9.42477796076938
 40
9.42477796076938
 10
-153.9999999998231
 20
207.7500000000414
 30
0.0
 41
1.0
 10
-152.4999999998232
 20
207.7500000000412
 30
0.0
 41
0.7071067811865476
 10
-152.4999999998231
 20
206.2500000000414
 30
0.0
 41
1.0
 10
-152.4999999998232
 20
204.7500000000413
 30
0.0
 41
0.7071067811865476
 10
-153.9999999998231
 20
204.7500000000414
 30
0.0
 41
1.0
 10
-155.4999999998231
 20
204.7500000000413
 30
0.0
 41
0.7071067811865476
 10
-155.4999999998231
 20
206.2500000000414
 30
0.0
 41
1.0
 10
-155.4999999998231
 20
207.7500000000412
 30
0.0
 41
0.7071067811865476
 10
-153.9999999998231
 20
207.7500000000414
 30
0.0
 41
1.0
  0
LINE
  5
312
330
1F
100
AcDbEntity
  8
fianl-for laser cut
100
AcDbLine
 10
-238.999999999899
 20
217.9999999999584
 30
0.0
 11
-238.999999999899
 21
146.0000000000305
 31
0.0
  0
POLYLINE
  5
313
330
1F
100
AcDbEntity
  8
fianl-for laser cut
100
AcDb2dPolyline
 66
     1
 10
0.0
 20
0.0
 30
0.0
  0
VERTEX
  5
314
330
313
100
AcDbEntity
  8
fianl-for laser cut
100
AcDbVertex
100
AcDb2dVertex
 10
-238.999999999899
 20
146.0000000000305
 30
0.0
  0
VERTEX
  5
315
330
313
100
AcDbEntity
  8
fianl-for laser cut
100
AcDbVertex
100
AcDb2dVertex
 10
-218.9999999998197
 20
146.0000000000305
 30
0.0
  0
VERTEX
  5
316
330
313
100
AcDbEntity
  8
fianl-for laser cut
100
AcDbVertex
100
AcDb2dVertex
 10
-218.9999999998197
 20
142.0000000000971
 30
0.0
  0
VERTEX
  5
317
330
313
100
AcDbEntity
  8
fianl-for laser cut
100
AcDbVertex
100
AcDb2dVertex
 10
-198.9999999998197
 20
142.00000000008
 30
0.0
  0
VERTEX
  5
318
330
313
100
AcDbEntity
  8
fianl-for laser cut
100
AcDbVertex
100
AcDb2dVertex
 10
-198.9999999998197
 20
146.0000000000305
 30
0.0
  0
VERTEX
  5
319
330
313
100
AcDbEntity
  8
fianl-for laser cut
100
AcDbVertex
100
AcDb2dVertex
 10
-158.9999999998197
 20
146.0000000000305
 30
0.0
  0
VERTEX
  5
31A
330
313
100
AcDbEntity
  8
fianl-for laser cut
100
AcDbVertex
100
AcDb2dVertex
 10
-158.9999999998197
 20
142.0000000000305
 30
0.0
  0
VERTEX
  5
31B
330
313
100
AcDbEntity
  8
fianl-for laser cut
100
AcDbVertex
100
AcDb2dVertex
 10
-138.9999999998197
 20
142.0000000000282
 30
0.0
  0
VERTEX
  5
31C
330
313
100
AcDbEntity
  8
fianl-for laser cut
100
AcDbVertex
100
AcDb2dVertex
 10
-138.9999999998197
 20
146.0000000000305
 30
0.0
  0
VERTEX
  5
31D
330
313
100
AcDbEntity
  8
fianl-for laser cut
100
AcDbVertex
100
AcDb2dVertex
 10
-118.9999999998613
 20
146.0000000000305
 30
0.0
  0
SEQEND
  5
31E
330
313
100
AcDbEntity
  8
fianl-for laser cut
  0
LINE
  5
31F
330
1F
100
AcDbEntity
  8
fianl-for laser cut
100
AcDbLine
 10
-118.9999999998613
 20
146.0000000000305
 30
0.0
 11
-118.9999999998613
 21
217.9999999999584
 31
0.0
  0
POLYLINE
  5
320
330
1F
100
AcDbEntity
  8
fianl-for laser cut
100
AcDb2dPolyline
 66
     1
 10
0.0
 20
0.0
 30
0.0
  0
VERTEX
  5
321
330
320
100
AcDbEntity
  8
fianl-for laser cut
100
AcDbVertex
100
AcDb2dVertex
 10
-118.9999999998613
 20
217.9999999999584
 30
0.0
  0
VERTEX
  5
322
330
320
100
AcDbEntity
  8
fianl-for laser cut
100
AcDbVertex
100
AcDb2dVertex
 10
-138.9999999998197
 20
217.9999999999584
 30
0.0
  0
VERTEX
  5
323
330
320
100
AcDbEntity
  8
fianl-for laser cut
100
AcDbVertex
100
AcDb2dVertex
 10
-138.9999999998197
 20
221.9999999999609
 30
0.0
  0
VERTEX
  5
324
330
320
100
AcDbEntity
  8
fianl-for laser cut
100
AcDbVertex
100
AcDb2dVertex
 10
-158.9999999998197
 20
221.9999999999584
 30
0.0
  0
VERTEX
  5
325
330
320
100
AcDbEntity
  8
fianl-for laser cut
100
AcDbVertex
100
AcDb2dVertex
 10
-158.9999999998197
 20
217.9999999999584
 30
0.0
  0
VERTEX
  5
326
330
320
100
AcDbEntity
  8
fianl-for laser cut
100
AcDbVertex
100
AcDb2dVertex
 10
-198.9999999998197
 20
217.9999999999584
 30
0.0
  0
VERTEX
  5
327
330
320
100
AcDbEntity
  8
fianl-for laser cut
100
AcDbVertex
100
AcDb2dVertex
 10
-198.9999999998197
 20
221.9999999999091
 30
0.0
  0
VERTEX
  5
328
330
320
100
AcDbEntity
  8
fianl-for laser cut
100
AcDbVertex
100
AcDb2dVertex
 10
-218.9999999998197
 20
221.9999999998918
 30
0.0
  0
VERTEX
  5
329
330
320
100
AcDbEntity
  8
fianl-for laser cut
100
AcDbVertex
100
AcDb2dVertex
 10
-218.9999999998197
 20
217.9999999999584
 30
0.0
  0
VERTEX
  5
32A
330
320
100
AcDbEntity
  8
fianl-for laser cut
100
AcDbVertex
100
AcDb2dVertex
 10
-238.999999999899
 20
217.9999999999584
 30
0.0
  0
SEQEND
  5
32B
330
320
100
AcDbEntity
  8
fianl-for laser cut
  0
SPLINE
  5
32C
330
1F
100
AcDbEntity
  8
fianl-for laser cut
100
AcDbSpline
210
0.0
220
0.0
230
1.0
 70
    15
 71
     2
 72
    12
 73
     9
 74
     0
 42
0.000000001
 43
0.0000000001
 40
0.0
 40
0.0
 40
0.0
 40
7.853981633974483
 40
7.853981633974483
 40
15.70796326794897
 40
15.70796326794897
 40
23.56194490192345
 40
23.56194490192345
 40
31.41592653589793
 40
31.41592653589793
 40
31.41592653589793
 10
-64.0
 20
343.0
 30
0.0
 41
1.0
 10
-68.99999999999999
 20
343.0000000000002
 30
0.0
 41
0.7071067811865476
 10
-69.0
 20
338.0
 30
0.0
 41
1.0
 10
-68.99999999999999
 20
333.0000000000001
 30
0.0
 41
0.7071067811865476
 10
-64.0
 20
333.0
 30
0.0
 41
1.0
 10
-58.99999999999999
 20
333.0000000000001
 30
0.0
 41
0.7071067811865476
 10
-59.0
 20
338.0
 30
0.0
 41
1.0
 10
-58.99999999999999
 20
343.0000000000002
 30
0.0
 41
0.7071067811865476
 10
-64.0
 20
343.0
 30
0.0
 41
1.0
  0
SPLINE
  5
32D
330
1F
100
AcDbEntity
  8
fianl-for laser cut
100
AcDbSpline
210
0.0
220
0.0
230
1.0
 70
    15
 71
     2
 72
    16
 73
    13
 74
     0
 42
0.000000001
 43
0.0000000001
 40
15.70796326794897
 40
15.70796326794897
 40
15.70796326794897
 40
31.41592653589799
 40
31.41592653589799
 40
47.12388980384701
 40
47.12388980384701
 40
147.1238898038469
 40
147.1238898038469
 40
162.8318530717959
 40
162.8318530717959
 40
178.5398163397448
 40
178.5398163397448
 40
278.5398163397448
 40
278.5398163397448
 40
278.5398163397448
 10
-74.0
 20
218.0
 30
0.0
 41
1.0
 10
-73.99999999999997
 20
208.0000000000002
 30
0.0
 41
0.7071067811865455
 10
-63.99999999999994
 20
208.0
 30
0.0
 41
1.0
 10
-53.99999999999991
 20
208.0000000000002
 30
0.0
 41
0.7071067811865455
 10
-54.0
 20
218.0000000000002
 30
0.0
 41
1.0
 10
-54.0
 20
298.0
 30
0.0
 41
1.0
 10
-54.0
 20
338.0
 30
0.0
 41
1.0
 10
-54.00000000000004
 20
347.9999999999998
 30
0.0
 41
0.7071067811865475
 10
-64.0
 20
348.0
 30
0.0
 41
1.0
 10
-73.99999999999996
 20
348.0000000000001
 30
0.0
 41
0.7071067811865475
 10
-74.0
 20
338.0
 30
0.0
 41
1.0
 10
-74.0
 20
298.0
 30
0.0
 41
1.0
 10
-74.0
 20
218.0
 30
0.0
 41
1.0
  0
SPLINE
  5
32E
330
1F
100
AcDbEntity
  8
fianl-for laser cut
100
AcDbSpline
210
0.0
220
0.0
230
1.0
 70
    15
 71
     2
 72
    12
 73
     9
 74
     0
 42
0.000000001
 43
0.0000000001
 40
0.0
 40
0.0
 40
0.0
 40
4.71238898038469
 40
4.71238898038469
 40
9.42477796076938
 40
9.42477796076938
 40
14.13716694115407
 40
14.13716694115407
 40
18.84955592153876
 40
18.84955592153876
 40
18.84955592153876
 10
-64.0
 20
221.0
 30
0.0
 41
1.0
 10
-66.99999999999997
 20
221.0000000000002
 30
0.0
 41
0.7071067811865476
 10
-67.0
 20
218.0
 30
0.0
 41
1.0
 10
-66.99999999999997
 20
215.0000000000001
 30
0.0
 41
0.7071067811865476
 10
-64.0
 20
215.0
 30
0.0
 41
1.0
 10
-60.99999999999993
 20
215.0000000000001
 30
0.0
 41
0.7071067811865476
 10
-61.0
 20
218.0
 30
0.0
 41
1.0
 10
-60.99999999999993
 20
221.0000000000002
 30
0.0
 41
0.7071067811865476
 10
-64.0
 20
221.0
 30
0.0
 41
1.0
  0
SPLINE
  5
32F
330
1F
100
AcDbEntity
  8
fianl-for laser cut
100
AcDbSpline
210
0.0
220
0.0
230
1.0
 70
    15
 71
     2
 72
    12
 73
     9
 74
     0
 42
0.000000001
 43
0.0000000001
 40
0.0
 40
0.0
 40
0.0
 40
4.71238898038469
 40
4.71238898038469
 40
9.42477796076938
 40
9.42477796076938
 40
14.13716694115407
 40
14.13716694115407
 40
18.84955592153876
 40
18.84955592153876
 40
18.84955592153876
 10
-87.0
 20
221.0
 30
0.0
 41
1.0
 10
-90.0
 20
221.0000000000002
 30
0.0
 41
0.7071067811865476
 10
-90.0
 20
218.0
 30
0.0
 41
1.0
 10
-90.0
 20
215.0000000000001
 30
0.0
 41
0.7071067811865476
 10
-87.0
 20
215.0
 30
0.0
 41
1.0
 10
-83.99999999999994
 20
215.0000000000001
 30
0.0
 41
0.7071067811865476
 10
-84.0
 20
218.0
 30
0.0
 41
1.0
 10
-83.99999999999994
 20
221.0000000000002
 30
0.0
 41
0.7071067811865476
 10
-87.0
 20
221.0
 30
0.0
 41
1.0
  0
SPLINE
  5
330
330
1F
100
AcDbEntity
  8
fianl-for laser cut
100
AcDbSpline
210
0.0
220
0.0
230
1.0
 70
    15
 71
     2
 72
    16
 73
    13
 74
     0
 42
0.000000001
 43
0.0000000001
 40
15.70796326794897
 40
15.70796326794897
 40
15.70796326794897
 40
31.41592653589799
 40
31.41592653589799
 40
47.12388980384701
 40
47.12388980384701
 40
147.1238898038469
 40
147.1238898038469
 40
162.8318530717959
 40
162.8318530717959
 40
178.5398163397448
 40
178.5398163397448
 40
278.5398163397448
 40
278.5398163397448
 40
278.5398163397448
 10
-97.0
 20
218.0
 30
0.0
 41
1.0
 10
-96.99999999999999
 20
208.0000000000002
 30
0.0
 41
0.7071067811865455
 10
-86.99999999999994
 20
208.0
 30
0.0
 41
1.0
 10
-76.99999999999984
 20
208.0000000000002
 30
0.0
 41
0.7071067811865455
 10
-77.0
 20
218.0000000000002
 30
0.0
 41
1.0
 10
-77.0
 20
298.0
 30
0.0
 41
1.0
 10
-77.0
 20
338.0
 30
0.0
 41
1.0
 10
-76.99999999999999
 20
347.9999999999998
 30
0.0
 41
0.7071067811865475
 10
-87.0
 20
348.0
 30
0.0
 41
1.0
 10
-96.99999999999999
 20
348.0000000000001
 30
0.0
 41
0.7071067811865475
 10
-97.0
 20
338.0
 30
0.0
 41
1.0
 10
-97.0
 20
298.0
 30
0.0
 41
1.0
 10
-97.0
 20
218.0
 30
0.0
 41
1.0
  0
SPLINE
  5
331
330
1F
100
AcDbEntity
  8
fianl-for laser cut
100
AcDbSpline
210
0.0
220
0.0
230
1.0
 70
    15
 71
     2
 72
    12
 73
     9
 74
     0
 42
0.000000001
 43
0.0000000001
 40
0.0
 40
0.0
 40
0.0
 40
7.853981633974483
 40
7.853981633974483
 40
15.70796326794897
 40
15.70796326794897
 40
23.56194490192345
 40
23.56194490192345
 40
31.41592653589793
 40
31.41592653589793
 40
31.41592653589793
 10
-87.0
 20
343.0
 30
0.0
 41
1.0
 10
-91.99999999999993
 20
343.0000000000002
 30
0.0
 41
0.7071067811865476
 10
-92.0
 20
338.0
 30
0.0
 41
1.0
 10
-91.99999999999993
 20
333.0000000000001
 30
0.0
 41
0.7071067811865476
 10
-87.0
 20
333.0
 30
0.0
 41
1.0
 10
-82.00000000000001
 20
333.0000000000001
 30
0.0
 41
0.7071067811865476
 10
-82.0
 20
338.0
 30
0.0
 41
1.0
 10
-82.00000000000001
 20
343.0000000000002
 30
0.0
 41
0.7071067811865476
 10
-87.0
 20
343.0
 30
0.0
 41
1.0
  0
SPLINE
  5
332
330
1F
100
AcDbEntity
  8
fianl-for laser cut
100
AcDbSpline
210
0.0
220
0.0
230
1.0
 70
    11
 71
     2
 72
    28
 73
    25
 74
     0
 42
0.000000001
 43
0.0000000001
 40
124.7500000000001
 40
124.7500000000001
 40
124.7500000000001
 40
125.0000000000001
 40
125.0000000000001
 40
126.0
 40
126.0
 40
166.5
 40
166.5
 40
167.5000000000001
 40
167.5000000000001
 40
167.7500000000001
 40
167.7500000000001
 40
187.7500000000001
 40
187.7500000000001
 40
188.0000000000001
 40
188.0000000000001
 40
189.0000000000001
 40
189.0000000000001
 40
229.5000000000001
 40
229.5000000000001
 40
230.5000000000001
 40
230.5000000000001
 40
230.7500000000001
 40
230.7500000000001
 40
250.7500000000001
 40
250.7500000000001
 40
250.7500000000001
 10
-151.9999999999644
 20
297.0000000001592
 30
0.0
 10
-151.9999999999644
 20
297.1250000001592
 30
0.0
 10
-151.9999999999644
 20
297.2500000001592
 30
0.0
 10
-152.4999999999644
 20
297.2500000001592
 30
0.0
 10
-152.9999999999644
 20
297.2500000001592
 30
0.0
 10
-178.2499999999644
 20
297.2500000001592
 30
0.0
 10
-203.4999999999644
 20
297.2500000001592
 30
0.0
 10
-203.9999999999644
 20
297.2500000001592
 30
0.0
 10
-204.4999999999644
 20
297.2500000001592
 30
0.0
 10
-204.4999999999644
 20
297.1250000001592
 30
0.0
 10
-204.4999999999644
 20
297.0000000001592
 30
0.0
 10
-204.4999999999644
 20
287.0000000001592
 30
0.0
 10
-204.4999999999644
 20
277.0000000001592
 30
0.0
 10
-204.4999999999644
 20
276.8750000001592
 30
0.0
 10
-204.4999999999644
 20
276.7500000001592
 30
0.0
 10
-203.9999999999644
 20
276.7500000001592
 30
0.0
 10
-203.4999999999644
 20
276.7500000001592
 30
0.0
 10
-178.2499999999644
 20
276.7500000001592
 30
0.0
 10
-152.9999999999644
 20
276.7500000001592
 30
0.0
 10
-152.4999999999644
 20
276.7500000001592
 30
0.0
 10
-151.9999999999644
 20
276.7500000001592
 30
0.0
 10
-151.9999999999644
 20
276.8750000001592
 30
0.0
 10
-151.9999999999644
 20
277.0000000001592
 30
0.0
 10
-151.9999999999644
 20
287.0000000001592
 30
0.0
 10
-151.9999999999644
 20
297.0000000001592
 30
0.0
  0
POLYLINE
  5
333
330
1F
100
AcDbEntity
  8
fianl-for laser cut
100
AcDb2dPolyline
 66
     1
 10
0.0
 20
0.0
 30
0.0
  0
VERTEX
  5
334
330
333
100
AcDbEntity
  8
fianl-for laser cut
100
AcDbVertex
100
AcDb2dVertex
 10
-242.9999999999617
 20
343.0000000000377
 30
0.0
  0
VERTEX
  5
335
330
333
100
AcDbEntity
  8
fianl-for laser cut
100
AcDbVertex
100
AcDb2dVertex
 10
-242.9999999999617
 20
307.0000000000377
 30
0.0
  0
VERTEX
  5
336
330
333
100
AcDbEntity
  8
fianl-for laser cut
100
AcDbVertex
100
AcDb2dVertex
 10
-222.9999999999617
 20
307.0000000000377
 30
0.0
  0
VERTEX
  5
337
330
333
100
AcDbEntity
  8
fianl-for laser cut
100
AcDbVertex
100
AcDb2dVertex
 10
-222.9999999999617
 20
267.0000000000377
 30
0.0
  0
VERTEX
  5
338
330
333
100
AcDbEntity
  8
fianl-for laser cut
100
AcDbVertex
100
AcDb2dVertex
 10
-242.9999999999617
 20
267.0000000000377
 30
0.0
  0
VERTEX
  5
339
330
333
100
AcDbEntity
  8
fianl-for laser cut
100
AcDbVertex
100
AcDb2dVertex
 10
-242.9999999999617
 20
231.0000000000377
 30
0.0
  0
SEQEND
  5
33A
330
333
100
AcDbEntity
  8
fianl-for laser cut
  0
LINE
  5
33B
330
1F
100
AcDbEntity
  8
fianl-for laser cut
100
AcDbLine
 10
-242.9999999999617
 20
231.0000000000377
 30
0.0
 11
-227.9999999999617
 21
231.0000000000377
 31
0.0
  0
LINE
  5
33C
330
1F
100
AcDbEntity
  8
fianl-for laser cut
100
AcDbLine
 10
-227.9999999999617
 20
231.0000000000377
 30
0.0
 11
-227.9999999999617
 21
227.0000000000377
 31
0.0
  0
LINE
  5
33D
330
1F
100
AcDbEntity
  8
fianl-for laser cut
100
AcDbLine
 10
-227.9999999999617
 20
227.0000000000377
 30
0.0
 11
-212.9999999999617
 21
227.0000000000377
 31
0.0
  0
LINE
  5
33E
330
1F
100
AcDbEntity
  8
fianl-for laser cut
100
AcDbLine
 10
-212.9999999999617
 20
227.0000000000377
 30
0.0
 11
-212.9999999999617
 21
231.0000000000377
 31
0.0
  0
LINE
  5
33F
330
1F
100
AcDbEntity
  8
fianl-for laser cut
100
AcDbLine
 10
-212.9999999999617
 20
231.0000000000377
 30
0.0
 11
-197.9999999999617
 21
231.0000000000377
 31
0.0
  0
LINE
  5
340
330
1F
100
AcDbEntity
  8
fianl-for laser cut
100
AcDbLine
 10
-197.9999999999617
 20
231.0000000000377
 30
0.0
 11
-197.9999999999617
 21
227.0000000000377
 31
0.0
  0
LINE
  5
341
330
1F
100
AcDbEntity
  8
fianl-for laser cut
100
AcDbLine
 10
-197.9999999999617
 20
227.0000000000377
 30
0.0
 11
-182.9999999999617
 21
227.0000000000377
 31
0.0
  0
LINE
  5
342
330
1F
100
AcDbEntity
  8
fianl-for laser cut
100
AcDbLine
 10
-182.9999999999617
 20
227.0000000000377
 30
0.0
 11
-182.9999999999617
 21
231.0000000000377
 31
0.0
  0
LINE
  5
343
330
1F
100
AcDbEntity
  8
fianl-for laser cut
100
AcDbLine
 10
-182.9999999999617
 20
231.0000000000377
 30
0.0
 11
-167.9999999999617
 21
231.0000000000377
 31
0.0
  0
LINE
  5
344
330
1F
100
AcDbEntity
  8
fianl-for laser cut
100
AcDbLine
 10
-167.9999999999617
 20
231.0000000000377
 30
0.0
 11
-167.9999999999617
 21
227.0000000000377
 31
0.0
  0
LINE
  5
345
330
1F
100
AcDbEntity
  8
fianl-for laser cut
100
AcDbLine
 10
-167.9999999999617
 20
227.0000000000377
 30
0.0
 11
-152.9999999999617
 21
227.0000000000377
 31
0.0
  0
LINE
  5
346
330
1F
100
AcDbEntity
  8
fianl-for laser cut
100
AcDbLine
 10
-152.9999999999617
 20
227.0000000000377
 30
0.0
 11
-152.9999999999617
 21
231.0000000000377
 31
0.0
  0
LINE
  5
347
330
1F
100
AcDbEntity
  8
fianl-for laser cut
100
AcDbLine
 10
-152.9999999999617
 20
231.0000000000377
 30
0.0
 11
-142.9999999999617
 21
231.0000000000377
 31
0.0
  0
LINE
  5
348
330
1F
100
AcDbEntity
  8
fianl-for laser cut
100
AcDbLine
 10
-142.9999999999617
 20
231.0000000000377
 30
0.0
 11
-142.9999999999617
 21
227.0000000000377
 31
0.0
  0
LINE
  5
349
330
1F
100
AcDbEntity
  8
fianl-for laser cut
100
AcDbLine
 10
-142.9999999999617
 20
227.0000000000377
 30
0.0
 11
-102.9999999999617
 21
227.0
 31
0.0
  0
LINE
  5
34A
330
1F
100
AcDbEntity
  8
fianl-for laser cut
100
AcDbLine
 10
-102.9999999999617
 20
227.0
 30
0.0
 11
-102.9999999999617
 21
246.9999999999582
 31
0.0
  0
LINE
  5
34B
330
1F
100
AcDbEntity
  8
fianl-for laser cut
100
AcDbLine
 10
-102.9999999999617
 20
246.9999999999582
 30
0.0
 11
-106.9999999999641
 21
246.9999999999582
 31
0.0
  0
LINE
  5
34C
330
1F
100
AcDbEntity
  8
fianl-for laser cut
100
AcDbLine
 10
-106.9999999999641
 20
246.9999999999582
 30
0.0
 11
-106.9999999999617
 21
266.9999999999582
 31
0.0
  0
LINE
  5
34D
330
1F
100
AcDbEntity
  8
fianl-for laser cut
100
AcDbLine
 10
-106.9999999999617
 20
266.9999999999582
 30
0.0
 11
-102.9999999999617
 21
266.9999999999582
 31
0.0
  0
LINE
  5
34E
330
1F
100
AcDbEntity
  8
fianl-for laser cut
100
AcDbLine
 10
-102.9999999999617
 20
266.9999999999582
 30
0.0
 11
-102.9999999999617
 21
306.9999999999582
 31
0.0
  0
LINE
  5
34F
330
1F
100
AcDbEntity
  8
fianl-for laser cut
100
AcDbLine
 10
-102.9999999999617
 20
306.9999999999582
 30
0.0
 11
-106.9999999999123
 21
306.9999999999582
 31
0.0
  0
LINE
  5
350
330
1F
100
AcDbEntity
  8
fianl-for laser cut
100
AcDbLine
 10
-106.9999999999123
 20
306.9999999999582
 30
0.0
 11
-106.9999999998951
 21
326.9999999999582
 31
0.0
  0
LINE
  5
351
330
1F
100
AcDbEntity
  8
fianl-for laser cut
100
AcDbLine
 10
-106.9999999998951
 20
326.9999999999582
 30
0.0
 11
-102.9999999999617
 21
326.9999999999582
 31
0.0
  0
LINE
  5
352
330
1F
100
AcDbEntity
  8
fianl-for laser cut
100
AcDbLine
 10
-102.9999999999617
 20
326.9999999999582
 30
0.0
 11
-102.9999999999617
 21
347.0000000000377
 31
0.0
  0
LINE
  5
353
330
1F
100
AcDbEntity
  8
fianl-for laser cut
100
AcDbLine
 10
-102.9999999999617
 20
347.0000000000377
 30
0.0
 11
-142.9999999999617
 21
347.0000000000377
 31
0.0
  0
LINE
  5
354
330
1F
100
AcDbEntity
  8
fianl-for laser cut
100
AcDbLine
 10
-142.9999999999617
 20
347.0000000000377
 30
0.0
 11
-142.9999999999617
 21
343.0000000000377
 31
0.0
  0
LINE
  5
355
330
1F
100
AcDbEntity
  8
fianl-for laser cut
100
AcDbLine
 10
-142.9999999999617
 20
343.0000000000377
 30
0.0
 11
-152.9999999999617
 21
343.0000000000377
 31
0.0
  0
LINE
  5
356
330
1F
100
AcDbEntity
  8
fianl-for laser cut
100
AcDbLine
 10
-152.9999999999617
 20
343.0000000000377
 30
0.0
 11
-152.9999999999617
 21
347.0000000000377
 31
0.0
  0
LINE
  5
357
330
1F
100
AcDbEntity
  8
fianl-for laser cut
100
AcDbLine
 10
-152.9999999999617
 20
347.0000000000377
 30
0.0
 11
-167.9999999999617
 21
347.0000000000377
 31
0.0
  0
LINE
  5
358
330
1F
100
AcDbEntity
  8
fianl-for laser cut
100
AcDbLine
 10
-167.9999999999617
 20
347.0000000000377
 30
0.0
 11
-167.9999999999617
 21
343.0000000000377
 31
0.0
  0
LINE
  5
359
330
1F
100
AcDbEntity
  8
fianl-for laser cut
100
AcDbLine
 10
-167.9999999999617
 20
343.0000000000377
 30
0.0
 11
-182.9999999999617
 21
343.0000000000377
 31
0.0
  0
LINE
  5
35A
330
1F
100
AcDbEntity
  8
fianl-for laser cut
100
AcDbLine
 10
-182.9999999999617
 20
343.0000000000377
 30
0.0
 11
-182.9999999999617
 21
347.0000000000377
 31
0.0
  0
LINE
  5
35B
330
1F
100
AcDbEntity
  8
fianl-for laser cut
100
AcDbLine
 10
-182.9999999999617
 20
347.0000000000377
 30
0.0
 11
-197.9999999999617
 21
347.0000000000377
 31
0.0
  0
LINE
  5
35C
330
1F
100
AcDbEntity
  8
fianl-for laser cut
100
AcDbLine
 10
-197.9999999999617
 20
347.0000000000377
 30
0.0
 11
-197.9999999999617
 21
343.0000000000377
 31
0.0
  0
LINE
  5
35D
330
1F
100
AcDbEntity
  8
fianl-for laser cut
100
AcDbLine
 10
-197.9999999999617
 20
343.0000000000377
 30
0.0
 11
-212.9999999999617
 21
343.0000000000377
 31
0.0
  0
LINE
  5
35E
330
1F
100
AcDbEntity
  8
fianl-for laser cut
100
AcDbLine
 10
-212.9999999999617
 20
343.0000000000377
 30
0.0
 11
-212.9999999999617
 21
347.0000000000377
 31
0.0
  0
LINE
  5
35F
330
1F
100
AcDbEntity
  8
fianl-for laser cut
100
AcDbLine
 10
-212.9999999999617
 20
347.0000000000377
 30
0.0
 11
-227.9999999999617
 21
347.0000000000377
 31
0.0
  0
LINE
  5
360
330
1F
100
AcDbEntity
  8
fianl-for laser cut
100
AcDbLine
 10
-227.9999999999617
 20
347.0000000000377
 30
0.0
 11
-227.9999999999617
 21
343.0000000000377
 31
0.0
  0
LINE
  5
361
330
1F
100
AcDbEntity
  8
fianl-for laser cut
100
AcDbLine
 10
-227.9999999999617
 20
343.0000000000377
 30
0.0
 11
-242.9999999999617
 21
343.0000000000377
 31
0.0
  0
POLYLINE
  5
362
330
1F
100
AcDbEntity
  8
fianl-for laser cut
100
AcDb2dPolyline
 66
     1
 10
0.0
 20
0.0
 30
0.0
 70
     1
  0
VERTEX
  5
363
330
362
100
AcDbEntity
  8
fianl-for laser cut
100
AcDbVertex
100
AcDb2dVertex
 10
-142.9999999999617
 20
306.9999999999582
 30
0.0
  0
VERTEX
  5
364
330
362
100
AcDbEntity
  8
fianl-for laser cut
100
AcDbVertex
100
AcDb2dVertex
 10
-142.9999999999617
 20
266.9999999999582
 30
0.0
  0
VERTEX
  5
365
330
362
100
AcDbEntity
  8
fianl-for laser cut
100
AcDbVertex
100
AcDb2dVertex
 10
-139.000000000011
 20
266.9999999999582
 30
0.0
  0
VERTEX
  5
366
330
362
100
AcDbEntity
  8
fianl-for laser cut
100
AcDbVertex
100
AcDb2dVertex
 10
-139.000000000011
 20
306.9999999999582
 30
0.0
  0
SEQEND
  5
367
330
362
100
AcDbEntity
  8
fianl-for laser cut
  0
LINE
  5
368
330
1F
100
AcDbEntity
  8
fianl-for laser cut
100
AcDbLine
 10
-340.0
 20
-414.5
 30
0.0
 11
-340.0
 21
-419.5
 31
0.0
  0
ENDSEC
  0
SECTION
  2
OBJECTS
  0
DICTIONARY
  5
C
330
0
100
AcDbDictionary
281
     1
  3
ACAD_DETAILVIEWSTYLE
350
3A4
  3
ACAD_GROUP
350
D
  3
ACAD_LAYOUT
350
1A
  3
ACAD_MATERIAL
350
43
  3
ACAD_MLEADERSTYLE
350
3A3
  3
ACAD_MLINESTYLE
350
17
  3
ACAD_PLOTSETTINGS
350
19
  3
ACAD_PLOTSTYLENAME
350
E
  3
ACAD_SCALELIST
350
47
  3
ACAD_SECTIONVIEWSTYLE
350
3A5
  3
ACAD_TABLESTYLE
350
3A2
  3
ACAD_VISUALSTYLE
350
2A
  3
AcDbVariableDictionary
350
369
  0
DICTIONARY
  5
3A4
102
{ACAD_REACTORS
330
C
102
}
330
C
100
AcDbDictionary
281
     1
  0
DICTIONARY
  5
D
102
{ACAD_REACTORS
330
C
102
}
330
C
100
AcDbDictionary
281
     1
  0
DICTIONARY
  5
1A
102
{ACAD_REACTORS
330
C
102
}
330
C
100
AcDbDictionary
281
     1
  3
Layout1
350
1E
  3
Layout2
350
26
  3
Model
350
22
  0
DICTIONARY
  5
43
102
{ACAD_REACTORS
330
C
102
}
330
C
100
AcDbDictionary
281
     1
  3
ByBlock
350
45
  3
ByLayer
350
44
  3
Global
350
46
  0
DICTIONARY
  5
3A3
102
{ACAD_REACTORS
330
C
102
}
330
C
100
AcDbDictionary
281
     1
  0
DICTIONARY
  5
17
102
{ACAD_REACTORS
330
C
102
}
330
C
100
AcDbDictionary
281
     1
  3
Standard
350
18
  0
DICTIONARY
  5
19
102
{ACAD_REACTORS
330
C
102
}
330
C
100
AcDbDictionary
281
     1
  0
ACDBDICTIONARYWDFLT
  5
E
102
{ACAD_REACTORS
330
C
102
}
330
C
100
AcDbDictionary
281
     1
  3
Normal
350
F
100
AcDbDictionaryWithDefault
340
F
  0
DICTIONARY
  5
47
102
{ACAD_REACTORS
330
C
102
}
330
C
100
AcDbDictionary
281
     1
  3
A0
350
48
  3
A1
350
49
  3
A2
350
4A
  3
A3
350
4B
  3
A4
350
4C
  3
A5
350
4D
  3
A6
350
4E
  3
A7
350
4F
  3
A8
350
50
  3
A9
350
51
  3
B0
350
52
  3
B1
350
53
  3
B2
350
54
  3
B3
350
55
  3
B4
350
56
  3
B5
350
57
  3
B6
350
58
  3
B7
350
59
  3
B8
350
5A
  3
B9
350
5B
  3
C0
350
5C
  3
C1
350
5D
  3
C2
350
5E
  3
C3
350
5F
  3
C4
350
60
  3
C5
350
61
  3
C6
350
62
  3
C7
350
63
  3
C8
350
64
  3
C9
350
65
  3
D0
350
66
  3
D1
350
67
  3
D2
350
68
  0
DICTIONARY
  5
3A5
102
{ACAD_REACTORS
330
C
102
}
330
C
100
AcDbDictionary
281
     1
  0
DICTIONARY
  5
3A2
102
{ACAD_REACTORS
330
C
102
}
330
C
100
AcDbDictionary
281
     1
  0
DICTIONARY
  5
2A
102
{ACAD_REACTORS
330
C
102
}
330
C
100
AcDbDictionary
281
     1
  3
2dWireframe
350
2F
  3
Basic
350
32
  3
Brighten
350
36
  3
ColorChange
350
3A
  3
Conceptual
350
34
  3
Dim
350
35
  3
EdgeColorOff
350
3D
  3
Facepattern
350
39
  3
Flat
350
2B
  3
FlatWithEdges
350
2C
  3
Gouraud
350
2D
  3
GouraudWithEdges
350
2E
  3
Hidden
350
31
  3
JitterOff
350
3B
  3
Linepattern
350
38
  3
OverhangOff
350
3C
  3
Realistic
350
33
  3
Shaded
350
42
  3
Shaded with edges
350
41
  3
Shades of Gray
350
3E
  3
Sketchy
350
3F
  3
Thicken
350
37
  3
Wireframe
350
30
  3
X-Ray
350
40
  0
DICTIONARY
  5
369
102
{ACAD_REACTORS
330
C
102
}
330
C
100
AcDbDictionary
281
     1
  3
CANNOSCALE
350
36A
  3
MSLTSCALE
350
36B
  0
LAYOUT
  5
1E
102
{ACAD_REACTORS
330
1A
102
}
330
1A
100
AcDbPlotSettings
  1

  2
none_device
  4

  6

 40
0.0
 41
0.0
 42
0.0
 43
0.0
 44
0.0
 45
0.0
 46
0.0
 47
0.0
 48
0.0
 49
0.0
140
0.0
141
0.0
142
1.0
143
1.0
 70
   688
 72
     0
 73
     0
 74
     5
  7

 75
    16
 76
     0
 77
     2
 78
   300
147
1.0
148
0.0
149
0.0
100
AcDbLayout
  1
Layout1
 70
     1
 71
     1
 10
0.0
 20
0.0
 11
12.0
 21
9.0
 12
0.0
 22
0.0
 32
0.0
 14
1.000000000000000E+20
 24
1.000000000000000E+20
 34
1.000000000000000E+20
 15
-1.000000000000000E+20
 25
-1.000000000000000E+20
 35
-1.000000000000000E+20
146
0.0
 13
0.0
 23
0.0
 33
0.0
 16
1.0
 26
0.0
 36
0.0
 17
0.0
 27
1.0
 37
0.0
 76
     0
330
1B
  0
LAYOUT
  5
26
102
{ACAD_REACTORS
330
1A
102
}
330
1A
100
AcDbPlotSettings
  1

  2
none_device
  4

  6

 40
0.0
 41
0.0
 42
0.0
 43
0.0
 44
0.0
 45
0.0
 46
0.0
 47
0.0
 48
0.0
 49
0.0
140
0.0
141
0.0
142
1.0
143
1.0
 70
   688
 72
     0
 73
     0
 74
     5
  7

 75
    16
 76
     0
 77
     2
 78
   300
147
1.0
148
0.0
149
0.0
100
AcDbLayout
  1
Layout2
 70
     1
 71
     2
 10
0.0
 20
0.0
 11
0.0
 21
0.0
 12
0.0
 22
0.0
 32
0.0
 14
0.0
 24
0.0
 34
0.0
 15
0.0
 25
0.0
 35
0.0
146
0.0
 13
0.0
 23
0.0
 33
0.0
 16
1.0
 26
0.0
 36
0.0
 17
0.0
 27
1.0
 37
0.0
 76
     0
330
23
  0
LAYOUT
  5
22
102
{ACAD_REACTORS
330
1A
102
}
330
1A
100
AcDbPlotSettings
  1

  2
none_device
  4
Letter_(8.50_x_11.00_Inches)
  6

 40
6.35
 41
6.35
 42
6.35000508
 43
6.35000508
 44
215.9
 45
279.4
 46
0.0
 47
0.0
 48
0.0
 49
0.0
140
0.0
141
0.0
142
1.0
143
1.0
 70
  1712
 72
     0
 73
     0
 74
     0
  7

 75
     0
 76
     0
 77
     2
 78
   300
147
1.0
148
0.0
149
0.0
100
AcDbLayout
  1
Model
 70
     1
 71
     0
 10
0.0
 20
0.0
 11
12.0
 21
9.0
 12
0.0
 22
0.0
 32
0.0
 14
-475.0000000000018
 24
-419.5
 34
0.0
 15
284.0573447880896
 25
347.9784965498807
 35
0.0
146
0.0
 13
0.0
 23
0.0
 33
0.0
 16
1.0
 26
0.0
 36
0.0
 17
0.0
 27
1.0
 37
0.0
 76
     0
330
1F
331
29
  0
MATERIAL
  5
45
102
{ACAD_REACTORS
330
43
102
}
102
{ACAD_XDICTIONARY
360
39E
102
}
330
43
100
AcDbMaterial
  1
ByBlock
  0
MATERIAL
  5
44
102
{ACAD_REACTORS
330
43
102
}
102
{ACAD_XDICTIONARY
360
39C
102
}
330
43
100
AcDbMaterial
  1
ByLayer
  0
MATERIAL
  5
46
102
{ACAD_REACTORS
330
43
102
}
102
{ACAD_XDICTIONARY
360
3A0
102
}
330
43
100
AcDbMaterial
  1
Global
  0
MLINESTYLE
  5
18
102
{ACAD_REACTORS
330
17
102
}
330
17
100
AcDbMlineStyle
  2
Standard
 70
     0
  3

 62
   256
 51
90.0
 52
90.0
 71
     2
 49
0.5
 62
   256
  6
BYLAYER
 49
-0.5
 62
   256
  6
BYLAYER
  0
ACDBPLACEHOLDER
  5
F
102
{ACAD_REACTORS
330
E
102
}
330
E
  0
SCALE
  5
48
102
{ACAD_REACTORS
330
47
102
}
330
47
100
AcDbScale
 70
     0
300
1:1
140
1.0
141
1.0
290
     1
  0
SCALE
  5
49
102
{ACAD_REACTORS
330
47
102
}
330
47
100
AcDbScale
 70
     0
300
1:2
140
1.0
141
2.0
290
     0
  0
SCALE
  5
4A
102
{ACAD_REACTORS
330
47
102
}
330
47
100
AcDbScale
 70
     0
300
1:4
140
1.0
141
4.0
290
     0
  0
SCALE
  5
4B
102
{ACAD_REACTORS
330
47
102
}
330
47
100
AcDbScale
 70
     0
300
1:5
140
1.0
141
5.0
290
     0
  0
SCALE
  5
4C
102
{ACAD_REACTORS
330
47
102
}
330
47
100
AcDbScale
 70
     0
300
1:8
140
1.0
141
8.0
290
     0
  0
SCALE
  5
4D
102
{ACAD_REACTORS
330
47
102
}
330
47
100
AcDbScale
 70
     0
300
1:10
140
1.0
141
10.0
290
     0
  0
SCALE
  5
4E
102
{ACAD_REACTORS
330
47
102
}
330
47
100
AcDbScale
 70
     0
300
1:16
140
1.0
141
16.0
290
     0
  0
SCALE
  5
4F
102
{ACAD_REACTORS
330
47
102
}
330
47
100
AcDbScale
 70
     0
300
1:20
140
1.0
141
20.0
290
     0
  0
SCALE
  5
50
102
{ACAD_REACTORS
330
47
102
}
330
47
100
AcDbScale
 70
     0
300
1:30
140
1.0
141
30.0
290
     0
  0
SCALE
  5
51
102
{ACAD_REACTORS
330
47
102
}
330
47
100
AcDbScale
 70
     0
300
1:40
140
1.0
141
40.0
290
     0
  0
SCALE
  5
52
102
{ACAD_REACTORS
330
47
102
}
330
47
100
AcDbScale
 70
     0
300
1:50
140
1.0
141
50.0
290
     0
  0
SCALE
  5
53
102
{ACAD_REACTORS
330
47
102
}
330
47
100
AcDbScale
 70
     0
300
1:100
140
1.0
141
100.0
290
     0
  0
SCALE
  5
54
102
{ACAD_REACTORS
330
47
102
}
330
47
100
AcDbScale
 70
     0
300
2:1
140
2.0
141
1.0
290
     0
  0
SCALE
  5
55
102
{ACAD_REACTORS
330
47
102
}
330
47
100
AcDbScale
 70
     0
300
4:1
140
4.0
141
1.0
290
     0
  0
SCALE
  5
56
102
{ACAD_REACTORS
330
47
102
}
330
47
100
AcDbScale
 70
     0
300
8:1
140
8.0
141
1.0
290
     0
  0
SCALE
  5
57
102
{ACAD_REACTORS
330
47
102
}
330
47
100
AcDbScale
 70
     0
300
10:1
140
10.0
141
1.0
290
     0
  0
SCALE
  5
58
102
{ACAD_REACTORS
330
47
102
}
330
47
100
AcDbScale
 70
     0
300
100:1
140
100.0
141
1.0
290
     0
  0
SCALE
  5
59
102
{ACAD_REACTORS
330
47
102
}
330
47
100
AcDbScale
 70
     0
300
1/128" = 1'-0"
140
0.0078125
141
12.0
290
     0
  0
SCALE
  5
5A
102
{ACAD_REACTORS
330
47
102
}
330
47
100
AcDbScale
 70
     0
300
1/64" = 1'-0"
140
0.015625
141
12.0
290
     0
  0
SCALE
  5
5B
102
{ACAD_REACTORS
330
47
102
}
330
47
100
AcDbScale
 70
     0
300
1/32" = 1'-0"
140
0.03125
141
12.0
290
     0
  0
SCALE
  5
5C
102
{ACAD_REACTORS
330
47
102
}
330
47
100
AcDbScale
 70
     0
300
1/16" = 1'-0"
140
0.0625
141
12.0
290
     0
  0
SCALE
  5
5D
102
{ACAD_REACTORS
330
47
102
}
330
47
100
AcDbScale
 70
     0
300
3/32" = 1'-0"
140
0.09375
141
12.0
290
     0
  0
SCALE
  5
5E
102
{ACAD_REACTORS
330
47
102
}
330
47
100
AcDbScale
 70
     0
300
1/8" = 1'-0"
140
0.125
141
12.0
290
     0
  0
SCALE
  5
5F
102
{ACAD_REACTORS
330
47
102
}
330
47
100
AcDbScale
 70
     0
300
3/16" = 1'-0"
140
0.1875
141
12.0
290
     0
  0
SCALE
  5
60
102
{ACAD_REACTORS
330
47
102
}
330
47
100
AcDbScale
 70
     0
300
1/4" = 1'-0"
140
0.25
141
12.0
290
     0
  0
SCALE
  5
61
102
{ACAD_REACTORS
330
47
102
}
330
47
100
AcDbScale
 70
     0
300
3/8" = 1'-0"
140
0.375
141
12.0
290
     0
  0
SCALE
  5
62
102
{ACAD_REACTORS
330
47
102
}
330
47
100
AcDbScale
 70
     0
300
1/2" = 1'-0"
140
0.5
141
12.0
290
     0
  0
SCALE
  5
63
102
{ACAD_REACTORS
330
47
102
}
330
47
100
AcDbScale
 70
     0
300
3/4" = 1'-0"
140
0.75
141
12.0
290
     0
  0
SCALE
  5
64
102
{ACAD_REACTORS
330
47
102
}
330
47
100
AcDbScale
 70
     0
300
1" = 1'-0"
140
1.0
141
12.0
290
     0
  0
SCALE
  5
65
102
{ACAD_REACTORS
330
47
102
}
330
47
100
AcDbScale
 70
     0
300
1-1/2" = 1'-0"
140
1.5
141
12.0
290
     0
  0
SCALE
  5
66
102
{ACAD_REACTORS
330
47
102
}
330
47
100
AcDbScale
 70
     0
300
3" = 1'-0"
140
3.0
141
12.0
290
     0
  0
SCALE
  5
67
102
{ACAD_REACTORS
330
47
102
}
330
47
100
AcDbScale
 70
     0
300
6" = 1'-0"
140
6.0
141
12.0
290
     0
  0
SCALE
  5
68
102
{ACAD_REACTORS
330
47
102
}
330
47
100
AcDbScale
 70
     0
300
1'-0" = 1'-0"
140
12.0
141
12.0
290
     0
  0
VISUALSTYLE
  5
2F
102
{ACAD_REACTORS
330
2A
102
}
102
{ACAD_XDICTIONARY
360
374
102
}
330
2A
100
AcDbVisualStyle
  2
2dWireframe
 70
     4
 71
     0
 72
     2
 73
     0
 90
        0
 40
0.6
 41
30.0
 62
     5
 63
     7
421
 16777215
 74
     1
 91
        4
 64
     7
 65
   257
 75
     1
175
     1
 42
1.0
 92
        0
 66
   257
 43
1.0
 76
     1
 77
     6
 78
     2
 67
     7
 79
     5
170
     0
171
     0
290
     0
174
     0
 93
        1
 44
0.0
173
     0
291
     0
 45
0.0
1001
ACAD
1000
AcDbSavedByObjectVersion
1070
     0
  0
VISUALSTYLE
  5
32
102
{ACAD_REACTORS
330
2A
102
}
102
{ACAD_XDICTIONARY
360
37A
102
}
330
2A
100
AcDbVisualStyle
  2
Basic
 70
     7
 71
     1
 72
     0
 73
     1
 90
        0
 40
0.6
 41
30.0
 62
     5
 63
     7
421
 16777215
 74
     0
 91
        4
 64
     7
 65
   257
 75
     1
175
     1
 42
1.0
 92
        8
 66
     7
 43
1.0
 76
     1
 77
     6
 78
     2
 67
     7
 79
     5
170
     0
171
     0
290
     0
174
     0
 93
        1
 44
0.0
173
     0
291
     1
 45
0.0
1001
ACAD
1000
AcDbSavedByObjectVersion
1070
     0
  0
VISUALSTYLE
  5
36
102
{ACAD_REACTORS
330
2A
102
}
102
{ACAD_XDICTIONARY
360
382
102
}
330
2A
100
AcDbVisualStyle
  2
Brighten
 70
    12
 71
     2
 72
     2
 73
     0
 90
        0
 40
0.6
 41
30.0
 62
     5
 63
     7
421
 16777215
 74
     1
 91
        4
 64
     7
 65
   257
 75
     1
175
     1
 42
1.0
 92
        8
 66
     7
 43
1.0
 76
     1
 77
     6
 78
     2
 67
     7
 79
     5
170
     0
171
     0
290
     0
174
     0
 93
        1
 44
50.0
173
     0
291
     1
 45
0.0
1001
ACAD
1000
AcDbSavedByObjectVersion
1070
     0
  0
VISUALSTYLE
  5
3A
102
{ACAD_REACTORS
330
2A
102
}
102
{ACAD_XDICTIONARY
360
38A
102
}
330
2A
100
AcDbVisualStyle
  2
ColorChange
 70
    16
 71
     2
 72
     2
 73
     3
 90
        0
 40
0.6
 41
30.0
 62
     5
 63
     8
421
  8421504
 74
     1
 91
        4
 64
     7
 65
   257
 75
     1
175
     1
 42
1.0
 92
        8
 66
     8
424
  8421504
 43
1.0
 76
     1
 77
     6
 78
     2
 67
     7
 79
     5
170
     0
171
     0
290
     0
174
     0
 93
        1
 44
0.0
173
     0
291
     1
 45
0.0
1001
ACAD
1000
AcDbSavedByObjectVersion
1070
     0
  0
VISUALSTYLE
  5
34
102
{ACAD_REACTORS
330
2A
102
}
102
{ACAD_XDICTIONARY
360
37E
102
}
330
2A
100
AcDbVisualStyle
  2
Conceptual
 70
     9
 71
     3
 72
     2
 73
     0
 90
        0
 40
0.6
 41
30.0
 62
     5
 63
     7
421
 16777215
 74
     2
 91
        2
 64
     7
 65
   257
 75
     1
175
     1
 42
179.0
 92
        8
 66
     7
 43
1.0
 76
     1
 77
     6
 78
     2
 67
     7
 79
     3
170
     0
171
     0
290
     0
174
     0
 93
        1
 44
0.0
173
     0
291
     0
 45
0.0
1001
ACAD
1000
AcDbSavedByObjectVersion
1070
     0
  0
VISUALSTYLE
  5
35
102
{ACAD_REACTORS
330
2A
102
}
102
{ACAD_XDICTIONARY
360
380
102
}
330
2A
100
AcDbVisualStyle
  2
Dim
 70
    11
 71
     2
 72
     2
 73
     0
 90
        0
 40
0.6
 41
30.0
 62
     5
 63
     7
421
 16777215
 74
     1
 91
        4
 64
     7
 65
   257
 75
     1
175
     1
 42
1.0
 92
        8
 66
     7
 43
1.0
 76
     1
 77
     6
 78
     2
 67
     7
 79
     5
170
     0
171
     0
290
     0
174
     0
 93
        1
 44
-50.0
173
     0
291
     1
 45
0.0
1001
ACAD
1000
AcDbSavedByObjectVersion
1070
     0
  0
VISUALSTYLE
  5
3D
102
{ACAD_REACTORS
330
2A
102
}
102
{ACAD_XDICTIONARY
360
390
102
}
330
2A
100
AcDbVisualStyle
  2
EdgeColorOff
 70
    22
 71
     2
 72
     2
 73
     0
 90
        0
 40
0.6
 41
30.0
 62
     5
 63
     7
421
 16777215
 74
     1
 91
        4
 64
     7
 65
   257
 75
     1
175
     1
 42
1.0
 92
        8
 66
     7
 43
1.0
 76
     1
 77
     6
 78
     2
 67
     7
 79
     5
170
     0
171
     0
290
     0
174
     0
 93
        1
 44
0.0
173
     0
291
     1
 45
0.0
1001
ACAD
1000
AcDbSavedByObjectVersion
1070
     0
  0
VISUALSTYLE
  5
39
102
{ACAD_REACTORS
330
2A
102
}
102
{ACAD_XDICTIONARY
360
388
102
}
330
2A
100
AcDbVisualStyle
  2
Facepattern
 70
    15
 71
     2
 72
     2
 73
     0
 90
        0
 40
0.6
 41
30.0
 62
     5
 63
     7
421
 16777215
 74
     1
 91
        4
 64
     7
 65
   257
 75
     1
175
     1
 42
1.0
 92
        8
 66
     7
 43
1.0
 76
     1
 77
     6
 78
     2
 67
     7
 79
     5
170
     0
171
     0
290
     0
174
     0
 93
        1
 44
0.0
173
     0
291
     1
 45
0.0
1001
ACAD
1000
AcDbSavedByObjectVersion
1070
     0
  0
VISUALSTYLE
  5
2B
102
{ACAD_REACTORS
330
2A
102
}
102
{ACAD_XDICTIONARY
360
36C
102
}
330
2A
100
AcDbVisualStyle
  2
Flat
 70
     0
 71
     2
 72
     1
 73
     1
 90
        2
 40
0.6
 41
30.0
 62
     5
 63
     7
421
 16777215
 74
     0
 91
        0
 64
     7
 65
   257
 75
     1
175
     1
 42
1.0
 92
        8
 66
     7
 43
1.0
 76
     1
 77
     6
 78
     2
 67
     7
 79
     5
170
     0
171
     0
290
     0
174
     0
 93
       13
 44
0.0
173
     0
291
     1
 45
0.0
1001
ACAD
1000
AcDbSavedByObjectVersion
1070
     0
  0
VISUALSTYLE
  5
2C
102
{ACAD_REACTORS
330
2A
102
}
102
{ACAD_XDICTIONARY
360
36E
102
}
330
2A
100
AcDbVisualStyle
  2
FlatWithEdges
 70
     1
 71
     2
 72
     1
 73
     1
 90
        2
 40
0.6
 41
30.0
 62
     5
 63
     7
421
 16777215
 74
     1
 91
        0
 64
     7
 65
   257
 75
     1
175
     1
 42
1.0
 92
        0
 66
   257
 43
1.0
 76
     1
 77
     6
 78
     2
 67
     7
 79
     5
170
     0
171
     0
290
     0
174
     0
 93
       13
 44
0.0
173
     0
291
     1
 45
0.0
1001
ACAD
1000
AcDbSavedByObjectVersion
1070
     0
  0
VISUALSTYLE
  5
2D
102
{ACAD_REACTORS
330
2A
102
}
102
{ACAD_XDICTIONARY
360
370
102
}
330
2A
100
AcDbVisualStyle
  2
Gouraud
 70
     2
 71
     2
 72
     2
 73
     1
 90
        2
 40
0.6
 41
30.0
 62
     5
 63
     7
421
 16777215
 74
     0
 91
        0
 64
     7
 65
   257
 75
     1
175
     1
 42
1.0
 92
        0
 66
     7
 43
1.0
 76
     1
 77
     6
 78
     2
 67
     7
 79
     5
170
     0
171
     0
290
     0
174
     0
 93
       13
 44
0.0
173
     0
291
     1
 45
0.0
1001
ACAD
1000
AcDbSavedByObjectVersion
1070
     0
  0
VISUALSTYLE
  5
2E
102
{ACAD_REACTORS
330
2A
102
}
102
{ACAD_XDICTIONARY
360
372
102
}
330
2A
100
AcDbVisualStyle
  2
GouraudWithEdges
 70
     3
 71
     2
 72
     2
 73
     1
 90
        2
 40
0.6
 41
30.0
 62
     5
 63
     7
421
 16777215
 74
     1
 91
        0
 64
     7
 65
   257
 75
     1
175
     1
 42
1.0
 92
        0
 66
   257
 43
1.0
 76
     1
 77
     6
 78
     2
 67
     7
 79
     5
170
     0
171
     0
290
     0
174
     0
 93
       13
 44
0.0
173
     0
291
     1
 45
0.0
1001
ACAD
1000
AcDbSavedByObjectVersion
1070
     0
  0
VISUALSTYLE
  5
31
102
{ACAD_REACTORS
330
2A
102
}
102
{ACAD_XDICTIONARY
360
378
102
}
330
2A
100
AcDbVisualStyle
  2
Hidden
 70
     6
 71
     1
 72
     2
 73
     2
 90
        0
 40
0.6
 41
30.0
 62
     5
 63
     7
421
 16777215
 74
     2
 91
        2
 64
     7
 65
   257
 75
     2
175
     1
 42
40.0
 92
        0
 66
   257
 43
1.0
 76
     1
 77
     6
 78
     2
 67
     7
 79
     3
170
     0
171
     0
290
     0
174
     0
 93
        1
 44
0.0
173
     0
291
     0
 45
0.0
1001
ACAD
1000
AcDbSavedByObjectVersion
1070
     0
  0
VISUALSTYLE
  5
3B
102
{ACAD_REACTORS
330
2A
102
}
102
{ACAD_XDICTIONARY
360
38C
102
}
330
2A
100
AcDbVisualStyle
  2
JitterOff
 70
    20
 71
     2
 72
     2
 73
     0
 90
        0
 40
0.6
 41
30.0
 62
     5
 63
     7
421
 16777215
 74
     1
 91
        4
 64
     7
 65
   257
 75
     1
175
     1
 42
1.0
 92
       10
 66
     7
 43
1.0
 76
     1
 77
     6
 78
     2
 67
     7
 79
     5
170
     0
171
     0
290
     0
174
     0
 93
        1
 44
0.0
173
     0
291
     1
 45
0.0
1001
ACAD
1000
AcDbSavedByObjectVersion
1070
     0
  0
VISUALSTYLE
  5
38
102
{ACAD_REACTORS
330
2A
102
}
102
{ACAD_XDICTIONARY
360
386
102
}
330
2A
100
AcDbVisualStyle
  2
Linepattern
 70
    14
 71
     2
 72
     2
 73
     0
 90
        0
 40
0.6
 41
30.0
 62
     5
 63
     7
421
 16777215
 74
     1
 91
        4
 64
     7
 65
   257
 75
     7
175
     7
 42
1.0
 92
        8
 66
     7
 43
1.0
 76
     1
 77
     6
 78
     2
 67
     7
 79
     5
170
     0
171
     0
290
     0
174
     0
 93
        1
 44
0.0
173
     0
291
     1
 45
0.0
1001
ACAD
1000
AcDbSavedByObjectVersion
1070
     0
  0
VISUALSTYLE
  5
3C
102
{ACAD_REACTORS
330
2A
102
}
102
{ACAD_XDICTIONARY
360
38E
102
}
330
2A
100
AcDbVisualStyle
  2
OverhangOff
 70
    21
 71
     2
 72
     2
 73
     0
 90
        0
 40
0.6
 41
30.0
 62
     5
 63
     7
421
 16777215
 74
     1
 91
        4
 64
     7
 65
   257
 75
     1
175
     1
 42
1.0
 92
        9
 66
     7
 43
1.0
 76
     1
 77
     6
 78
     2
 67
     7
 79
     5
170
     0
171
     0
290
     0
174
     0
 93
        1
 44
0.0
173
     0
291
     1
 45
0.0
1001
ACAD
1000
AcDbSavedByObjectVersion
1070
     0
  0
VISUALSTYLE
  5
33
102
{ACAD_REACTORS
330
2A
102
}
102
{ACAD_XDICTIONARY
360
37C
102
}
330
2A
100
AcDbVisualStyle
  2
Realistic
 70
     8
 71
     2
 72
     3
 73
     0
 90
        2
 40
0.6
 41
30.0
 62
     5
 63
     7
421
 16777215
 74
     0
 91
        0
 64
     7
 65
   257
 75
     1
175
     1
 42
1.0
 92
        8
 66
   257
 43
1.0
 76
     1
 77
     6
 78
     2
 67
     7
 79
     3
170
     0
171
     0
290
     0
174
     0
 93
       13
 44
0.0
173
     0
291
     0
 45
0.0
1001
ACAD
1000
AcDbSavedByObjectVersion
1070
     0
  0
VISUALSTYLE
  5
42
102
{ACAD_REACTORS
330
2A
102
}
102
{ACAD_XDICTIONARY
360
39A
102
}
330
2A
100
AcDbVisualStyle
  2
Shaded
 70
    27
 71
     2
 72
     2
 73
     1
 90
        2
 40
0.6
 41
30.0
 62
     5
 63
     7
421
 16777215
 74
     0
 91
        4
 64
     7
 65
   257
 75
     1
175
     1
 42
1.0
 92
        8
 66
   257
 43
1.0
 76
     1
 77
     6
 78
     2
 67
     8
425
  7895160
 79
     3
170
     0
171
     0
290
     0
174
     0
 93
        5
 44
0.0
173
     0
291
     0
 45
0.0
1001
ACAD
1000
AcDbSavedByObjectVersion
1070
     0
  0
VISUALSTYLE
  5
41
102
{ACAD_REACTORS
330
2A
102
}
102
{ACAD_XDICTIONARY
360
398
102
}
330
2A
100
AcDbVisualStyle
  2
Shaded with edges
 70
    26
 71
     2
 72
     2
 73
     1
 90
        2
 40
0.6
 41
30.0
 62
     5
 63
     7
421
 16777215
 74
     1
 91
       10
 64
     7
 65
   257
 75
     2
175
     1
 42
1.0
 92
        8
 66
   257
 43
1.0
 76
     1
 77
     6
 78
     2
 67
     7
 79
     3
170
     0
171
     0
290
     0
174
     0
 93
        5
 44
0.0
173
     0
291
     0
 45
0.0
1001
ACAD
1000
AcDbSavedByObjectVersion
1070
     0
  0
VISUALSTYLE
  5
3E
102
{ACAD_REACTORS
330
2A
102
}
102
{ACAD_XDICTIONARY
360
392
102
}
330
2A
100
AcDbVisualStyle
  2
Shades of Gray
 70
    23
 71
     2
 72
     2
 73
     3
 90
        0
 40
0.6
 41
30.0
 62
     5
 63
     7
421
 16777215
 74
     2
 91
        2
 64
     7
 65
     7
 75
     1
175
     1
 42
40.0
 92
        8
 66
     7
 43
1.0
 76
     1
 77
     6
 78
     2
 67
     7
 79
     3
170
     0
171
     0
290
     0
174
     0
 93
        1
 44
0.0
173
     0
291
     0
 45
0.0
1001
ACAD
1000
AcDbSavedByObjectVersion
1070
     0
  0
VISUALSTYLE
  5
3F
102
{ACAD_REACTORS
330
2A
102
}
102
{ACAD_XDICTIONARY
360
394
102
}
330
2A
100
AcDbVisualStyle
  2
Sketchy
 70
    24
 71
     1
 72
     2
 73
     2
 90
        0
 40
0.6
 41
30.0
 62
     5
 63
     7
421
 16777215
 74
     2
 91
        2
 64
     7
 65
     7
 75
     1
175
     1
 42
40.0
 92
       11
 66
     7
 43
1.0
 76
     1
 77
     6
 78
     2
 67
     7
 79
     6
170
     0
171
     0
290
     0
174
     0
 93
        1
 44
0.0
173
     0
291
     0
 45
0.0
1001
ACAD
1000
AcDbSavedByObjectVersion
1070
     0
  0
VISUALSTYLE
  5
37
102
{ACAD_REACTORS
330
2A
102
}
102
{ACAD_XDICTIONARY
360
384
102
}
330
2A
100
AcDbVisualStyle
  2
Thicken
 70
    13
 71
     2
 72
     2
 73
     0
 90
        0
 40
0.6
 41
30.0
 62
     5
 63
     7
421
 16777215
 74
     1
 91
        4
 64
     7
 65
   257
 75
     1
175
     1
 42
1.0
 92
       12
 66
     7
 43
1.0
 76
     1
 77
     6
 78
     2
 67
     7
 79
     5
170
     0
171
     0
290
     0
174
     0
 93
        1
 44
0.0
173
     0
291
     1
 45
0.0
1001
ACAD
1000
AcDbSavedByObjectVersion
1070
     0
  0
VISUALSTYLE
  5
30
102
{ACAD_REACTORS
330
2A
102
}
102
{ACAD_XDICTIONARY
360
376
102
}
330
2A
100
AcDbVisualStyle
  2
Wireframe
 70
     5
 71
     0
 72
     2
 73
     0
 90
        0
 40
0.6
 41
30.0
 62
     5
 63
     7
421
 16777215
 74
     1
 91
        4
 64
     7
 65
   257
 75
     1
175
     1
 42
1.0
 92
        0
 66
   257
 43
1.0
 76
     1
 77
     6
 78
     2
 67
     7
 79
     3
170
     0
171
     0
290
     0
174
     0
 93
        1
 44
0.0
173
     0
291
     0
 45
0.0
1001
ACAD
1000
AcDbSavedByObjectVersion
1070
     0
  0
VISUALSTYLE
  5
40
102
{ACAD_REACTORS
330
2A
102
}
102
{ACAD_XDICTIONARY
360
396
102
}
330
2A
100
AcDbVisualStyle
  2
X-Ray
 70
    25
 71
     2
 72
     2
 73
     1
 90
        1
 40
0.5
 41
30.0
 62
     5
 63
     7
421
 16777215
 74
     1
 91
        0
 64
     7
 65
   257
 75
     1
175
     1
 42
1.0
 92
        8
 66
     7
 43
1.0
 76
     1
 77
     6
 78
     2
 67
     7
 79
     3
170
     0
171
     0
290
     0
174
     0
 93
       13
 44
0.0
173
     0
291
     0
 45
0.0
1001
ACAD
1000
AcDbSavedByObjectVersion
1070
     0
  0
DICTIONARYVAR
  5
36A
102
{ACAD_REACTORS
330
369
102
}
330
369
100
DictionaryVariables
280
     0
  1
1:1
  0
DICTIONARYVAR
  5
36B
102
{ACAD_REACTORS
330
369
102
}
330
369
100
DictionaryVariables
280
     0
  1
1
  0
DICTIONARY
  5
39E
330
45
100
AcDbDictionary
280
     1
281
     1
  3
ACAD_XREC_ROUNDTRIP
360
39F
  0
DICTIONARY
  5
39C
330
44
100
AcDbDictionary
280
     1
281
     1
  3
ACAD_XREC_ROUNDTRIP
360
39D
  0
DICTIONARY
  5
3A0
330
46
100
AcDbDictionary
280
     1
281
     1
  3
ACAD_XREC_ROUNDTRIP
360
3A1
  0
DICTIONARY
  5
374
330
2F
100
AcDbDictionary
280
     1
281
     1
  3
ACAD_XREC_ROUNDTRIP
360
375
  0
DICTIONARY
  5
37A
330
32
100
AcDbDictionary
280
     1
281
     1
  3
ACAD_XREC_ROUNDTRIP
360
37B
  0
DICTIONARY
  5
382
330
36
100
AcDbDictionary
280
     1
281
     1
  3
ACAD_XREC_ROUNDTRIP
360
383
  0
DICTIONARY
  5
38A
330
3A
100
AcDbDictionary
280
     1
281
     1
  3
ACAD_XREC_ROUNDTRIP
360
38B
  0
DICTIONARY
  5
37E
330
34
100
AcDbDictionary
280
     1
281
     1
  3
ACAD_XREC_ROUNDTRIP
360
37F
  0
DICTIONARY
  5
380
330
35
100
AcDbDictionary
280
     1
281
     1
  3
ACAD_XREC_ROUNDTRIP
360
381
  0
DICTIONARY
  5
390
330
3D
100
AcDbDictionary
280
     1
281
     1
  3
ACAD_XREC_ROUNDTRIP
360
391
  0
DICTIONARY
  5
388
330
39
100
AcDbDictionary
280
     1
281
     1
  3
ACAD_XREC_ROUNDTRIP
360
389
  0
DICTIONARY
  5
36C
330
2B
100
AcDbDictionary
280
     1
281
     1
  3
ACAD_XREC_ROUNDTRIP
360
36D
  0
DICTIONARY
  5
36E
330
2C
100
AcDbDictionary
280
     1
281
     1
  3
ACAD_XREC_ROUNDTRIP
360
36F
  0
DICTIONARY
  5
370
330
2D
100
AcDbDictionary
280
     1
281
     1
  3
ACAD_XREC_ROUNDTRIP
360
371
  0
DICTIONARY
  5
372
330
2E
100
AcDbDictionary
280
     1
281
     1
  3
ACAD_XREC_ROUNDTRIP
360
373
  0
DICTIONARY
  5
378
330
31
100
AcDbDictionary
280
     1
281
     1
  3
ACAD_XREC_ROUNDTRIP
360
379
  0
DICTIONARY
  5
38C
330
3B
100
AcDbDictionary
280
     1
281
     1
  3
ACAD_XREC_ROUNDTRIP
360
38D
  0
DICTIONARY
  5
386
330
38
100
AcDbDictionary
280
     1
281
     1
  3
ACAD_XREC_ROUNDTRIP
360
387
  0
DICTIONARY
  5
38E
330
3C
100
AcDbDictionary
280
     1
281
     1
  3
ACAD_XREC_ROUNDTRIP
360
38F
  0
DICTIONARY
  5
37C
330
33
100
AcDbDictionary
280
     1
281
     1
  3
ACAD_XREC_ROUNDTRIP
360
37D
  0
DICTIONARY
  5
39A
330
42
100
AcDbDictionary
280
     1
281
     1
  3
ACAD_XREC_ROUNDTRIP
360
39B
  0
DICTIONARY
  5
398
330
41
100
AcDbDictionary
280
     1
281
     1
  3
ACAD_XREC_ROUNDTRIP
360
399
  0
DICTIONARY
  5
392
330
3E
100
AcDbDictionary
280
     1
281
     1
  3
ACAD_XREC_ROUNDTRIP
360
393
  0
DICTIONARY
  5
394
330
3F
100
AcDbDictionary
280
     1
281
     1
  3
ACAD_XREC_ROUNDTRIP
360
395
  0
DICTIONARY
  5
384
330
37
100
AcDbDictionary
280
     1
281
     1
  3
ACAD_XREC_ROUNDTRIP
360
385
  0
DICTIONARY
  5
376
330
30
100
AcDbDictionary
280
     1
281
     1
  3
ACAD_XREC_ROUNDTRIP
360
377
  0
DICTIONARY
  5
396
330
40
100
AcDbDictionary
280
     1
281
     1
  3
ACAD_XREC_ROUNDTRIP
360
397
  0
XRECORD
  5
39F
102
{ACAD_REACTORS
330
39E
102
}
330
39E
100
AcDbXrecord
280
     1
102
MATERIAL
148
0.0
149
0.0
149
0.0
 93
        0
 94
      127
282
     0
 72
     1
 77
     1
171
     1
175
     1
179
     1
273
     0
  0
XRECORD
  5
39D
102
{ACAD_REACTORS
330
39C
102
}
330
39C
100
AcDbXrecord
280
     1
102
MATERIAL
148
0.0
149
0.0
149
0.0
 93
        0
 94
      127
282
     0
 72
     1
 77
     1
171
     1
175
     1
179
     1
273
     0
  0
XRECORD
  5
3A1
102
{ACAD_REACTORS
330
3A0
102
}
330
3A0
100
AcDbXrecord
280
     1
102
MATERIAL
148
0.0
149
0.0
149
0.0
 93
        0
 94
      127
282
     0
 72
     1
 77
     1
171
     1
175
     1
179
     1
273
     0
  0
XRECORD
  5
375
102
{ACAD_REACTORS
330
374
102
}
330
374
100
AcDbXrecord
280
     1
102
RTVSPropertyOp0
 70
     1
102
RTVSPropertyOp1
 70
     1
102
RTVSPropertyOp2
 70
     1
102
RTVSPropertyOp3
 70
     1
102
RTVSPropertyOp4
 70
     1
102
RTVSPropertyOp5
 70
     1
102
RTVSPropertyOp6
 70
     1
102
RTVSPropertyOp7
 70
     1
102
RTVSPropertyOp8
 70
     1
102
RTVSPropertyOp9
 70
     1
102
RTVSPropertyOp10
 70
     1
102
RTVSPropertyOp11
 70
     1
102
RTVSPropertyOp12
 70
     1
102
RTVSPropertyOp13
 70
     1
102
RTVSPropertyOp14
 70
     1
102
RTVSPropertyOp15
 70
     1
102
RTVSPropertyOp16
 70
     1
102
RTVSPropertyOp17
 70
     1
102
RTVSPropertyOp18
 70
     1
102
RTVSPropertyOp19
 70
     1
102
RTVSPropertyOp20
 70
     1
102
RTVSPropertyOp21
 70
     1
102
RTVSPropertyOp22
 70
     1
102
RTVSPropertyOp23
 70
     1
102
RTVSPropertyOp24
 70
     1
102
RTVSPropertyOp25
 70
     1
102
RTVSPropertyOp26
 70
     1
102
RTVSPropertyOp27
 70
     1
102
RTVSPropertyOp28
 70
     1
102
RTVSPropertyOp29
 70
     1
102
RTVSPropertyOp30
 70
     1
102
RTVSPropertyOp31
 70
     1
102
RTVSPropertyOp32
 70
     1
102
RTVSPropertyOp33
 70
     1
102
RTVSPropertyOp34
 70
     1
102
RTVSPropertyOp35
 70
     1
102
RTVSPropertyOp36
 70
     1
102
RTVSPropertyOp37
 70
     1
102
RTVSPropertyOp38
 70
     1
102
RTVSPropertyOp39
 70
     1
102
RTVSPropertyOp40
 70
     1
102
RTVSPropertyOp41
 70
     1
102
RTVSPropertyOp42
 70
     1
102
RTVSPropertyOp43
 70
     1
102
RTVSPropertyOp44
 70
     1
102
RTVSPropertyOp45
 70
     1
102
RTVSPropertyOp46
 70
     1
102
RTVSPropertyOp47
 70
     1
102
RTVSPropertyOp48
 70
     1
102
RTVSPropertyOp49
 70
     1
102
RTVSPropertyOp50
 70
     1
102
RTVSPropertyOp51
 70
     0
102
RTVSPropertyOp52
 70
     0
102
RTVSPropertyOp53
 70
     1
102
RTVSPropertyOp54
 70
     1
102
RTVSPropertyOp55
 70
     1
102
RTVSPropertyOp56
 70
     1
102
RTVSPropertyOp57
 70
     1
102
RTVSPost2010Prop28
280
     1
102
RTVSPost2010PropOp28
 70
     1
102
RTVSPost2010Prop29
280
     1
102
RTVSPost2010PropOp29
 70
     1
102
RTVSPost2010Prop30
280
     0
102
RTVSPost2010PropOp30
 70
     1
102
RTVSPost2010Prop31
280
     0
102
RTVSPost2010PropOp31
 70
     1
102
RTVSPost2010Prop32
280
     0
102
RTVSPost2010PropOp32
 70
     1
102
RTVSPost2010Prop33
280
     0
102
RTVSPost2010PropOp33
 70
     1
102
RTVSPost2010Prop34
280
     0
102
RTVSPost2010PropOp34
 70
     1
102
RTVSPost2010Prop35
280
     0
102
RTVSPost2010PropOp35
 70
     1
102
RTVSPost2010Prop36
280
     0
102
RTVSPost2010PropOp36
 70
     1
102
RTVSPost2010Prop37
 90
       50
102
RTVSPost2010PropOp37
 70
     1
102
RTVSPost2010Prop38
140
0.0
102
RTVSPost2010PropOp38
 70
     1
102
RTVSPost2010Prop39
140
1.0
102
RTVSPost2010PropOp39
 70
     1
102
RTVSPost2010Prop40
 90
        0
102
RTVSPost2010PropOp40
 70
     1
102
RTVSPost2010Prop41ColorIndex
 90
       18
102
RTVSPost2010Prop41ColorRGB
 90
        0
102
RTVSPost2010PropOp41
 70
     1
102
RTVSPost2010Prop42
 90
       50
102
RTVSPost2010PropOp42
 70
     1
102
RTVSPost2010Prop43
 90
        3
102
RTVSPost2010PropOp43
 70
     1
102
RTVSPost2010Prop44ColorIndex
 90
        5
102
RTVSPost2010Prop44ColorRGB
 90
      255
102
RTVSPost2010PropOp44
 70
     1
102
RTVSPost2010Prop45
280
     0
102
RTVSPost2010PropOp45
 70
     1
102
RTVSPost2010Prop46
 90
       50
102
RTVSPost2010PropOp46
 70
     1
102
RTVSPost2010Prop47
 90
       50
102
RTVSPost2010PropOp47
 70
     1
102
RTVSPost2010Prop48
 90
       50
102
RTVSPost2010PropOp48
 70
     1
102
RTVSPost2010Prop49
280
     0
102
RTVSPost2010PropOp49
 70
     1
102
RTVSPost2010Prop50
 90
       50
102
RTVSPost2010PropOp50
 70
     1
102
RTVSPost2010Prop51ColorIndex
 90
      256
102
RTVSPost2010Prop51ColorRGB
 90
-16777216
102
RTVSPost2010PropOp51
 70
     0
102
RTVSPost2010Prop52
140
1.0
102
RTVSPost2010PropOp52
 70
     0
102
RTVSPost2010Prop53
 90
        2
102
RTVSPost2010PropOp53
 70
     1
102
RTVSPost2010Prop54
  1
strokes_ogs.tif
102
RTVSPost2010PropOp54
 70
     1
102
RTVSPost2010Prop55
280
     0
102
RTVSPost2010PropOp55
 70
     1
102
RTVSPost2010Prop56
140
1.0
102
RTVSPost2010PropOp56
 70
     1
102
RTVSPost2010Prop57
140
1.0
102
RTVSPost2010PropOp57
 70
     1
  0
XRECORD
  5
37B
102
{ACAD_REACTORS
330
37A
102
}
330
37A
100
AcDbXrecord
280
     1
102
RTVSPropertyOp0
 70
     1
102
RTVSPropertyOp1
 70
     1
102
RTVSPropertyOp2
 70
     1
102
RTVSPropertyOp3
 70
     1
102
RTVSPropertyOp4
 70
     1
102
RTVSPropertyOp5
 70
     1
102
RTVSPropertyOp6
 70
     1
102
RTVSPropertyOp7
 70
     1
102
RTVSPropertyOp8
 70
     1
102
RTVSPropertyOp9
 70
     1
102
RTVSPropertyOp10
 70
     1
102
RTVSPropertyOp11
 70
     1
102
RTVSPropertyOp12
 70
     1
102
RTVSPropertyOp13
 70
     1
102
RTVSPropertyOp14
 70
     1
102
RTVSPropertyOp15
 70
     1
102
RTVSPropertyOp16
 70
     1
102
RTVSPropertyOp17
 70
     1
102
RTVSPropertyOp18
 70
     1
102
RTVSPropertyOp19
 70
     1
102
RTVSPropertyOp20
 70
     1
102
RTVSPropertyOp21
 70
     1
102
RTVSPropertyOp22
 70
     1
102
RTVSPropertyOp23
 70
     1
102
RTVSPropertyOp24
 70
     1
102
RTVSPropertyOp25
 70
     1
102
RTVSPropertyOp26
 70
     1
102
RTVSPropertyOp27
 70
     1
102
RTVSPropertyOp28
 70
     1
102
RTVSPropertyOp29
 70
     1
102
RTVSPropertyOp30
 70
     1
102
RTVSPropertyOp31
 70
     1
102
RTVSPropertyOp32
 70
     1
102
RTVSPropertyOp33
 70
     1
102
RTVSPropertyOp34
 70
     1
102
RTVSPropertyOp35
 70
     1
102
RTVSPropertyOp36
 70
     1
102
RTVSPropertyOp37
 70
     1
102
RTVSPropertyOp38
 70
     1
102
RTVSPropertyOp39
 70
     1
102
RTVSPropertyOp40
 70
     1
102
RTVSPropertyOp41
 70
     1
102
RTVSPropertyOp42
 70
     1
102
RTVSPropertyOp43
 70
     1
102
RTVSPropertyOp44
 70
     1
102
RTVSPropertyOp45
 70
     1
102
RTVSPropertyOp46
 70
     1
102
RTVSPropertyOp47
 70
     1
102
RTVSPropertyOp48
 70
     1
102
RTVSPropertyOp49
 70
     1
102
RTVSPropertyOp50
 70
     1
102
RTVSPropertyOp51
 70
     0
102
RTVSPropertyOp52
 70
     0
102
RTVSPropertyOp53
 70
     1
102
RTVSPropertyOp54
 70
     1
102
RTVSPropertyOp55
 70
     1
102
RTVSPropertyOp56
 70
     1
102
RTVSPropertyOp57
 70
     1
102
RTVSPost2010Prop28
280
     0
102
RTVSPost2010PropOp28
 70
     1
102
RTVSPost2010Prop29
280
     1
102
RTVSPost2010PropOp29
 70
     1
102
RTVSPost2010Prop30
280
     1
102
RTVSPost2010PropOp30
 70
     1
102
RTVSPost2010Prop31
280
     0
102
RTVSPost2010PropOp31
 70
     1
102
RTVSPost2010Prop32
280
     0
102
RTVSPost2010PropOp32
 70
     1
102
RTVSPost2010Prop33
280
     0
102
RTVSPost2010PropOp33
 70
     1
102
RTVSPost2010Prop34
280
     0
102
RTVSPost2010PropOp34
 70
     1
102
RTVSPost2010Prop35
280
     0
102
RTVSPost2010PropOp35
 70
     1
102
RTVSPost2010Prop36
280
     0
102
RTVSPost2010PropOp36
 70
     1
102
RTVSPost2010Prop37
 90
       50
102
RTVSPost2010PropOp37
 70
     1
102
RTVSPost2010Prop38
140
0.0
102
RTVSPost2010PropOp38
 70
     1
102
RTVSPost2010Prop39
140
1.0
102
RTVSPost2010PropOp39
 70
     1
102
RTVSPost2010Prop40
 90
        0
102
RTVSPost2010PropOp40
 70
     1
102
RTVSPost2010Prop41ColorIndex
 90
       18
102
RTVSPost2010Prop41ColorRGB
 90
        0
102
RTVSPost2010PropOp41
 70
     1
102
RTVSPost2010Prop42
 90
       50
102
RTVSPost2010PropOp42
 70
     1
102
RTVSPost2010Prop43
 90
        3
102
RTVSPost2010PropOp43
 70
     1
102
RTVSPost2010Prop44ColorIndex
 90
        5
102
RTVSPost2010Prop44ColorRGB
 90
      255
102
RTVSPost2010PropOp44
 70
     1
102
RTVSPost2010Prop45
280
     0
102
RTVSPost2010PropOp45
 70
     1
102
RTVSPost2010Prop46
 90
       50
102
RTVSPost2010PropOp46
 70
     1
102
RTVSPost2010Prop47
 90
       50
102
RTVSPost2010PropOp47
 70
     1
102
RTVSPost2010Prop48
 90
       50
102
RTVSPost2010PropOp48
 70
     1
102
RTVSPost2010Prop49
280
     0
102
RTVSPost2010PropOp49
 70
     1
102
RTVSPost2010Prop50
 90
       50
102
RTVSPost2010PropOp50
 70
     1
102
RTVSPost2010Prop51ColorIndex
 90
      256
102
RTVSPost2010Prop51ColorRGB
 90
-16777216
102
RTVSPost2010PropOp51
 70
     0
102
RTVSPost2010Prop52
140
1.0
102
RTVSPost2010PropOp52
 70
     0
102
RTVSPost2010Prop53
 90
        2
102
RTVSPost2010PropOp53
 70
     1
102
RTVSPost2010Prop54
  1
strokes_ogs.tif
102
RTVSPost2010PropOp54
 70
     1
102
RTVSPost2010Prop55
280
     0
102
RTVSPost2010PropOp55
 70
     1
102
RTVSPost2010Prop56
140
1.0
102
RTVSPost2010PropOp56
 70
     1
102
RTVSPost2010Prop57
140
1.0
102
RTVSPost2010PropOp57
 70
     1
  0
XRECORD
  5
383
102
{ACAD_REACTORS
330
382
102
}
330
382
100
AcDbXrecord
280
     1
102
RTVSPropertyOp0
 70
     1
102
RTVSPropertyOp1
 70
     1
102
RTVSPropertyOp2
 70
     1
102
RTVSPropertyOp3
 70
     1
102
RTVSPropertyOp4
 70
     1
102
RTVSPropertyOp5
 70
     1
102
RTVSPropertyOp6
 70
     1
102
RTVSPropertyOp7
 70
     1
102
RTVSPropertyOp8
 70
     1
102
RTVSPropertyOp9
 70
     1
102
RTVSPropertyOp10
 70
     1
102
RTVSPropertyOp11
 70
     1
102
RTVSPropertyOp12
 70
     1
102
RTVSPropertyOp13
 70
     1
102
RTVSPropertyOp14
 70
     1
102
RTVSPropertyOp15
 70
     1
102
RTVSPropertyOp16
 70
     1
102
RTVSPropertyOp17
 70
     1
102
RTVSPropertyOp18
 70
     1
102
RTVSPropertyOp19
 70
     1
102
RTVSPropertyOp20
 70
     1
102
RTVSPropertyOp21
 70
     1
102
RTVSPropertyOp22
 70
     1
102
RTVSPropertyOp23
 70
     1
102
RTVSPropertyOp24
 70
     1
102
RTVSPropertyOp25
 70
     1
102
RTVSPropertyOp26
 70
     1
102
RTVSPropertyOp27
 70
     1
102
RTVSPropertyOp28
 70
     1
102
RTVSPropertyOp29
 70
     1
102
RTVSPropertyOp30
 70
     1
102
RTVSPropertyOp31
 70
     1
102
RTVSPropertyOp32
 70
     1
102
RTVSPropertyOp33
 70
     1
102
RTVSPropertyOp34
 70
     1
102
RTVSPropertyOp35
 70
     1
102
RTVSPropertyOp36
 70
     1
102
RTVSPropertyOp37
 70
     1
102
RTVSPropertyOp38
 70
     1
102
RTVSPropertyOp39
 70
     1
102
RTVSPropertyOp40
 70
     1
102
RTVSPropertyOp41
 70
     1
102
RTVSPropertyOp42
 70
     1
102
RTVSPropertyOp43
 70
     1
102
RTVSPropertyOp44
 70
     1
102
RTVSPropertyOp45
 70
     1
102
RTVSPropertyOp46
 70
     1
102
RTVSPropertyOp47
 70
     1
102
RTVSPropertyOp48
 70
     1
102
RTVSPropertyOp49
 70
     1
102
RTVSPropertyOp50
 70
     1
102
RTVSPropertyOp51
 70
     0
102
RTVSPropertyOp52
 70
     0
102
RTVSPropertyOp53
 70
     1
102
RTVSPropertyOp54
 70
     1
102
RTVSPropertyOp55
 70
     1
102
RTVSPropertyOp56
 70
     1
102
RTVSPropertyOp57
 70
     1
102
RTVSPost2010Prop28
280
     0
102
RTVSPost2010PropOp28
 70
     1
102
RTVSPost2010Prop29
280
     1
102
RTVSPost2010PropOp29
 70
     1
102
RTVSPost2010Prop30
280
     1
102
RTVSPost2010PropOp30
 70
     1
102
RTVSPost2010Prop31
280
     0
102
RTVSPost2010PropOp31
 70
     1
102
RTVSPost2010Prop32
280
     0
102
RTVSPost2010PropOp32
 70
     1
102
RTVSPost2010Prop33
280
     0
102
RTVSPost2010PropOp33
 70
     1
102
RTVSPost2010Prop34
280
     0
102
RTVSPost2010PropOp34
 70
     1
102
RTVSPost2010Prop35
280
     0
102
RTVSPost2010PropOp35
 70
     1
102
RTVSPost2010Prop36
280
     0
102
RTVSPost2010PropOp36
 70
     1
102
RTVSPost2010Prop37
 90
       50
102
RTVSPost2010PropOp37
 70
     1
102
RTVSPost2010Prop38
140
0.0
102
RTVSPost2010PropOp38
 70
     1
102
RTVSPost2010Prop39
140
1.0
102
RTVSPost2010PropOp39
 70
     1
102
RTVSPost2010Prop40
 90
        0
102
RTVSPost2010PropOp40
 70
     1
102
RTVSPost2010Prop41ColorIndex
 90
       18
102
RTVSPost2010Prop41ColorRGB
 90
        0
102
RTVSPost2010PropOp41
 70
     1
102
RTVSPost2010Prop42
 90
       50
102
RTVSPost2010PropOp42
 70
     1
102
RTVSPost2010Prop43
 90
        3
102
RTVSPost2010PropOp43
 70
     1
102
RTVSPost2010Prop44ColorIndex
 90
        5
102
RTVSPost2010Prop44ColorRGB
 90
      255
102
RTVSPost2010PropOp44
 70
     1
102
RTVSPost2010Prop45
280
     0
102
RTVSPost2010PropOp45
 70
     1
102
RTVSPost2010Prop46
 90
       50
102
RTVSPost2010PropOp46
 70
     1
102
RTVSPost2010Prop47
 90
       50
102
RTVSPost2010PropOp47
 70
     1
102
RTVSPost2010Prop48
 90
       50
102
RTVSPost2010PropOp48
 70
     1
102
RTVSPost2010Prop49
280
     0
102
RTVSPost2010PropOp49
 70
     1
102
RTVSPost2010Prop50
 90
       50
102
RTVSPost2010PropOp50
 70
     1
102
RTVSPost2010Prop51ColorIndex
 90
      256
102
RTVSPost2010Prop51ColorRGB
 90
-16777216
102
RTVSPost2010PropOp51
 70
     0
102
RTVSPost2010Prop52
140
1.0
102
RTVSPost2010PropOp52
 70
     0
102
RTVSPost2010Prop53
 90
        2
102
RTVSPost2010PropOp53
 70
     1
102
RTVSPost2010Prop54
  1
strokes_ogs.tif
102
RTVSPost2010PropOp54
 70
     1
102
RTVSPost2010Prop55
280
     0
102
RTVSPost2010PropOp55
 70
     1
102
RTVSPost2010Prop56
140
1.0
102
RTVSPost2010PropOp56
 70
     1
102
RTVSPost2010Prop57
140
1.0
102
RTVSPost2010PropOp57
 70
     1
  0
XRECORD
  5
38B
102
{ACAD_REACTORS
330
38A
102
}
330
38A
100
AcDbXrecord
280
     1
102
RTVSPropertyOp0
 70
     1
102
RTVSPropertyOp1
 70
     1
102
RTVSPropertyOp2
 70
     1
102
RTVSPropertyOp3
 70
     1
102
RTVSPropertyOp4
 70
     1
102
RTVSPropertyOp5
 70
     1
102
RTVSPropertyOp6
 70
     1
102
RTVSPropertyOp7
 70
     1
102
RTVSPropertyOp8
 70
     1
102
RTVSPropertyOp9
 70
     1
102
RTVSPropertyOp10
 70
     1
102
RTVSPropertyOp11
 70
     1
102
RTVSPropertyOp12
 70
     1
102
RTVSPropertyOp13
 70
     1
102
RTVSPropertyOp14
 70
     1
102
RTVSPropertyOp15
 70
     1
102
RTVSPropertyOp16
 70
     1
102
RTVSPropertyOp17
 70
     1
102
RTVSPropertyOp18
 70
     1
102
RTVSPropertyOp19
 70
     1
102
RTVSPropertyOp20
 70
     1
102
RTVSPropertyOp21
 70
     1
102
RTVSPropertyOp22
 70
     1
102
RTVSPropertyOp23
 70
     1
102
RTVSPropertyOp24
 70
     1
102
RTVSPropertyOp25
 70
     1
102
RTVSPropertyOp26
 70
     1
102
RTVSPropertyOp27
 70
     1
102
RTVSPropertyOp28
 70
     1
102
RTVSPropertyOp29
 70
     1
102
RTVSPropertyOp30
 70
     1
102
RTVSPropertyOp31
 70
     1
102
RTVSPropertyOp32
 70
     1
102
RTVSPropertyOp33
 70
     1
102
RTVSPropertyOp34
 70
     1
102
RTVSPropertyOp35
 70
     1
102
RTVSPropertyOp36
 70
     1
102
RTVSPropertyOp37
 70
     1
102
RTVSPropertyOp38
 70
     1
102
RTVSPropertyOp39
 70
     1
102
RTVSPropertyOp40
 70
     1
102
RTVSPropertyOp41
 70
     1
102
RTVSPropertyOp42
 70
     1
102
RTVSPropertyOp43
 70
     1
102
RTVSPropertyOp44
 70
     1
102
RTVSPropertyOp45
 70
     1
102
RTVSPropertyOp46
 70
     1
102
RTVSPropertyOp47
 70
     1
102
RTVSPropertyOp48
 70
     1
102
RTVSPropertyOp49
 70
     1
102
RTVSPropertyOp50
 70
     1
102
RTVSPropertyOp51
 70
     0
102
RTVSPropertyOp52
 70
     0
102
RTVSPropertyOp53
 70
     1
102
RTVSPropertyOp54
 70
     1
102
RTVSPropertyOp55
 70
     1
102
RTVSPropertyOp56
 70
     1
102
RTVSPropertyOp57
 70
     1
102
RTVSPost2010Prop28
280
     0
102
RTVSPost2010PropOp28
 70
     1
102
RTVSPost2010Prop29
280
     1
102
RTVSPost2010PropOp29
 70
     1
102
RTVSPost2010Prop30
280
     1
102
RTVSPost2010PropOp30
 70
     1
102
RTVSPost2010Prop31
280
     0
102
RTVSPost2010PropOp31
 70
     1
102
RTVSPost2010Prop32
280
     0
102
RTVSPost2010PropOp32
 70
     1
102
RTVSPost2010Prop33
280
     0
102
RTVSPost2010PropOp33
 70
     1
102
RTVSPost2010Prop34
280
     0
102
RTVSPost2010PropOp34
 70
     1
102
RTVSPost2010Prop35
280
     0
102
RTVSPost2010PropOp35
 70
     1
102
RTVSPost2010Prop36
280
     0
102
RTVSPost2010PropOp36
 70
     1
102
RTVSPost2010Prop37
 90
       50
102
RTVSPost2010PropOp37
 70
     1
102
RTVSPost2010Prop38
140
0.0
102
RTVSPost2010PropOp38
 70
     1
102
RTVSPost2010Prop39
140
1.0
102
RTVSPost2010PropOp39
 70
     1
102
RTVSPost2010Prop40
 90
        0
102
RTVSPost2010PropOp40
 70
     1
102
RTVSPost2010Prop41ColorIndex
 90
       18
102
RTVSPost2010Prop41ColorRGB
 90
        0
102
RTVSPost2010PropOp41
 70
     1
102
RTVSPost2010Prop42
 90
       50
102
RTVSPost2010PropOp42
 70
     1
102
RTVSPost2010Prop43
 90
        3
102
RTVSPost2010PropOp43
 70
     1
102
RTVSPost2010Prop44ColorIndex
 90
        5
102
RTVSPost2010Prop44ColorRGB
 90
      255
102
RTVSPost2010PropOp44
 70
     1
102
RTVSPost2010Prop45
280
     0
102
RTVSPost2010PropOp45
 70
     1
102
RTVSPost2010Prop46
 90
       50
102
RTVSPost2010PropOp46
 70
     1
102
RTVSPost2010Prop47
 90
       50
102
RTVSPost2010PropOp47
 70
     1
102
RTVSPost2010Prop48
 90
       50
102
RTVSPost2010PropOp48
 70
     1
102
RTVSPost2010Prop49
280
     0
102
RTVSPost2010PropOp49
 70
     1
102
RTVSPost2010Prop50
 90
       50
102
RTVSPost2010PropOp50
 70
     1
102
RTVSPost2010Prop51ColorIndex
 90
      256
102
RTVSPost2010Prop51ColorRGB
 90
-16777216
102
RTVSPost2010PropOp51
 70
     0
102
RTVSPost2010Prop52
140
1.0
102
RTVSPost2010PropOp52
 70
     0
102
RTVSPost2010Prop53
 90
        2
102
RTVSPost2010PropOp53
 70
     1
102
RTVSPost2010Prop54
  1
strokes_ogs.tif
102
RTVSPost2010PropOp54
 70
     1
102
RTVSPost2010Prop55
280
     0
102
RTVSPost2010PropOp55
 70
     1
102
RTVSPost2010Prop56
140
1.0
102
RTVSPost2010PropOp56
 70
     1
102
RTVSPost2010Prop57
140
1.0
102
RTVSPost2010PropOp57
 70
     1
  0
XRECORD
  5
37F
102
{ACAD_REACTORS
330
37E
102
}
330
37E
100
AcDbXrecord
280
     1
102
RTVSPropertyOp0
 70
     1
102
RTVSPropertyOp1
 70
     1
102
RTVSPropertyOp2
 70
     1
102
RTVSPropertyOp3
 70
     1
102
RTVSPropertyOp4
 70
     1
102
RTVSPropertyOp5
 70
     1
102
RTVSPropertyOp6
 70
     1
102
RTVSPropertyOp7
 70
     1
102
RTVSPropertyOp8
 70
     1
102
RTVSPropertyOp9
 70
     1
102
RTVSPropertyOp10
 70
     1
102
RTVSPropertyOp11
 70
     1
102
RTVSPropertyOp12
 70
     1
102
RTVSPropertyOp13
 70
     1
102
RTVSPropertyOp14
 70
     1
102
RTVSPropertyOp15
 70
     1
102
RTVSPropertyOp16
 70
     1
102
RTVSPropertyOp17
 70
     1
102
RTVSPropertyOp18
 70
     1
102
RTVSPropertyOp19
 70
     1
102
RTVSPropertyOp20
 70
     1
102
RTVSPropertyOp21
 70
     1
102
RTVSPropertyOp22
 70
     1
102
RTVSPropertyOp23
 70
     1
102
RTVSPropertyOp24
 70
     1
102
RTVSPropertyOp25
 70
     1
102
RTVSPropertyOp26
 70
     1
102
RTVSPropertyOp27
 70
     1
102
RTVSPropertyOp28
 70
     1
102
RTVSPropertyOp29
 70
     1
102
RTVSPropertyOp30
 70
     1
102
RTVSPropertyOp31
 70
     1
102
RTVSPropertyOp32
 70
     1
102
RTVSPropertyOp33
 70
     1
102
RTVSPropertyOp34
 70
     1
102
RTVSPropertyOp35
 70
     1
102
RTVSPropertyOp36
 70
     1
102
RTVSPropertyOp37
 70
     1
102
RTVSPropertyOp38
 70
     1
102
RTVSPropertyOp39
 70
     1
102
RTVSPropertyOp40
 70
     1
102
RTVSPropertyOp41
 70
     1
102
RTVSPropertyOp42
 70
     1
102
RTVSPropertyOp43
 70
     1
102
RTVSPropertyOp44
 70
     1
102
RTVSPropertyOp45
 70
     1
102
RTVSPropertyOp46
 70
     1
102
RTVSPropertyOp47
 70
     1
102
RTVSPropertyOp48
 70
     1
102
RTVSPropertyOp49
 70
     1
102
RTVSPropertyOp50
 70
     1
102
RTVSPropertyOp51
 70
     0
102
RTVSPropertyOp52
 70
     0
102
RTVSPropertyOp53
 70
     1
102
RTVSPropertyOp54
 70
     1
102
RTVSPropertyOp55
 70
     1
102
RTVSPropertyOp56
 70
     1
102
RTVSPropertyOp57
 70
     1
102
RTVSPost2010Prop28
280
     0
102
RTVSPost2010PropOp28
 70
     1
102
RTVSPost2010Prop29
280
     1
102
RTVSPost2010PropOp29
 70
     1
102
RTVSPost2010Prop30
280
     1
102
RTVSPost2010PropOp30
 70
     1
102
RTVSPost2010Prop31
280
     0
102
RTVSPost2010PropOp31
 70
     1
102
RTVSPost2010Prop32
280
     0
102
RTVSPost2010PropOp32
 70
     1
102
RTVSPost2010Prop33
280
     0
102
RTVSPost2010PropOp33
 70
     1
102
RTVSPost2010Prop34
280
     0
102
RTVSPost2010PropOp34
 70
     1
102
RTVSPost2010Prop35
280
     0
102
RTVSPost2010PropOp35
 70
     1
102
RTVSPost2010Prop36
280
     0
102
RTVSPost2010PropOp36
 70
     1
102
RTVSPost2010Prop37
 90
       50
102
RTVSPost2010PropOp37
 70
     1
102
RTVSPost2010Prop38
140
0.0
102
RTVSPost2010PropOp38
 70
     1
102
RTVSPost2010Prop39
140
1.0
102
RTVSPost2010PropOp39
 70
     1
102
RTVSPost2010Prop40
 90
        0
102
RTVSPost2010PropOp40
 70
     1
102
RTVSPost2010Prop41ColorIndex
 90
       18
102
RTVSPost2010Prop41ColorRGB
 90
        0
102
RTVSPost2010PropOp41
 70
     1
102
RTVSPost2010Prop42
 90
       50
102
RTVSPost2010PropOp42
 70
     1
102
RTVSPost2010Prop43
 90
        3
102
RTVSPost2010PropOp43
 70
     1
102
RTVSPost2010Prop44ColorIndex
 90
        5
102
RTVSPost2010Prop44ColorRGB
 90
      255
102
RTVSPost2010PropOp44
 70
     1
102
RTVSPost2010Prop45
280
     0
102
RTVSPost2010PropOp45
 70
     1
102
RTVSPost2010Prop46
 90
       50
102
RTVSPost2010PropOp46
 70
     1
102
RTVSPost2010Prop47
 90
       50
102
RTVSPost2010PropOp47
 70
     1
102
RTVSPost2010Prop48
 90
       50
102
RTVSPost2010PropOp48
 70
     1
102
RTVSPost2010Prop49
280
     0
102
RTVSPost2010PropOp49
 70
     1
102
RTVSPost2010Prop50
 90
       50
102
RTVSPost2010PropOp50
 70
     1
102
RTVSPost2010Prop51ColorIndex
 90
      256
102
RTVSPost2010Prop51ColorRGB
 90
-16777216
102
RTVSPost2010PropOp51
 70
     0
102
RTVSPost2010Prop52
140
1.0
102
RTVSPost2010PropOp52
 70
     0
102
RTVSPost2010Prop53
 90
        2
102
RTVSPost2010PropOp53
 70
     1
102
RTVSPost2010Prop54
  1
strokes_ogs.tif
102
RTVSPost2010PropOp54
 70
     1
102
RTVSPost2010Prop55
280
     0
102
RTVSPost2010PropOp55
 70
     1
102
RTVSPost2010Prop56
140
1.0
102
RTVSPost2010PropOp56
 70
     1
102
RTVSPost2010Prop57
140
1.0
102
RTVSPost2010PropOp57
 70
     1
  0
XRECORD
  5
381
102
{ACAD_REACTORS
330
380
102
}
330
380
100
AcDbXrecord
280
     1
102
RTVSPropertyOp0
 70
     1
102
RTVSPropertyOp1
 70
     1
102
RTVSPropertyOp2
 70
     1
102
RTVSPropertyOp3
 70
     1
102
RTVSPropertyOp4
 70
     1
102
RTVSPropertyOp5
 70
     1
102
RTVSPropertyOp6
 70
     1
102
RTVSPropertyOp7
 70
     1
102
RTVSPropertyOp8
 70
     1
102
RTVSPropertyOp9
 70
     1
102
RTVSPropertyOp10
 70
     1
102
RTVSPropertyOp11
 70
     1
102
RTVSPropertyOp12
 70
     1
102
RTVSPropertyOp13
 70
     1
102
RTVSPropertyOp14
 70
     1
102
RTVSPropertyOp15
 70
     1
102
RTVSPropertyOp16
 70
     1
102
RTVSPropertyOp17
 70
     1
102
RTVSPropertyOp18
 70
     1
102
RTVSPropertyOp19
 70
     1
102
RTVSPropertyOp20
 70
     1
102
RTVSPropertyOp21
 70
     1
102
RTVSPropertyOp22
 70
     1
102
RTVSPropertyOp23
 70
     1
102
RTVSPropertyOp24
 70
     1
102
RTVSPropertyOp25
 70
     1
102
RTVSPropertyOp26
 70
     1
102
RTVSPropertyOp27
 70
     1
102
RTVSPropertyOp28
 70
     1
102
RTVSPropertyOp29
 70
     1
102
RTVSPropertyOp30
 70
     1
102
RTVSPropertyOp31
 70
     1
102
RTVSPropertyOp32
 70
     1
102
RTVSPropertyOp33
 70
     1
102
RTVSPropertyOp34
 70
     1
102
RTVSPropertyOp35
 70
     1
102
RTVSPropertyOp36
 70
     1
102
RTVSPropertyOp37
 70
     1
102
RTVSPropertyOp38
 70
     1
102
RTVSPropertyOp39
 70
     1
102
RTVSPropertyOp40
 70
     1
102
RTVSPropertyOp41
 70
     1
102
RTVSPropertyOp42
 70
     1
102
RTVSPropertyOp43
 70
     1
102
RTVSPropertyOp44
 70
     1
102
RTVSPropertyOp45
 70
     1
102
RTVSPropertyOp46
 70
     1
102
RTVSPropertyOp47
 70
     1
102
RTVSPropertyOp48
 70
     1
102
RTVSPropertyOp49
 70
     1
102
RTVSPropertyOp50
 70
     1
102
RTVSPropertyOp51
 70
     0
102
RTVSPropertyOp52
 70
     0
102
RTVSPropertyOp53
 70
     1
102
RTVSPropertyOp54
 70
     1
102
RTVSPropertyOp55
 70
     1
102
RTVSPropertyOp56
 70
     1
102
RTVSPropertyOp57
 70
     1
102
RTVSPost2010Prop28
280
     0
102
RTVSPost2010PropOp28
 70
     1
102
RTVSPost2010Prop29
280
     1
102
RTVSPost2010PropOp29
 70
     1
102
RTVSPost2010Prop30
280
     1
102
RTVSPost2010PropOp30
 70
     1
102
RTVSPost2010Prop31
280
     0
102
RTVSPost2010PropOp31
 70
     1
102
RTVSPost2010Prop32
280
     0
102
RTVSPost2010PropOp32
 70
     1
102
RTVSPost2010Prop33
280
     0
102
RTVSPost2010PropOp33
 70
     1
102
RTVSPost2010Prop34
280
     0
102
RTVSPost2010PropOp34
 70
     1
102
RTVSPost2010Prop35
280
     0
102
RTVSPost2010PropOp35
 70
     1
102
RTVSPost2010Prop36
280
     0
102
RTVSPost2010PropOp36
 70
     1
102
RTVSPost2010Prop37
 90
       50
102
RTVSPost2010PropOp37
 70
     1
102
RTVSPost2010Prop38
140
0.0
102
RTVSPost2010PropOp38
 70
     1
102
RTVSPost2010Prop39
140
1.0
102
RTVSPost2010PropOp39
 70
     1
102
RTVSPost2010Prop40
 90
        0
102
RTVSPost2010PropOp40
 70
     1
102
RTVSPost2010Prop41ColorIndex
 90
       18
102
RTVSPost2010Prop41ColorRGB
 90
        0
102
RTVSPost2010PropOp41
 70
     1
102
RTVSPost2010Prop42
 90
       50
102
RTVSPost2010PropOp42
 70
     1
102
RTVSPost2010Prop43
 90
        3
102
RTVSPost2010PropOp43
 70
     1
102
RTVSPost2010Prop44ColorIndex
 90
        5
102
RTVSPost2010Prop44ColorRGB
 90
      255
102
RTVSPost2010PropOp44
 70
     1
102
RTVSPost2010Prop45
280
     0
102
RTVSPost2010PropOp45
 70
     1
102
RTVSPost2010Prop46
 90
       50
102
RTVSPost2010PropOp46
 70
     1
102
RTVSPost2010Prop47
 90
       50
102
RTVSPost2010PropOp47
 70
     1
102
RTVSPost2010Prop48
 90
       50
102
RTVSPost2010PropOp48
 70
     1
102
RTVSPost2010Prop49
280
     0
102
RTVSPost2010PropOp49
 70
     1
102
RTVSPost2010Prop50
 90
       50
102
RTVSPost2010PropOp50
 70
     1
102
RTVSPost2010Prop51ColorIndex
 90
      256
102
RTVSPost2010Prop51ColorRGB
 90
-16777216
102
RTVSPost2010PropOp51
 70
     0
102
RTVSPost2010Prop52
140
1.0
102
RTVSPost2010PropOp52
 70
     0
102
RTVSPost2010Prop53
 90
        2
102
RTVSPost2010PropOp53
 70
     1
102
RTVSPost2010Prop54
  1
strokes_ogs.tif
102
RTVSPost2010PropOp54
 70
     1
102
RTVSPost2010Prop55
280
     0
102
RTVSPost2010PropOp55
 70
     1
102
RTVSPost2010Prop56
140
1.0
102
RTVSPost2010PropOp56
 70
     1
102
RTVSPost2010Prop57
140
1.0
102
RTVSPost2010PropOp57
 70
     1
  0
XRECORD
  5
391
102
{ACAD_REACTORS
330
390
102
}
330
390
100
AcDbXrecord
280
     1
102
RTVSPropertyOp0
 70
     0
102
RTVSPropertyOp1
 70
     0
102
RTVSPropertyOp2
 70
     0
102
RTVSPropertyOp3
 70
     0
102
RTVSPropertyOp4
 70
     0
102
RTVSPropertyOp5
 70
     0
102
RTVSPropertyOp6
 70
     0
102
RTVSPropertyOp7
 70
     0
102
RTVSPropertyOp8
 70
     0
102
RTVSPropertyOp9
 70
     0
102
RTVSPropertyOp10
 70
     0
102
RTVSPropertyOp11
 70
     0
102
RTVSPropertyOp12
 70
     0
102
RTVSPropertyOp13
 70
     0
102
RTVSPropertyOp14
 70
     2
102
RTVSPropertyOp15
 70
     0
102
RTVSPropertyOp16
 70
     0
102
RTVSPropertyOp17
 70
     0
102
RTVSPropertyOp18
 70
     0
102
RTVSPropertyOp19
 70
     0
102
RTVSPropertyOp20
 70
     0
102
RTVSPropertyOp21
 70
     0
102
RTVSPropertyOp22
 70
     0
102
RTVSPropertyOp23
 70
     0
102
RTVSPropertyOp24
 70
     0
102
RTVSPropertyOp25
 70
     0
102
RTVSPropertyOp26
 70
     0
102
RTVSPropertyOp27
 70
     0
102
RTVSPropertyOp28
 70
     0
102
RTVSPropertyOp29
 70
     0
102
RTVSPropertyOp30
 70
     0
102
RTVSPropertyOp31
 70
     0
102
RTVSPropertyOp32
 70
     0
102
RTVSPropertyOp33
 70
     0
102
RTVSPropertyOp34
 70
     0
102
RTVSPropertyOp35
 70
     0
102
RTVSPropertyOp36
 70
     0
102
RTVSPropertyOp37
 70
     0
102
RTVSPropertyOp38
 70
     0
102
RTVSPropertyOp39
 70
     0
102
RTVSPropertyOp40
 70
     0
102
RTVSPropertyOp41
 70
     0
102
RTVSPropertyOp42
 70
     0
102
RTVSPropertyOp43
 70
     0
102
RTVSPropertyOp44
 70
     0
102
RTVSPropertyOp45
 70
     0
102
RTVSPropertyOp46
 70
     0
102
RTVSPropertyOp47
 70
     0
102
RTVSPropertyOp48
 70
     0
102
RTVSPropertyOp49
 70
     0
102
RTVSPropertyOp50
 70
     0
102
RTVSPropertyOp51
 70
     0
102
RTVSPropertyOp52
 70
     0
102
RTVSPropertyOp53
 70
     0
102
RTVSPropertyOp54
 70
     0
102
RTVSPropertyOp55
 70
     0
102
RTVSPropertyOp56
 70
     0
102
RTVSPropertyOp57
 70
     0
102
RTVSPost2010Prop28
280
     0
102
RTVSPost2010PropOp28
 70
     0
102
RTVSPost2010Prop29
280
     1
102
RTVSPost2010PropOp29
 70
     0
102
RTVSPost2010Prop30
280
     1
102
RTVSPost2010PropOp30
 70
     0
102
RTVSPost2010Prop31
280
     0
102
RTVSPost2010PropOp31
 70
     0
102
RTVSPost2010Prop32
280
     0
102
RTVSPost2010PropOp32
 70
     0
102
RTVSPost2010Prop33
280
     0
102
RTVSPost2010PropOp33
 70
     0
102
RTVSPost2010Prop34
280
     0
102
RTVSPost2010PropOp34
 70
     0
102
RTVSPost2010Prop35
280
     0
102
RTVSPost2010PropOp35
 70
     0
102
RTVSPost2010Prop36
280
     0
102
RTVSPost2010PropOp36
 70
     0
102
RTVSPost2010Prop37
 90
       50
102
RTVSPost2010PropOp37
 70
     0
102
RTVSPost2010Prop38
140
0.0
102
RTVSPost2010PropOp38
 70
     0
102
RTVSPost2010Prop39
140
1.0
102
RTVSPost2010PropOp39
 70
     0
102
RTVSPost2010Prop40
 90
        0
102
RTVSPost2010PropOp40
 70
     0
102
RTVSPost2010Prop41ColorIndex
 90
       18
102
RTVSPost2010Prop41ColorRGB
 90
        0
102
RTVSPost2010PropOp41
 70
     0
102
RTVSPost2010Prop42
 90
       50
102
RTVSPost2010PropOp42
 70
     0
102
RTVSPost2010Prop43
 90
        3
102
RTVSPost2010PropOp43
 70
     0
102
RTVSPost2010Prop44ColorIndex
 90
        5
102
RTVSPost2010Prop44ColorRGB
 90
      255
102
RTVSPost2010PropOp44
 70
     0
102
RTVSPost2010Prop45
280
     0
102
RTVSPost2010PropOp45
 70
     0
102
RTVSPost2010Prop46
 90
       50
102
RTVSPost2010PropOp46
 70
     0
102
RTVSPost2010Prop47
 90
       50
102
RTVSPost2010PropOp47
 70
     0
102
RTVSPost2010Prop48
 90
       50
102
RTVSPost2010PropOp48
 70
     0
102
RTVSPost2010Prop49
280
     0
102
RTVSPost2010PropOp49
 70
     0
102
RTVSPost2010Prop50
 90
       50
102
RTVSPost2010PropOp50
 70
     0
102
RTVSPost2010Prop51ColorIndex
 90
      256
102
RTVSPost2010Prop51ColorRGB
 90
-16777216
102
RTVSPost2010PropOp51
 70
     0
102
RTVSPost2010Prop52
140
1.0
102
RTVSPost2010PropOp52
 70
     0
102
RTVSPost2010Prop53
 90
        2
102
RTVSPost2010PropOp53
 70
     0
102
RTVSPost2010Prop54
  1
strokes_ogs.tif
102
RTVSPost2010PropOp54
 70
     0
102
RTVSPost2010Prop55
280
     0
102
RTVSPost2010PropOp55
 70
     0
102
RTVSPost2010Prop56
140
1.0
102
RTVSPost2010PropOp56
 70
     0
102
RTVSPost2010Prop57
140
1.0
102
RTVSPost2010PropOp57
 70
     0
  0
XRECORD
  5
389
102
{ACAD_REACTORS
330
388
102
}
330
388
100
AcDbXrecord
280
     1
102
RTVSPropertyOp0
 70
     1
102
RTVSPropertyOp1
 70
     1
102
RTVSPropertyOp2
 70
     1
102
RTVSPropertyOp3
 70
     1
102
RTVSPropertyOp4
 70
     1
102
RTVSPropertyOp5
 70
     1
102
RTVSPropertyOp6
 70
     1
102
RTVSPropertyOp7
 70
     1
102
RTVSPropertyOp8
 70
     1
102
RTVSPropertyOp9
 70
     1
102
RTVSPropertyOp10
 70
     1
102
RTVSPropertyOp11
 70
     1
102
RTVSPropertyOp12
 70
     1
102
RTVSPropertyOp13
 70
     1
102
RTVSPropertyOp14
 70
     1
102
RTVSPropertyOp15
 70
     1
102
RTVSPropertyOp16
 70
     1
102
RTVSPropertyOp17
 70
     1
102
RTVSPropertyOp18
 70
     1
102
RTVSPropertyOp19
 70
     1
102
RTVSPropertyOp20
 70
     1
102
RTVSPropertyOp21
 70
     1
102
RTVSPropertyOp22
 70
     1
102
RTVSPropertyOp23
 70
     1
102
RTVSPropertyOp24
 70
     1
102
RTVSPropertyOp25
 70
     1
102
RTVSPropertyOp26
 70
     1
102
RTVSPropertyOp27
 70
     1
102
RTVSPropertyOp28
 70
     1
102
RTVSPropertyOp29
 70
     1
102
RTVSPropertyOp30
 70
     1
102
RTVSPropertyOp31
 70
     1
102
RTVSPropertyOp32
 70
     1
102
RTVSPropertyOp33
 70
     1
102
RTVSPropertyOp34
 70
     1
102
RTVSPropertyOp35
 70
     1
102
RTVSPropertyOp36
 70
     1
102
RTVSPropertyOp37
 70
     1
102
RTVSPropertyOp38
 70
     1
102
RTVSPropertyOp39
 70
     1
102
RTVSPropertyOp40
 70
     1
102
RTVSPropertyOp41
 70
     1
102
RTVSPropertyOp42
 70
     1
102
RTVSPropertyOp43
 70
     1
102
RTVSPropertyOp44
 70
     1
102
RTVSPropertyOp45
 70
     1
102
RTVSPropertyOp46
 70
     1
102
RTVSPropertyOp47
 70
     1
102
RTVSPropertyOp48
 70
     1
102
RTVSPropertyOp49
 70
     1
102
RTVSPropertyOp50
 70
     1
102
RTVSPropertyOp51
 70
     0
102
RTVSPropertyOp52
 70
     0
102
RTVSPropertyOp53
 70
     1
102
RTVSPropertyOp54
 70
     1
102
RTVSPropertyOp55
 70
     1
102
RTVSPropertyOp56
 70
     1
102
RTVSPropertyOp57
 70
     1
102
RTVSPost2010Prop28
280
     0
102
RTVSPost2010PropOp28
 70
     1
102
RTVSPost2010Prop29
280
     1
102
RTVSPost2010PropOp29
 70
     1
102
RTVSPost2010Prop30
280
     1
102
RTVSPost2010PropOp30
 70
     1
102
RTVSPost2010Prop31
280
     0
102
RTVSPost2010PropOp31
 70
     1
102
RTVSPost2010Prop32
280
     0
102
RTVSPost2010PropOp32
 70
     1
102
RTVSPost2010Prop33
280
     0
102
RTVSPost2010PropOp33
 70
     1
102
RTVSPost2010Prop34
280
     0
102
RTVSPost2010PropOp34
 70
     1
102
RTVSPost2010Prop35
280
     0
102
RTVSPost2010PropOp35
 70
     1
102
RTVSPost2010Prop36
280
     0
102
RTVSPost2010PropOp36
 70
     1
102
RTVSPost2010Prop37
 90
       50
102
RTVSPost2010PropOp37
 70
     1
102
RTVSPost2010Prop38
140
0.0
102
RTVSPost2010PropOp38
 70
     1
102
RTVSPost2010Prop39
140
1.0
102
RTVSPost2010PropOp39
 70
     1
102
RTVSPost2010Prop40
 90
        0
102
RTVSPost2010PropOp40
 70
     1
102
RTVSPost2010Prop41ColorIndex
 90
       18
102
RTVSPost2010Prop41ColorRGB
 90
        0
102
RTVSPost2010PropOp41
 70
     1
102
RTVSPost2010Prop42
 90
       50
102
RTVSPost2010PropOp42
 70
     1
102
RTVSPost2010Prop43
 90
        3
102
RTVSPost2010PropOp43
 70
     1
102
RTVSPost2010Prop44ColorIndex
 90
        5
102
RTVSPost2010Prop44ColorRGB
 90
      255
102
RTVSPost2010PropOp44
 70
     1
102
RTVSPost2010Prop45
280
     0
102
RTVSPost2010PropOp45
 70
     1
102
RTVSPost2010Prop46
 90
       50
102
RTVSPost2010PropOp46
 70
     1
102
RTVSPost2010Prop47
 90
       50
102
RTVSPost2010PropOp47
 70
     1
102
RTVSPost2010Prop48
 90
       50
102
RTVSPost2010PropOp48
 70
     1
102
RTVSPost2010Prop49
280
     0
102
RTVSPost2010PropOp49
 70
     1
102
RTVSPost2010Prop50
 90
       50
102
RTVSPost2010PropOp50
 70
     1
102
RTVSPost2010Prop51ColorIndex
 90
      256
102
RTVSPost2010Prop51ColorRGB
 90
-16777216
102
RTVSPost2010PropOp51
 70
     0
102
RTVSPost2010Prop52
140
1.0
102
RTVSPost2010PropOp52
 70
     0
102
RTVSPost2010Prop53
 90
        2
102
RTVSPost2010PropOp53
 70
     1
102
RTVSPost2010Prop54
  1
strokes_ogs.tif
102
RTVSPost2010PropOp54
 70
     1
102
RTVSPost2010Prop55
280
     0
102
RTVSPost2010PropOp55
 70
     1
102
RTVSPost2010Prop56
140
1.0
102
RTVSPost2010PropOp56
 70
     1
102
RTVSPost2010Prop57
140
1.0
102
RTVSPost2010PropOp57
 70
     1
  0
XRECORD
  5
36D
102
{ACAD_REACTORS
330
36C
102
}
330
36C
100
AcDbXrecord
280
     1
102
RTVSPropertyOp0
 70
     1
102
RTVSPropertyOp1
 70
     1
102
RTVSPropertyOp2
 70
     1
102
RTVSPropertyOp3
 70
     1
102
RTVSPropertyOp4
 70
     1
102
RTVSPropertyOp5
 70
     1
102
RTVSPropertyOp6
 70
     1
102
RTVSPropertyOp7
 70
     1
102
RTVSPropertyOp8
 70
     1
102
RTVSPropertyOp9
 70
     1
102
RTVSPropertyOp10
 70
     1
102
RTVSPropertyOp11
 70
     1
102
RTVSPropertyOp12
 70
     1
102
RTVSPropertyOp13
 70
     1
102
RTVSPropertyOp14
 70
     1
102
RTVSPropertyOp15
 70
     1
102
RTVSPropertyOp16
 70
     1
102
RTVSPropertyOp17
 70
     1
102
RTVSPropertyOp18
 70
     1
102
RTVSPropertyOp19
 70
     1
102
RTVSPropertyOp20
 70
     1
102
RTVSPropertyOp21
 70
     1
102
RTVSPropertyOp22
 70
     1
102
RTVSPropertyOp23
 70
     1
102
RTVSPropertyOp24
 70
     1
102
RTVSPropertyOp25
 70
     1
102
RTVSPropertyOp26
 70
     1
102
RTVSPropertyOp27
 70
     1
102
RTVSPropertyOp28
 70
     1
102
RTVSPropertyOp29
 70
     1
102
RTVSPropertyOp30
 70
     1
102
RTVSPropertyOp31
 70
     1
102
RTVSPropertyOp32
 70
     1
102
RTVSPropertyOp33
 70
     1
102
RTVSPropertyOp34
 70
     1
102
RTVSPropertyOp35
 70
     1
102
RTVSPropertyOp36
 70
     1
102
RTVSPropertyOp37
 70
     1
102
RTVSPropertyOp38
 70
     1
102
RTVSPropertyOp39
 70
     1
102
RTVSPropertyOp40
 70
     1
102
RTVSPropertyOp41
 70
     1
102
RTVSPropertyOp42
 70
     1
102
RTVSPropertyOp43
 70
     1
102
RTVSPropertyOp44
 70
     1
102
RTVSPropertyOp45
 70
     1
102
RTVSPropertyOp46
 70
     1
102
RTVSPropertyOp47
 70
     1
102
RTVSPropertyOp48
 70
     1
102
RTVSPropertyOp49
 70
     1
102
RTVSPropertyOp50
 70
     1
102
RTVSPropertyOp51
 70
     0
102
RTVSPropertyOp52
 70
     0
102
RTVSPropertyOp53
 70
     1
102
RTVSPropertyOp54
 70
     1
102
RTVSPropertyOp55
 70
     1
102
RTVSPropertyOp56
 70
     1
102
RTVSPropertyOp57
 70
     1
102
RTVSPost2010Prop28
280
     0
102
RTVSPost2010PropOp28
 70
     1
102
RTVSPost2010Prop29
280
     1
102
RTVSPost2010PropOp29
 70
     1
102
RTVSPost2010Prop30
280
     1
102
RTVSPost2010PropOp30
 70
     1
102
RTVSPost2010Prop31
280
     0
102
RTVSPost2010PropOp31
 70
     1
102
RTVSPost2010Prop32
280
     0
102
RTVSPost2010PropOp32
 70
     1
102
RTVSPost2010Prop33
280
     0
102
RTVSPost2010PropOp33
 70
     1
102
RTVSPost2010Prop34
280
     0
102
RTVSPost2010PropOp34
 70
     1
102
RTVSPost2010Prop35
280
     0
102
RTVSPost2010PropOp35
 70
     1
102
RTVSPost2010Prop36
280
     0
102
RTVSPost2010PropOp36
 70
     1
102
RTVSPost2010Prop37
 90
       50
102
RTVSPost2010PropOp37
 70
     1
102
RTVSPost2010Prop38
140
0.0
102
RTVSPost2010PropOp38
 70
     1
102
RTVSPost2010Prop39
140
1.0
102
RTVSPost2010PropOp39
 70
     1
102
RTVSPost2010Prop40
 90
        0
102
RTVSPost2010PropOp40
 70
     1
102
RTVSPost2010Prop41ColorIndex
 90
       18
102
RTVSPost2010Prop41ColorRGB
 90
        0
102
RTVSPost2010PropOp41
 70
     1
102
RTVSPost2010Prop42
 90
       50
102
RTVSPost2010PropOp42
 70
     1
102
RTVSPost2010Prop43
 90
        3
102
RTVSPost2010PropOp43
 70
     1
102
RTVSPost2010Prop44ColorIndex
 90
        5
102
RTVSPost2010Prop44ColorRGB
 90
      255
102
RTVSPost2010PropOp44
 70
     1
102
RTVSPost2010Prop45
280
     0
102
RTVSPost2010PropOp45
 70
     1
102
RTVSPost2010Prop46
 90
       50
102
RTVSPost2010PropOp46
 70
     1
102
RTVSPost2010Prop47
 90
       50
102
RTVSPost2010PropOp47
 70
     1
102
RTVSPost2010Prop48
 90
       50
102
RTVSPost2010PropOp48
 70
     1
102
RTVSPost2010Prop49
280
     0
102
RTVSPost2010PropOp49
 70
     1
102
RTVSPost2010Prop50
 90
       50
102
RTVSPost2010PropOp50
 70
     1
102
RTVSPost2010Prop51ColorIndex
 90
      256
102
RTVSPost2010Prop51ColorRGB
 90
-16777216
102
RTVSPost2010PropOp51
 70
     0
102
RTVSPost2010Prop52
140
1.0
102
RTVSPost2010PropOp52
 70
     0
102
RTVSPost2010Prop53
 90
        2
102
RTVSPost2010PropOp53
 70
     1
102
RTVSPost2010Prop54
  1
strokes_ogs.tif
102
RTVSPost2010PropOp54
 70
     1
102
RTVSPost2010Prop55
280
     0
102
RTVSPost2010PropOp55
 70
     1
102
RTVSPost2010Prop56
140
1.0
102
RTVSPost2010PropOp56
 70
     1
102
RTVSPost2010Prop57
140
1.0
102
RTVSPost2010PropOp57
 70
     1
  0
XRECORD
  5
36F
102
{ACAD_REACTORS
330
36E
102
}
330
36E
100
AcDbXrecord
280
     1
102
RTVSPropertyOp0
 70
     1
102
RTVSPropertyOp1
 70
     1
102
RTVSPropertyOp2
 70
     1
102
RTVSPropertyOp3
 70
     1
102
RTVSPropertyOp4
 70
     1
102
RTVSPropertyOp5
 70
     1
102
RTVSPropertyOp6
 70
     1
102
RTVSPropertyOp7
 70
     1
102
RTVSPropertyOp8
 70
     1
102
RTVSPropertyOp9
 70
     1
102
RTVSPropertyOp10
 70
     1
102
RTVSPropertyOp11
 70
     1
102
RTVSPropertyOp12
 70
     1
102
RTVSPropertyOp13
 70
     1
102
RTVSPropertyOp14
 70
     1
102
RTVSPropertyOp15
 70
     1
102
RTVSPropertyOp16
 70
     1
102
RTVSPropertyOp17
 70
     1
102
RTVSPropertyOp18
 70
     1
102
RTVSPropertyOp19
 70
     1
102
RTVSPropertyOp20
 70
     1
102
RTVSPropertyOp21
 70
     1
102
RTVSPropertyOp22
 70
     1
102
RTVSPropertyOp23
 70
     1
102
RTVSPropertyOp24
 70
     1
102
RTVSPropertyOp25
 70
     1
102
RTVSPropertyOp26
 70
     1
102
RTVSPropertyOp27
 70
     1
102
RTVSPropertyOp28
 70
     1
102
RTVSPropertyOp29
 70
     1
102
RTVSPropertyOp30
 70
     1
102
RTVSPropertyOp31
 70
     1
102
RTVSPropertyOp32
 70
     1
102
RTVSPropertyOp33
 70
     1
102
RTVSPropertyOp34
 70
     1
102
RTVSPropertyOp35
 70
     1
102
RTVSPropertyOp36
 70
     1
102
RTVSPropertyOp37
 70
     1
102
RTVSPropertyOp38
 70
     1
102
RTVSPropertyOp39
 70
     1
102
RTVSPropertyOp40
 70
     1
102
RTVSPropertyOp41
 70
     1
102
RTVSPropertyOp42
 70
     1
102
RTVSPropertyOp43
 70
     1
102
RTVSPropertyOp44
 70
     1
102
RTVSPropertyOp45
 70
     1
102
RTVSPropertyOp46
 70
     1
102
RTVSPropertyOp47
 70
     1
102
RTVSPropertyOp48
 70
     1
102
RTVSPropertyOp49
 70
     1
102
RTVSPropertyOp50
 70
     1
102
RTVSPropertyOp51
 70
     0
102
RTVSPropertyOp52
 70
     0
102
RTVSPropertyOp53
 70
     1
102
RTVSPropertyOp54
 70
     1
102
RTVSPropertyOp55
 70
     1
102
RTVSPropertyOp56
 70
     1
102
RTVSPropertyOp57
 70
     1
102
RTVSPost2010Prop28
280
     0
102
RTVSPost2010PropOp28
 70
     1
102
RTVSPost2010Prop29
280
     1
102
RTVSPost2010PropOp29
 70
     1
102
RTVSPost2010Prop30
280
     1
102
RTVSPost2010PropOp30
 70
     1
102
RTVSPost2010Prop31
280
     0
102
RTVSPost2010PropOp31
 70
     1
102
RTVSPost2010Prop32
280
     0
102
RTVSPost2010PropOp32
 70
     1
102
RTVSPost2010Prop33
280
     0
102
RTVSPost2010PropOp33
 70
     1
102
RTVSPost2010Prop34
280
     0
102
RTVSPost2010PropOp34
 70
     1
102
RTVSPost2010Prop35
280
     0
102
RTVSPost2010PropOp35
 70
     1
102
RTVSPost2010Prop36
280
     0
102
RTVSPost2010PropOp36
 70
     1
102
RTVSPost2010Prop37
 90
       50
102
RTVSPost2010PropOp37
 70
     1
102
RTVSPost2010Prop38
140
0.0
102
RTVSPost2010PropOp38
 70
     1
102
RTVSPost2010Prop39
140
1.0
102
RTVSPost2010PropOp39
 70
     1
102
RTVSPost2010Prop40
 90
        0
102
RTVSPost2010PropOp40
 70
     1
102
RTVSPost2010Prop41ColorIndex
 90
       18
102
RTVSPost2010Prop41ColorRGB
 90
        0
102
RTVSPost2010PropOp41
 70
     1
102
RTVSPost2010Prop42
 90
       50
102
RTVSPost2010PropOp42
 70
     1
102
RTVSPost2010Prop43
 90
        3
102
RTVSPost2010PropOp43
 70
     1
102
RTVSPost2010Prop44ColorIndex
 90
        5
102
RTVSPost2010Prop44ColorRGB
 90
      255
102
RTVSPost2010PropOp44
 70
     1
102
RTVSPost2010Prop45
280
     0
102
RTVSPost2010PropOp45
 70
     1
102
RTVSPost2010Prop46
 90
       50
102
RTVSPost2010PropOp46
 70
     1
102
RTVSPost2010Prop47
 90
       50
102
RTVSPost2010PropOp47
 70
     1
102
RTVSPost2010Prop48
 90
       50
102
RTVSPost2010PropOp48
 70
     1
102
RTVSPost2010Prop49
280
     0
102
RTVSPost2010PropOp49
 70
     1
102
RTVSPost2010Prop50
 90
       50
102
RTVSPost2010PropOp50
 70
     1
102
RTVSPost2010Prop51ColorIndex
 90
      256
102
RTVSPost2010Prop51ColorRGB
 90
-16777216
102
RTVSPost2010PropOp51
 70
     0
102
RTVSPost2010Prop52
140
1.0
102
RTVSPost2010PropOp52
 70
     0
102
RTVSPost2010Prop53
 90
        2
102
RTVSPost2010PropOp53
 70
     1
102
RTVSPost2010Prop54
  1
strokes_ogs.tif
102
RTVSPost2010PropOp54
 70
     1
102
RTVSPost2010Prop55
280
     0
102
RTVSPost2010PropOp55
 70
     1
102
RTVSPost2010Prop56
140
1.0
102
RTVSPost2010PropOp56
 70
     1
102
RTVSPost2010Prop57
140
1.0
102
RTVSPost2010PropOp57
 70
     1
  0
XRECORD
  5
371
102
{ACAD_REACTORS
330
370
102
}
330
370
100
AcDbXrecord
280
     1
102
RTVSPropertyOp0
 70
     1
102
RTVSPropertyOp1
 70
     1
102
RTVSPropertyOp2
 70
     1
102
RTVSPropertyOp3
 70
     1
102
RTVSPropertyOp4
 70
     1
102
RTVSPropertyOp5
 70
     1
102
RTVSPropertyOp6
 70
     1
102
RTVSPropertyOp7
 70
     1
102
RTVSPropertyOp8
 70
     1
102
RTVSPropertyOp9
 70
     1
102
RTVSPropertyOp10
 70
     1
102
RTVSPropertyOp11
 70
     1
102
RTVSPropertyOp12
 70
     1
102
RTVSPropertyOp13
 70
     1
102
RTVSPropertyOp14
 70
     1
102
RTVSPropertyOp15
 70
     1
102
RTVSPropertyOp16
 70
     1
102
RTVSPropertyOp17
 70
     1
102
RTVSPropertyOp18
 70
     1
102
RTVSPropertyOp19
 70
     1
102
RTVSPropertyOp20
 70
     1
102
RTVSPropertyOp21
 70
     1
102
RTVSPropertyOp22
 70
     1
102
RTVSPropertyOp23
 70
     1
102
RTVSPropertyOp24
 70
     1
102
RTVSPropertyOp25
 70
     1
102
RTVSPropertyOp26
 70
     1
102
RTVSPropertyOp27
 70
     1
102
RTVSPropertyOp28
 70
     1
102
RTVSPropertyOp29
 70
     1
102
RTVSPropertyOp30
 70
     1
102
RTVSPropertyOp31
 70
     1
102
RTVSPropertyOp32
 70
     1
102
RTVSPropertyOp33
 70
     1
102
RTVSPropertyOp34
 70
     1
102
RTVSPropertyOp35
 70
     1
102
RTVSPropertyOp36
 70
     1
102
RTVSPropertyOp37
 70
     1
102
RTVSPropertyOp38
 70
     1
102
RTVSPropertyOp39
 70
     1
102
RTVSPropertyOp40
 70
     1
102
RTVSPropertyOp41
 70
     1
102
RTVSPropertyOp42
 70
     1
102
RTVSPropertyOp43
 70
     1
102
RTVSPropertyOp44
 70
     1
102
RTVSPropertyOp45
 70
     1
102
RTVSPropertyOp46
 70
     1
102
RTVSPropertyOp47
 70
     1
102
RTVSPropertyOp48
 70
     1
102
RTVSPropertyOp49
 70
     1
102
RTVSPropertyOp50
 70
     1
102
RTVSPropertyOp51
 70
     0
102
RTVSPropertyOp52
 70
     0
102
RTVSPropertyOp53
 70
     1
102
RTVSPropertyOp54
 70
     1
102
RTVSPropertyOp55
 70
     1
102
RTVSPropertyOp56
 70
     1
102
RTVSPropertyOp57
 70
     1
102
RTVSPost2010Prop28
280
     0
102
RTVSPost2010PropOp28
 70
     1
102
RTVSPost2010Prop29
280
     1
102
RTVSPost2010PropOp29
 70
     1
102
RTVSPost2010Prop30
280
     1
102
RTVSPost2010PropOp30
 70
     1
102
RTVSPost2010Prop31
280
     0
102
RTVSPost2010PropOp31
 70
     1
102
RTVSPost2010Prop32
280
     0
102
RTVSPost2010PropOp32
 70
     1
102
RTVSPost2010Prop33
280
     0
102
RTVSPost2010PropOp33
 70
     1
102
RTVSPost2010Prop34
280
     0
102
RTVSPost2010PropOp34
 70
     1
102
RTVSPost2010Prop35
280
     0
102
RTVSPost2010PropOp35
 70
     1
102
RTVSPost2010Prop36
280
     0
102
RTVSPost2010PropOp36
 70
     1
102
RTVSPost2010Prop37
 90
       50
102
RTVSPost2010PropOp37
 70
     1
102
RTVSPost2010Prop38
140
0.0
102
RTVSPost2010PropOp38
 70
     1
102
RTVSPost2010Prop39
140
1.0
102
RTVSPost2010PropOp39
 70
     1
102
RTVSPost2010Prop40
 90
        0
102
RTVSPost2010PropOp40
 70
     1
102
RTVSPost2010Prop41ColorIndex
 90
       18
102
RTVSPost2010Prop41ColorRGB
 90
        0
102
RTVSPost2010PropOp41
 70
     1
102
RTVSPost2010Prop42
 90
       50
102
RTVSPost2010PropOp42
 70
     1
102
RTVSPost2010Prop43
 90
        3
102
RTVSPost2010PropOp43
 70
     1
102
RTVSPost2010Prop44ColorIndex
 90
        5
102
RTVSPost2010Prop44ColorRGB
 90
      255
102
RTVSPost2010PropOp44
 70
     1
102
RTVSPost2010Prop45
280
     0
102
RTVSPost2010PropOp45
 70
     1
102
RTVSPost2010Prop46
 90
       50
102
RTVSPost2010PropOp46
 70
     1
102
RTVSPost2010Prop47
 90
       50
102
RTVSPost2010PropOp47
 70
     1
102
RTVSPost2010Prop48
 90
       50
102
RTVSPost2010PropOp48
 70
     1
102
RTVSPost2010Prop49
280
     0
102
RTVSPost2010PropOp49
 70
     1
102
RTVSPost2010Prop50
 90
       50
102
RTVSPost2010PropOp50
 70
     1
102
RTVSPost2010Prop51ColorIndex
 90
      256
102
RTVSPost2010Prop51ColorRGB
 90
-16777216
102
RTVSPost2010PropOp51
 70
     0
102
RTVSPost2010Prop52
140
1.0
102
RTVSPost2010PropOp52
 70
     0
102
RTVSPost2010Prop53
 90
        2
102
RTVSPost2010PropOp53
 70
     1
102
RTVSPost2010Prop54
  1
strokes_ogs.tif
102
RTVSPost2010PropOp54
 70
     1
102
RTVSPost2010Prop55
280
     0
102
RTVSPost2010PropOp55
 70
     1
102
RTVSPost2010Prop56
140
1.0
102
RTVSPost2010PropOp56
 70
     1
102
RTVSPost2010Prop57
140
1.0
102
RTVSPost2010PropOp57
 70
     1
  0
XRECORD
  5
373
102
{ACAD_REACTORS
330
372
102
}
330
372
100
AcDbXrecord
280
     1
102
RTVSPropertyOp0
 70
     1
102
RTVSPropertyOp1
 70
     1
102
RTVSPropertyOp2
 70
     1
102
RTVSPropertyOp3
 70
     1
102
RTVSPropertyOp4
 70
     1
102
RTVSPropertyOp5
 70
     1
102
RTVSPropertyOp6
 70
     1
102
RTVSPropertyOp7
 70
     1
102
RTVSPropertyOp8
 70
     1
102
RTVSPropertyOp9
 70
     1
102
RTVSPropertyOp10
 70
     1
102
RTVSPropertyOp11
 70
     1
102
RTVSPropertyOp12
 70
     1
102
RTVSPropertyOp13
 70
     1
102
RTVSPropertyOp14
 70
     1
102
RTVSPropertyOp15
 70
     1
102
RTVSPropertyOp16
 70
     1
102
RTVSPropertyOp17
 70
     1
102
RTVSPropertyOp18
 70
     1
102
RTVSPropertyOp19
 70
     1
102
RTVSPropertyOp20
 70
     1
102
RTVSPropertyOp21
 70
     1
102
RTVSPropertyOp22
 70
     1
102
RTVSPropertyOp23
 70
     1
102
RTVSPropertyOp24
 70
     1
102
RTVSPropertyOp25
 70
     1
102
RTVSPropertyOp26
 70
     1
102
RTVSPropertyOp27
 70
     1
102
RTVSPropertyOp28
 70
     1
102
RTVSPropertyOp29
 70
     1
102
RTVSPropertyOp30
 70
     1
102
RTVSPropertyOp31
 70
     1
102
RTVSPropertyOp32
 70
     1
102
RTVSPropertyOp33
 70
     1
102
RTVSPropertyOp34
 70
     1
102
RTVSPropertyOp35
 70
     1
102
RTVSPropertyOp36
 70
     1
102
RTVSPropertyOp37
 70
     1
102
RTVSPropertyOp38
 70
     1
102
RTVSPropertyOp39
 70
     1
102
RTVSPropertyOp40
 70
     1
102
RTVSPropertyOp41
 70
     1
102
RTVSPropertyOp42
 70
     1
102
RTVSPropertyOp43
 70
     1
102
RTVSPropertyOp44
 70
     1
102
RTVSPropertyOp45
 70
     1
102
RTVSPropertyOp46
 70
     1
102
RTVSPropertyOp47
 70
     1
102
RTVSPropertyOp48
 70
     1
102
RTVSPropertyOp49
 70
     1
102
RTVSPropertyOp50
 70
     1
102
RTVSPropertyOp51
 70
     0
102
RTVSPropertyOp52
 70
     0
102
RTVSPropertyOp53
 70
     1
102
RTVSPropertyOp54
 70
     1
102
RTVSPropertyOp55
 70
     1
102
RTVSPropertyOp56
 70
     1
102
RTVSPropertyOp57
 70
     1
102
RTVSPost2010Prop28
280
     0
102
RTVSPost2010PropOp28
 70
     1
102
RTVSPost2010Prop29
280
     1
102
RTVSPost2010PropOp29
 70
     1
102
RTVSPost2010Prop30
280
     1
102
RTVSPost2010PropOp30
 70
     1
102
RTVSPost2010Prop31
280
     0
102
RTVSPost2010PropOp31
 70
     1
102
RTVSPost2010Prop32
280
     0
102
RTVSPost2010PropOp32
 70
     1
102
RTVSPost2010Prop33
280
     0
102
RTVSPost2010PropOp33
 70
     1
102
RTVSPost2010Prop34
280
     0
102
RTVSPost2010PropOp34
 70
     1
102
RTVSPost2010Prop35
280
     0
102
RTVSPost2010PropOp35
 70
     1
102
RTVSPost2010Prop36
280
     0
102
RTVSPost2010PropOp36
 70
     1
102
RTVSPost2010Prop37
 90
       50
102
RTVSPost2010PropOp37
 70
     1
102
RTVSPost2010Prop38
140
0.0
102
RTVSPost2010PropOp38
 70
     1
102
RTVSPost2010Prop39
140
1.0
102
RTVSPost2010PropOp39
 70
     1
102
RTVSPost2010Prop40
 90
        0
102
RTVSPost2010PropOp40
 70
     1
102
RTVSPost2010Prop41ColorIndex
 90
       18
102
RTVSPost2010Prop41ColorRGB
 90
        0
102
RTVSPost2010PropOp41
 70
     1
102
RTVSPost2010Prop42
 90
       50
102
RTVSPost2010PropOp42
 70
     1
102
RTVSPost2010Prop43
 90
        3
102
RTVSPost2010PropOp43
 70
     1
102
RTVSPost2010Prop44ColorIndex
 90
        5
102
RTVSPost2010Prop44ColorRGB
 90
      255
102
RTVSPost2010PropOp44
 70
     1
102
RTVSPost2010Prop45
280
     0
102
RTVSPost2010PropOp45
 70
     1
102
RTVSPost2010Prop46
 90
       50
102
RTVSPost2010PropOp46
 70
     1
102
RTVSPost2010Prop47
 90
       50
102
RTVSPost2010PropOp47
 70
     1
102
RTVSPost2010Prop48
 90
       50
102
RTVSPost2010PropOp48
 70
     1
102
RTVSPost2010Prop49
280
     0
102
RTVSPost2010PropOp49
 70
     1
102
RTVSPost2010Prop50
 90
       50
102
RTVSPost2010PropOp50
 70
     1
102
RTVSPost2010Prop51ColorIndex
 90
      256
102
RTVSPost2010Prop51ColorRGB
 90
-16777216
102
RTVSPost2010PropOp51
 70
     0
102
RTVSPost2010Prop52
140
1.0
102
RTVSPost2010PropOp52
 70
     0
102
RTVSPost2010Prop53
 90
        2
102
RTVSPost2010PropOp53
 70
     1
102
RTVSPost2010Prop54
  1
strokes_ogs.tif
102
RTVSPost2010PropOp54
 70
     1
102
RTVSPost2010Prop55
280
     0
102
RTVSPost2010PropOp55
 70
     1
102
RTVSPost2010Prop56
140
1.0
102
RTVSPost2010PropOp56
 70
     1
102
RTVSPost2010Prop57
140
1.0
102
RTVSPost2010PropOp57
 70
     1
  0
XRECORD
  5
379
102
{ACAD_REACTORS
330
378
102
}
330
378
100
AcDbXrecord
280
     1
102
RTVSPropertyOp0
 70
     1
102
RTVSPropertyOp1
 70
     1
102
RTVSPropertyOp2
 70
     1
102
RTVSPropertyOp3
 70
     1
102
RTVSPropertyOp4
 70
     1
102
RTVSPropertyOp5
 70
     1
102
RTVSPropertyOp6
 70
     1
102
RTVSPropertyOp7
 70
     1
102
RTVSPropertyOp8
 70
     1
102
RTVSPropertyOp9
 70
     1
102
RTVSPropertyOp10
 70
     1
102
RTVSPropertyOp11
 70
     1
102
RTVSPropertyOp12
 70
     1
102
RTVSPropertyOp13
 70
     1
102
RTVSPropertyOp14
 70
     1
102
RTVSPropertyOp15
 70
     1
102
RTVSPropertyOp16
 70
     1
102
RTVSPropertyOp17
 70
     1
102
RTVSPropertyOp18
 70
     1
102
RTVSPropertyOp19
 70
     1
102
RTVSPropertyOp20
 70
     1
102
RTVSPropertyOp21
 70
     1
102
RTVSPropertyOp22
 70
     1
102
RTVSPropertyOp23
 70
     1
102
RTVSPropertyOp24
 70
     1
102
RTVSPropertyOp25
 70
     1
102
RTVSPropertyOp26
 70
     1
102
RTVSPropertyOp27
 70
     1
102
RTVSPropertyOp28
 70
     1
102
RTVSPropertyOp29
 70
     1
102
RTVSPropertyOp30
 70
     1
102
RTVSPropertyOp31
 70
     1
102
RTVSPropertyOp32
 70
     1
102
RTVSPropertyOp33
 70
     1
102
RTVSPropertyOp34
 70
     1
102
RTVSPropertyOp35
 70
     1
102
RTVSPropertyOp36
 70
     1
102
RTVSPropertyOp37
 70
     1
102
RTVSPropertyOp38
 70
     1
102
RTVSPropertyOp39
 70
     1
102
RTVSPropertyOp40
 70
     1
102
RTVSPropertyOp41
 70
     1
102
RTVSPropertyOp42
 70
     1
102
RTVSPropertyOp43
 70
     1
102
RTVSPropertyOp44
 70
     1
102
RTVSPropertyOp45
 70
     1
102
RTVSPropertyOp46
 70
     1
102
RTVSPropertyOp47
 70
     1
102
RTVSPropertyOp48
 70
     1
102
RTVSPropertyOp49
 70
     1
102
RTVSPropertyOp50
 70
     1
102
RTVSPropertyOp51
 70
     0
102
RTVSPropertyOp52
 70
     0
102
RTVSPropertyOp53
 70
     1
102
RTVSPropertyOp54
 70
     1
102
RTVSPropertyOp55
 70
     1
102
RTVSPropertyOp56
 70
     1
102
RTVSPropertyOp57
 70
     1
102
RTVSPost2010Prop28
280
     0
102
RTVSPost2010PropOp28
 70
     1
102
RTVSPost2010Prop29
280
     1
102
RTVSPost2010PropOp29
 70
     1
102
RTVSPost2010Prop30
280
     1
102
RTVSPost2010PropOp30
 70
     1
102
RTVSPost2010Prop31
280
     0
102
RTVSPost2010PropOp31
 70
     1
102
RTVSPost2010Prop32
280
     0
102
RTVSPost2010PropOp32
 70
     1
102
RTVSPost2010Prop33
280
     0
102
RTVSPost2010PropOp33
 70
     1
102
RTVSPost2010Prop34
280
     0
102
RTVSPost2010PropOp34
 70
     1
102
RTVSPost2010Prop35
280
     0
102
RTVSPost2010PropOp35
 70
     1
102
RTVSPost2010Prop36
280
     0
102
RTVSPost2010PropOp36
 70
     1
102
RTVSPost2010Prop37
 90
       50
102
RTVSPost2010PropOp37
 70
     1
102
RTVSPost2010Prop38
140
0.0
102
RTVSPost2010PropOp38
 70
     1
102
RTVSPost2010Prop39
140
1.0
102
RTVSPost2010PropOp39
 70
     1
102
RTVSPost2010Prop40
 90
        0
102
RTVSPost2010PropOp40
 70
     1
102
RTVSPost2010Prop41ColorIndex
 90
       18
102
RTVSPost2010Prop41ColorRGB
 90
        0
102
RTVSPost2010PropOp41
 70
     1
102
RTVSPost2010Prop42
 90
       50
102
RTVSPost2010PropOp42
 70
     1
102
RTVSPost2010Prop43
 90
        3
102
RTVSPost2010PropOp43
 70
     1
102
RTVSPost2010Prop44ColorIndex
 90
        5
102
RTVSPost2010Prop44ColorRGB
 90
      255
102
RTVSPost2010PropOp44
 70
     1
102
RTVSPost2010Prop45
280
     0
102
RTVSPost2010PropOp45
 70
     1
102
RTVSPost2010Prop46
 90
       50
102
RTVSPost2010PropOp46
 70
     1
102
RTVSPost2010Prop47
 90
       50
102
RTVSPost2010PropOp47
 70
     1
102
RTVSPost2010Prop48
 90
       50
102
RTVSPost2010PropOp48
 70
     1
102
RTVSPost2010Prop49
280
     0
102
RTVSPost2010PropOp49
 70
     1
102
RTVSPost2010Prop50
 90
       50
102
RTVSPost2010PropOp50
 70
     1
102
RTVSPost2010Prop51ColorIndex
 90
      256
102
RTVSPost2010Prop51ColorRGB
 90
-16777216
102
RTVSPost2010PropOp51
 70
     0
102
RTVSPost2010Prop52
140
1.0
102
RTVSPost2010PropOp52
 70
     0
102
RTVSPost2010Prop53
 90
        2
102
RTVSPost2010PropOp53
 70
     1
102
RTVSPost2010Prop54
  1
strokes_ogs.tif
102
RTVSPost2010PropOp54
 70
     1
102
RTVSPost2010Prop55
280
     0
102
RTVSPost2010PropOp55
 70
     1
102
RTVSPost2010Prop56
140
1.0
102
RTVSPost2010PropOp56
 70
     1
102
RTVSPost2010Prop57
140
1.0
102
RTVSPost2010PropOp57
 70
     1
  0
XRECORD
  5
38D
102
{ACAD_REACTORS
330
38C
102
}
330
38C
100
AcDbXrecord
280
     1
102
RTVSPropertyOp0
 70
     0
102
RTVSPropertyOp1
 70
     0
102
RTVSPropertyOp2
 70
     0
102
RTVSPropertyOp3
 70
     0
102
RTVSPropertyOp4
 70
     0
102
RTVSPropertyOp5
 70
     0
102
RTVSPropertyOp6
 70
     0
102
RTVSPropertyOp7
 70
     0
102
RTVSPropertyOp8
 70
     0
102
RTVSPropertyOp9
 70
     0
102
RTVSPropertyOp10
 70
     0
102
RTVSPropertyOp11
 70
     0
102
RTVSPropertyOp12
 70
     0
102
RTVSPropertyOp13
 70
     0
102
RTVSPropertyOp14
 70
     2
102
RTVSPropertyOp15
 70
     0
102
RTVSPropertyOp16
 70
     0
102
RTVSPropertyOp17
 70
     0
102
RTVSPropertyOp18
 70
     0
102
RTVSPropertyOp19
 70
     0
102
RTVSPropertyOp20
 70
     0
102
RTVSPropertyOp21
 70
     0
102
RTVSPropertyOp22
 70
     0
102
RTVSPropertyOp23
 70
     0
102
RTVSPropertyOp24
 70
     0
102
RTVSPropertyOp25
 70
     0
102
RTVSPropertyOp26
 70
     0
102
RTVSPropertyOp27
 70
     0
102
RTVSPropertyOp28
 70
     0
102
RTVSPropertyOp29
 70
     0
102
RTVSPropertyOp30
 70
     0
102
RTVSPropertyOp31
 70
     0
102
RTVSPropertyOp32
 70
     0
102
RTVSPropertyOp33
 70
     0
102
RTVSPropertyOp34
 70
     0
102
RTVSPropertyOp35
 70
     0
102
RTVSPropertyOp36
 70
     0
102
RTVSPropertyOp37
 70
     0
102
RTVSPropertyOp38
 70
     0
102
RTVSPropertyOp39
 70
     0
102
RTVSPropertyOp40
 70
     0
102
RTVSPropertyOp41
 70
     0
102
RTVSPropertyOp42
 70
     0
102
RTVSPropertyOp43
 70
     0
102
RTVSPropertyOp44
 70
     0
102
RTVSPropertyOp45
 70
     0
102
RTVSPropertyOp46
 70
     0
102
RTVSPropertyOp47
 70
     0
102
RTVSPropertyOp48
 70
     0
102
RTVSPropertyOp49
 70
     0
102
RTVSPropertyOp50
 70
     0
102
RTVSPropertyOp51
 70
     0
102
RTVSPropertyOp52
 70
     0
102
RTVSPropertyOp53
 70
     0
102
RTVSPropertyOp54
 70
     0
102
RTVSPropertyOp55
 70
     0
102
RTVSPropertyOp56
 70
     0
102
RTVSPropertyOp57
 70
     0
102
RTVSPost2010Prop28
280
     0
102
RTVSPost2010PropOp28
 70
     0
102
RTVSPost2010Prop29
280
     1
102
RTVSPost2010PropOp29
 70
     0
102
RTVSPost2010Prop30
280
     1
102
RTVSPost2010PropOp30
 70
     0
102
RTVSPost2010Prop31
280
     0
102
RTVSPost2010PropOp31
 70
     0
102
RTVSPost2010Prop32
280
     0
102
RTVSPost2010PropOp32
 70
     0
102
RTVSPost2010Prop33
280
     0
102
RTVSPost2010PropOp33
 70
     0
102
RTVSPost2010Prop34
280
     0
102
RTVSPost2010PropOp34
 70
     0
102
RTVSPost2010Prop35
280
     0
102
RTVSPost2010PropOp35
 70
     0
102
RTVSPost2010Prop36
280
     0
102
RTVSPost2010PropOp36
 70
     0
102
RTVSPost2010Prop37
 90
       50
102
RTVSPost2010PropOp37
 70
     0
102
RTVSPost2010Prop38
140
0.0
102
RTVSPost2010PropOp38
 70
     0
102
RTVSPost2010Prop39
140
1.0
102
RTVSPost2010PropOp39
 70
     0
102
RTVSPost2010Prop40
 90
        0
102
RTVSPost2010PropOp40
 70
     0
102
RTVSPost2010Prop41ColorIndex
 90
       18
102
RTVSPost2010Prop41ColorRGB
 90
        0
102
RTVSPost2010PropOp41
 70
     0
102
RTVSPost2010Prop42
 90
       50
102
RTVSPost2010PropOp42
 70
     0
102
RTVSPost2010Prop43
 90
        3
102
RTVSPost2010PropOp43
 70
     0
102
RTVSPost2010Prop44ColorIndex
 90
        5
102
RTVSPost2010Prop44ColorRGB
 90
      255
102
RTVSPost2010PropOp44
 70
     0
102
RTVSPost2010Prop45
280
     0
102
RTVSPost2010PropOp45
 70
     0
102
RTVSPost2010Prop46
 90
       50
102
RTVSPost2010PropOp46
 70
     0
102
RTVSPost2010Prop47
 90
       50
102
RTVSPost2010PropOp47
 70
     0
102
RTVSPost2010Prop48
 90
       50
102
RTVSPost2010PropOp48
 70
     0
102
RTVSPost2010Prop49
280
     0
102
RTVSPost2010PropOp49
 70
     0
102
RTVSPost2010Prop50
 90
       50
102
RTVSPost2010PropOp50
 70
     0
102
RTVSPost2010Prop51ColorIndex
 90
      256
102
RTVSPost2010Prop51ColorRGB
 90
-16777216
102
RTVSPost2010PropOp51
 70
     0
102
RTVSPost2010Prop52
140
1.0
102
RTVSPost2010PropOp52
 70
     0
102
RTVSPost2010Prop53
 90
        2
102
RTVSPost2010PropOp53
 70
     0
102
RTVSPost2010Prop54
  1
strokes_ogs.tif
102
RTVSPost2010PropOp54
 70
     0
102
RTVSPost2010Prop55
280
     0
102
RTVSPost2010PropOp55
 70
     0
102
RTVSPost2010Prop56
140
1.0
102
RTVSPost2010PropOp56
 70
     0
102
RTVSPost2010Prop57
140
1.0
102
RTVSPost2010PropOp57
 70
     0
  0
XRECORD
  5
387
102
{ACAD_REACTORS
330
386
102
}
330
386
100
AcDbXrecord
280
     1
102
RTVSPropertyOp0
 70
     1
102
RTVSPropertyOp1
 70
     1
102
RTVSPropertyOp2
 70
     1
102
RTVSPropertyOp3
 70
     1
102
RTVSPropertyOp4
 70
     1
102
RTVSPropertyOp5
 70
     1
102
RTVSPropertyOp6
 70
     1
102
RTVSPropertyOp7
 70
     1
102
RTVSPropertyOp8
 70
     1
102
RTVSPropertyOp9
 70
     1
102
RTVSPropertyOp10
 70
     1
102
RTVSPropertyOp11
 70
     1
102
RTVSPropertyOp12
 70
     1
102
RTVSPropertyOp13
 70
     1
102
RTVSPropertyOp14
 70
     1
102
RTVSPropertyOp15
 70
     1
102
RTVSPropertyOp16
 70
     1
102
RTVSPropertyOp17
 70
     1
102
RTVSPropertyOp18
 70
     1
102
RTVSPropertyOp19
 70
     1
102
RTVSPropertyOp20
 70
     1
102
RTVSPropertyOp21
 70
     1
102
RTVSPropertyOp22
 70
     1
102
RTVSPropertyOp23
 70
     1
102
RTVSPropertyOp24
 70
     1
102
RTVSPropertyOp25
 70
     1
102
RTVSPropertyOp26
 70
     1
102
RTVSPropertyOp27
 70
     1
102
RTVSPropertyOp28
 70
     1
102
RTVSPropertyOp29
 70
     1
102
RTVSPropertyOp30
 70
     1
102
RTVSPropertyOp31
 70
     1
102
RTVSPropertyOp32
 70
     1
102
RTVSPropertyOp33
 70
     1
102
RTVSPropertyOp34
 70
     1
102
RTVSPropertyOp35
 70
     1
102
RTVSPropertyOp36
 70
     1
102
RTVSPropertyOp37
 70
     1
102
RTVSPropertyOp38
 70
     1
102
RTVSPropertyOp39
 70
     1
102
RTVSPropertyOp40
 70
     1
102
RTVSPropertyOp41
 70
     1
102
RTVSPropertyOp42
 70
     1
102
RTVSPropertyOp43
 70
     1
102
RTVSPropertyOp44
 70
     1
102
RTVSPropertyOp45
 70
     1
102
RTVSPropertyOp46
 70
     1
102
RTVSPropertyOp47
 70
     1
102
RTVSPropertyOp48
 70
     1
102
RTVSPropertyOp49
 70
     1
102
RTVSPropertyOp50
 70
     1
102
RTVSPropertyOp51
 70
     0
102
RTVSPropertyOp52
 70
     0
102
RTVSPropertyOp53
 70
     1
102
RTVSPropertyOp54
 70
     1
102
RTVSPropertyOp55
 70
     1
102
RTVSPropertyOp56
 70
     1
102
RTVSPropertyOp57
 70
     1
102
RTVSPost2010Prop28
280
     0
102
RTVSPost2010PropOp28
 70
     1
102
RTVSPost2010Prop29
280
     1
102
RTVSPost2010PropOp29
 70
     1
102
RTVSPost2010Prop30
280
     1
102
RTVSPost2010PropOp30
 70
     1
102
RTVSPost2010Prop31
280
     0
102
RTVSPost2010PropOp31
 70
     1
102
RTVSPost2010Prop32
280
     0
102
RTVSPost2010PropOp32
 70
     1
102
RTVSPost2010Prop33
280
     0
102
RTVSPost2010PropOp33
 70
     1
102
RTVSPost2010Prop34
280
     0
102
RTVSPost2010PropOp34
 70
     1
102
RTVSPost2010Prop35
280
     0
102
RTVSPost2010PropOp35
 70
     1
102
RTVSPost2010Prop36
280
     0
102
RTVSPost2010PropOp36
 70
     1
102
RTVSPost2010Prop37
 90
       50
102
RTVSPost2010PropOp37
 70
     1
102
RTVSPost2010Prop38
140
0.0
102
RTVSPost2010PropOp38
 70
     1
102
RTVSPost2010Prop39
140
1.0
102
RTVSPost2010PropOp39
 70
     1
102
RTVSPost2010Prop40
 90
        0
102
RTVSPost2010PropOp40
 70
     1
102
RTVSPost2010Prop41ColorIndex
 90
       18
102
RTVSPost2010Prop41ColorRGB
 90
        0
102
RTVSPost2010PropOp41
 70
     1
102
RTVSPost2010Prop42
 90
       50
102
RTVSPost2010PropOp42
 70
     1
102
RTVSPost2010Prop43
 90
        3
102
RTVSPost2010PropOp43
 70
     1
102
RTVSPost2010Prop44ColorIndex
 90
        5
102
RTVSPost2010Prop44ColorRGB
 90
      255
102
RTVSPost2010PropOp44
 70
     1
102
RTVSPost2010Prop45
280
     0
102
RTVSPost2010PropOp45
 70
     1
102
RTVSPost2010Prop46
 90
       50
102
RTVSPost2010PropOp46
 70
     1
102
RTVSPost2010Prop47
 90
       50
102
RTVSPost2010PropOp47
 70
     1
102
RTVSPost2010Prop48
 90
       50
102
RTVSPost2010PropOp48
 70
     1
102
RTVSPost2010Prop49
280
     0
102
RTVSPost2010PropOp49
 70
     1
102
RTVSPost2010Prop50
 90
       50
102
RTVSPost2010PropOp50
 70
     1
102
RTVSPost2010Prop51ColorIndex
 90
      256
102
RTVSPost2010Prop51ColorRGB
 90
-16777216
102
RTVSPost2010PropOp51
 70
     0
102
RTVSPost2010Prop52
140
1.0
102
RTVSPost2010PropOp52
 70
     0
102
RTVSPost2010Prop53
 90
        2
102
RTVSPost2010PropOp53
 70
     1
102
RTVSPost2010Prop54
  1
strokes_ogs.tif
102
RTVSPost2010PropOp54
 70
     1
102
RTVSPost2010Prop55
280
     0
102
RTVSPost2010PropOp55
 70
     1
102
RTVSPost2010Prop56
140
1.0
102
RTVSPost2010PropOp56
 70
     1
102
RTVSPost2010Prop57
140
1.0
102
RTVSPost2010PropOp57
 70
     1
  0
XRECORD
  5
38F
102
{ACAD_REACTORS
330
38E
102
}
330
38E
100
AcDbXrecord
280
     1
102
RTVSPropertyOp0
 70
     0
102
RTVSPropertyOp1
 70
     0
102
RTVSPropertyOp2
 70
     0
102
RTVSPropertyOp3
 70
     0
102
RTVSPropertyOp4
 70
     0
102
RTVSPropertyOp5
 70
     0
102
RTVSPropertyOp6
 70
     0
102
RTVSPropertyOp7
 70
     0
102
RTVSPropertyOp8
 70
     0
102
RTVSPropertyOp9
 70
     0
102
RTVSPropertyOp10
 70
     0
102
RTVSPropertyOp11
 70
     0
102
RTVSPropertyOp12
 70
     0
102
RTVSPropertyOp13
 70
     0
102
RTVSPropertyOp14
 70
     2
102
RTVSPropertyOp15
 70
     0
102
RTVSPropertyOp16
 70
     0
102
RTVSPropertyOp17
 70
     0
102
RTVSPropertyOp18
 70
     0
102
RTVSPropertyOp19
 70
     0
102
RTVSPropertyOp20
 70
     0
102
RTVSPropertyOp21
 70
     0
102
RTVSPropertyOp22
 70
     0
102
RTVSPropertyOp23
 70
     0
102
RTVSPropertyOp24
 70
     0
102
RTVSPropertyOp25
 70
     0
102
RTVSPropertyOp26
 70
     0
102
RTVSPropertyOp27
 70
     0
102
RTVSPropertyOp28
 70
     0
102
RTVSPropertyOp29
 70
     0
102
RTVSPropertyOp30
 70
     0
102
RTVSPropertyOp31
 70
     0
102
RTVSPropertyOp32
 70
     0
102
RTVSPropertyOp33
 70
     0
102
RTVSPropertyOp34
 70
     0
102
RTVSPropertyOp35
 70
     0
102
RTVSPropertyOp36
 70
     0
102
RTVSPropertyOp37
 70
     0
102
RTVSPropertyOp38
 70
     0
102
RTVSPropertyOp39
 70
     0
102
RTVSPropertyOp40
 70
     0
102
RTVSPropertyOp41
 70
     0
102
RTVSPropertyOp42
 70
     0
102
RTVSPropertyOp43
 70
     0
102
RTVSPropertyOp44
 70
     0
102
RTVSPropertyOp45
 70
     0
102
RTVSPropertyOp46
 70
     0
102
RTVSPropertyOp47
 70
     0
102
RTVSPropertyOp48
 70
     0
102
RTVSPropertyOp49
 70
     0
102
RTVSPropertyOp50
 70
     0
102
RTVSPropertyOp51
 70
     0
102
RTVSPropertyOp52
 70
     0
102
RTVSPropertyOp53
 70
     0
102
RTVSPropertyOp54
 70
     0
102
RTVSPropertyOp55
 70
     0
102
RTVSPropertyOp56
 70
     0
102
RTVSPropertyOp57
 70
     0
102
RTVSPost2010Prop28
280
     0
102
RTVSPost2010PropOp28
 70
     0
102
RTVSPost2010Prop29
280
     1
102
RTVSPost2010PropOp29
 70
     0
102
RTVSPost2010Prop30
280
     1
102
RTVSPost2010PropOp30
 70
     0
102
RTVSPost2010Prop31
280
     0
102
RTVSPost2010PropOp31
 70
     0
102
RTVSPost2010Prop32
280
     0
102
RTVSPost2010PropOp32
 70
     0
102
RTVSPost2010Prop33
280
     0
102
RTVSPost2010PropOp33
 70
     0
102
RTVSPost2010Prop34
280
     0
102
RTVSPost2010PropOp34
 70
     0
102
RTVSPost2010Prop35
280
     0
102
RTVSPost2010PropOp35
 70
     0
102
RTVSPost2010Prop36
280
     0
102
RTVSPost2010PropOp36
 70
     0
102
RTVSPost2010Prop37
 90
       50
102
RTVSPost2010PropOp37
 70
     0
102
RTVSPost2010Prop38
140
0.0
102
RTVSPost2010PropOp38
 70
     0
102
RTVSPost2010Prop39
140
1.0
102
RTVSPost2010PropOp39
 70
     0
102
RTVSPost2010Prop40
 90
        0
102
RTVSPost2010PropOp40
 70
     0
102
RTVSPost2010Prop41ColorIndex
 90
       18
102
RTVSPost2010Prop41ColorRGB
 90
        0
102
RTVSPost2010PropOp41
 70
     0
102
RTVSPost2010Prop42
 90
       50
102
RTVSPost2010PropOp42
 70
     0
102
RTVSPost2010Prop43
 90
        3
102
RTVSPost2010PropOp43
 70
     0
102
RTVSPost2010Prop44ColorIndex
 90
        5
102
RTVSPost2010Prop44ColorRGB
 90
      255
102
RTVSPost2010PropOp44
 70
     0
102
RTVSPost2010Prop45
280
     0
102
RTVSPost2010PropOp45
 70
     0
102
RTVSPost2010Prop46
 90
       50
102
RTVSPost2010PropOp46
 70
     0
102
RTVSPost2010Prop47
 90
       50
102
RTVSPost2010PropOp47
 70
     0
102
RTVSPost2010Prop48
 90
       50
102
RTVSPost2010PropOp48
 70
     0
102
RTVSPost2010Prop49
280
     0
102
RTVSPost2010PropOp49
 70
     0
102
RTVSPost2010Prop50
 90
       50
102
RTVSPost2010PropOp50
 70
     0
102
RTVSPost2010Prop51ColorIndex
 90
      256
102
RTVSPost2010Prop51ColorRGB
 90
-16777216
102
RTVSPost2010PropOp51
 70
     0
102
RTVSPost2010Prop52
140
1.0
102
RTVSPost2010PropOp52
 70
     0
102
RTVSPost2010Prop53
 90
        2
102
RTVSPost2010PropOp53
 70
     0
102
RTVSPost2010Prop54
  1
strokes_ogs.tif
102
RTVSPost2010PropOp54
 70
     0
102
RTVSPost2010Prop55
280
     0
102
RTVSPost2010PropOp55
 70
     0
102
RTVSPost2010Prop56
140
1.0
102
RTVSPost2010PropOp56
 70
     0
102
RTVSPost2010Prop57
140
1.0
102
RTVSPost2010PropOp57
 70
     0
  0
XRECORD
  5
37D
102
{ACAD_REACTORS
330
37C
102
}
330
37C
100
AcDbXrecord
280
     1
102
RTVSPropertyOp0
 70
     1
102
RTVSPropertyOp1
 70
     1
102
RTVSPropertyOp2
 70
     1
102
RTVSPropertyOp3
 70
     1
102
RTVSPropertyOp4
 70
     1
102
RTVSPropertyOp5
 70
     1
102
RTVSPropertyOp6
 70
     1
102
RTVSPropertyOp7
 70
     1
102
RTVSPropertyOp8
 70
     1
102
RTVSPropertyOp9
 70
     1
102
RTVSPropertyOp10
 70
     1
102
RTVSPropertyOp11
 70
     1
102
RTVSPropertyOp12
 70
     1
102
RTVSPropertyOp13
 70
     1
102
RTVSPropertyOp14
 70
     1
102
RTVSPropertyOp15
 70
     1
102
RTVSPropertyOp16
 70
     1
102
RTVSPropertyOp17
 70
     1
102
RTVSPropertyOp18
 70
     1
102
RTVSPropertyOp19
 70
     1
102
RTVSPropertyOp20
 70
     1
102
RTVSPropertyOp21
 70
     1
102
RTVSPropertyOp22
 70
     1
102
RTVSPropertyOp23
 70
     1
102
RTVSPropertyOp24
 70
     1
102
RTVSPropertyOp25
 70
     1
102
RTVSPropertyOp26
 70
     1
102
RTVSPropertyOp27
 70
     1
102
RTVSPropertyOp28
 70
     1
102
RTVSPropertyOp29
 70
     1
102
RTVSPropertyOp30
 70
     1
102
RTVSPropertyOp31
 70
     1
102
RTVSPropertyOp32
 70
     1
102
RTVSPropertyOp33
 70
     1
102
RTVSPropertyOp34
 70
     1
102
RTVSPropertyOp35
 70
     1
102
RTVSPropertyOp36
 70
     1
102
RTVSPropertyOp37
 70
     1
102
RTVSPropertyOp38
 70
     1
102
RTVSPropertyOp39
 70
     1
102
RTVSPropertyOp40
 70
     1
102
RTVSPropertyOp41
 70
     1
102
RTVSPropertyOp42
 70
     1
102
RTVSPropertyOp43
 70
     1
102
RTVSPropertyOp44
 70
     1
102
RTVSPropertyOp45
 70
     1
102
RTVSPropertyOp46
 70
     1
102
RTVSPropertyOp47
 70
     1
102
RTVSPropertyOp48
 70
     1
102
RTVSPropertyOp49
 70
     1
102
RTVSPropertyOp50
 70
     1
102
RTVSPropertyOp51
 70
     0
102
RTVSPropertyOp52
 70
     0
102
RTVSPropertyOp53
 70
     1
102
RTVSPropertyOp54
 70
     1
102
RTVSPropertyOp55
 70
     1
102
RTVSPropertyOp56
 70
     1
102
RTVSPropertyOp57
 70
     1
102
RTVSPost2010Prop28
280
     0
102
RTVSPost2010PropOp28
 70
     1
102
RTVSPost2010Prop29
280
     1
102
RTVSPost2010PropOp29
 70
     1
102
RTVSPost2010Prop30
280
     1
102
RTVSPost2010PropOp30
 70
     1
102
RTVSPost2010Prop31
280
     0
102
RTVSPost2010PropOp31
 70
     1
102
RTVSPost2010Prop32
280
     0
102
RTVSPost2010PropOp32
 70
     1
102
RTVSPost2010Prop33
280
     0
102
RTVSPost2010PropOp33
 70
     1
102
RTVSPost2010Prop34
280
     0
102
RTVSPost2010PropOp34
 70
     1
102
RTVSPost2010Prop35
280
     0
102
RTVSPost2010PropOp35
 70
     1
102
RTVSPost2010Prop36
280
     0
102
RTVSPost2010PropOp36
 70
     1
102
RTVSPost2010Prop37
 90
       50
102
RTVSPost2010PropOp37
 70
     1
102
RTVSPost2010Prop38
140
0.0
102
RTVSPost2010PropOp38
 70
     1
102
RTVSPost2010Prop39
140
1.0
102
RTVSPost2010PropOp39
 70
     1
102
RTVSPost2010Prop40
 90
        0
102
RTVSPost2010PropOp40
 70
     1
102
RTVSPost2010Prop41ColorIndex
 90
       18
102
RTVSPost2010Prop41ColorRGB
 90
        0
102
RTVSPost2010PropOp41
 70
     1
102
RTVSPost2010Prop42
 90
       50
102
RTVSPost2010PropOp42
 70
     1
102
RTVSPost2010Prop43
 90
        3
102
RTVSPost2010PropOp43
 70
     1
102
RTVSPost2010Prop44ColorIndex
 90
        5
102
RTVSPost2010Prop44ColorRGB
 90
      255
102
RTVSPost2010PropOp44
 70
     1
102
RTVSPost2010Prop45
280
     0
102
RTVSPost2010PropOp45
 70
     1
102
RTVSPost2010Prop46
 90
       50
102
RTVSPost2010PropOp46
 70
     1
102
RTVSPost2010Prop47
 90
       50
102
RTVSPost2010PropOp47
 70
     1
102
RTVSPost2010Prop48
 90
       50
102
RTVSPost2010PropOp48
 70
     1
102
RTVSPost2010Prop49
280
     0
102
RTVSPost2010PropOp49
 70
     1
102
RTVSPost2010Prop50
 90
       50
102
RTVSPost2010PropOp50
 70
     1
102
RTVSPost2010Prop51ColorIndex
 90
      256
102
RTVSPost2010Prop51ColorRGB
 90
-16777216
102
RTVSPost2010PropOp51
 70
     0
102
RTVSPost2010Prop52
140
1.0
102
RTVSPost2010PropOp52
 70
     0
102
RTVSPost2010Prop53
 90
        2
102
RTVSPost2010PropOp53
 70
     1
102
RTVSPost2010Prop54
  1
strokes_ogs.tif
102
RTVSPost2010PropOp54
 70
     1
102
RTVSPost2010Prop55
280
     0
102
RTVSPost2010PropOp55
 70
     1
102
RTVSPost2010Prop56
140
1.0
102
RTVSPost2010PropOp56
 70
     1
102
RTVSPost2010Prop57
140
1.0
102
RTVSPost2010PropOp57
 70
     1
  0
XRECORD
  5
39B
102
{ACAD_REACTORS
330
39A
102
}
330
39A
100
AcDbXrecord
280
     1
102
RTVSPropertyOp0
 70
     1
102
RTVSPropertyOp1
 70
     1
102
RTVSPropertyOp2
 70
     1
102
RTVSPropertyOp3
 70
     1
102
RTVSPropertyOp4
 70
     1
102
RTVSPropertyOp5
 70
     1
102
RTVSPropertyOp6
 70
     1
102
RTVSPropertyOp7
 70
     1
102
RTVSPropertyOp8
 70
     1
102
RTVSPropertyOp9
 70
     1
102
RTVSPropertyOp10
 70
     1
102
RTVSPropertyOp11
 70
     1
102
RTVSPropertyOp12
 70
     1
102
RTVSPropertyOp13
 70
     1
102
RTVSPropertyOp14
 70
     1
102
RTVSPropertyOp15
 70
     1
102
RTVSPropertyOp16
 70
     1
102
RTVSPropertyOp17
 70
     1
102
RTVSPropertyOp18
 70
     1
102
RTVSPropertyOp19
 70
     1
102
RTVSPropertyOp20
 70
     1
102
RTVSPropertyOp21
 70
     1
102
RTVSPropertyOp22
 70
     1
102
RTVSPropertyOp23
 70
     1
102
RTVSPropertyOp24
 70
     1
102
RTVSPropertyOp25
 70
     1
102
RTVSPropertyOp26
 70
     1
102
RTVSPropertyOp27
 70
     1
102
RTVSPropertyOp28
 70
     1
102
RTVSPropertyOp29
 70
     1
102
RTVSPropertyOp30
 70
     1
102
RTVSPropertyOp31
 70
     1
102
RTVSPropertyOp32
 70
     1
102
RTVSPropertyOp33
 70
     1
102
RTVSPropertyOp34
 70
     1
102
RTVSPropertyOp35
 70
     1
102
RTVSPropertyOp36
 70
     1
102
RTVSPropertyOp37
 70
     1
102
RTVSPropertyOp38
 70
     1
102
RTVSPropertyOp39
 70
     1
102
RTVSPropertyOp40
 70
     1
102
RTVSPropertyOp41
 70
     1
102
RTVSPropertyOp42
 70
     1
102
RTVSPropertyOp43
 70
     1
102
RTVSPropertyOp44
 70
     1
102
RTVSPropertyOp45
 70
     1
102
RTVSPropertyOp46
 70
     1
102
RTVSPropertyOp47
 70
     1
102
RTVSPropertyOp48
 70
     1
102
RTVSPropertyOp49
 70
     1
102
RTVSPropertyOp50
 70
     1
102
RTVSPropertyOp51
 70
     0
102
RTVSPropertyOp52
 70
     0
102
RTVSPropertyOp53
 70
     1
102
RTVSPropertyOp54
 70
     1
102
RTVSPropertyOp55
 70
     1
102
RTVSPropertyOp56
 70
     1
102
RTVSPropertyOp57
 70
     1
102
RTVSPost2010Prop28
280
     0
102
RTVSPost2010PropOp28
 70
     1
102
RTVSPost2010Prop29
280
     1
102
RTVSPost2010PropOp29
 70
     1
102
RTVSPost2010Prop30
280
     1
102
RTVSPost2010PropOp30
 70
     1
102
RTVSPost2010Prop31
280
     0
102
RTVSPost2010PropOp31
 70
     1
102
RTVSPost2010Prop32
280
     0
102
RTVSPost2010PropOp32
 70
     1
102
RTVSPost2010Prop33
280
     0
102
RTVSPost2010PropOp33
 70
     1
102
RTVSPost2010Prop34
280
     0
102
RTVSPost2010PropOp34
 70
     1
102
RTVSPost2010Prop35
280
     0
102
RTVSPost2010PropOp35
 70
     1
102
RTVSPost2010Prop36
280
     0
102
RTVSPost2010PropOp36
 70
     1
102
RTVSPost2010Prop37
 90
       50
102
RTVSPost2010PropOp37
 70
     1
102
RTVSPost2010Prop38
140
0.0
102
RTVSPost2010PropOp38
 70
     1
102
RTVSPost2010Prop39
140
1.0
102
RTVSPost2010PropOp39
 70
     1
102
RTVSPost2010Prop40
 90
        0
102
RTVSPost2010PropOp40
 70
     1
102
RTVSPost2010Prop41ColorIndex
 90
       18
102
RTVSPost2010Prop41ColorRGB
 90
        0
102
RTVSPost2010PropOp41
 70
     1
102
RTVSPost2010Prop42
 90
       50
102
RTVSPost2010PropOp42
 70
     1
102
RTVSPost2010Prop43
 90
        3
102
RTVSPost2010PropOp43
 70
     1
102
RTVSPost2010Prop44ColorIndex
 90
        5
102
RTVSPost2010Prop44ColorRGB
 90
      255
102
RTVSPost2010PropOp44
 70
     1
102
RTVSPost2010Prop45
280
     0
102
RTVSPost2010PropOp45
 70
     1
102
RTVSPost2010Prop46
 90
       50
102
RTVSPost2010PropOp46
 70
     1
102
RTVSPost2010Prop47
 90
       50
102
RTVSPost2010PropOp47
 70
     1
102
RTVSPost2010Prop48
 90
       50
102
RTVSPost2010PropOp48
 70
     1
102
RTVSPost2010Prop49
280
     0
102
RTVSPost2010PropOp49
 70
     1
102
RTVSPost2010Prop50
 90
       50
102
RTVSPost2010PropOp50
 70
     1
102
RTVSPost2010Prop51ColorIndex
 90
      256
102
RTVSPost2010Prop51ColorRGB
 90
-16777216
102
RTVSPost2010PropOp51
 70
     0
102
RTVSPost2010Prop52
140
1.0
102
RTVSPost2010PropOp52
 70
     0
102
RTVSPost2010Prop53
 90
        2
102
RTVSPost2010PropOp53
 70
     1
102
RTVSPost2010Prop54
  1
strokes_ogs.tif
102
RTVSPost2010PropOp54
 70
     1
102
RTVSPost2010Prop55
280
     0
102
RTVSPost2010PropOp55
 70
     1
102
RTVSPost2010Prop56
140
1.0
102
RTVSPost2010PropOp56
 70
     1
102
RTVSPost2010Prop57
140
1.0
102
RTVSPost2010PropOp57
 70
     1
  0
XRECORD
  5
399
102
{ACAD_REACTORS
330
398
102
}
330
398
100
AcDbXrecord
280
     1
102
RTVSPropertyOp0
 70
     1
102
RTVSPropertyOp1
 70
     1
102
RTVSPropertyOp2
 70
     1
102
RTVSPropertyOp3
 70
     1
102
RTVSPropertyOp4
 70
     1
102
RTVSPropertyOp5
 70
     1
102
RTVSPropertyOp6
 70
     1
102
RTVSPropertyOp7
 70
     1
102
RTVSPropertyOp8
 70
     1
102
RTVSPropertyOp9
 70
     1
102
RTVSPropertyOp10
 70
     1
102
RTVSPropertyOp11
 70
     1
102
RTVSPropertyOp12
 70
     1
102
RTVSPropertyOp13
 70
     1
102
RTVSPropertyOp14
 70
     1
102
RTVSPropertyOp15
 70
     1
102
RTVSPropertyOp16
 70
     1
102
RTVSPropertyOp17
 70
     1
102
RTVSPropertyOp18
 70
     1
102
RTVSPropertyOp19
 70
     1
102
RTVSPropertyOp20
 70
     1
102
RTVSPropertyOp21
 70
     1
102
RTVSPropertyOp22
 70
     1
102
RTVSPropertyOp23
 70
     1
102
RTVSPropertyOp24
 70
     1
102
RTVSPropertyOp25
 70
     1
102
RTVSPropertyOp26
 70
     1
102
RTVSPropertyOp27
 70
     1
102
RTVSPropertyOp28
 70
     1
102
RTVSPropertyOp29
 70
     1
102
RTVSPropertyOp30
 70
     1
102
RTVSPropertyOp31
 70
     1
102
RTVSPropertyOp32
 70
     1
102
RTVSPropertyOp33
 70
     1
102
RTVSPropertyOp34
 70
     1
102
RTVSPropertyOp35
 70
     1
102
RTVSPropertyOp36
 70
     1
102
RTVSPropertyOp37
 70
     1
102
RTVSPropertyOp38
 70
     1
102
RTVSPropertyOp39
 70
     1
102
RTVSPropertyOp40
 70
     1
102
RTVSPropertyOp41
 70
     1
102
RTVSPropertyOp42
 70
     1
102
RTVSPropertyOp43
 70
     1
102
RTVSPropertyOp44
 70
     1
102
RTVSPropertyOp45
 70
     1
102
RTVSPropertyOp46
 70
     1
102
RTVSPropertyOp47
 70
     1
102
RTVSPropertyOp48
 70
     1
102
RTVSPropertyOp49
 70
     1
102
RTVSPropertyOp50
 70
     1
102
RTVSPropertyOp51
 70
     0
102
RTVSPropertyOp52
 70
     0
102
RTVSPropertyOp53
 70
     1
102
RTVSPropertyOp54
 70
     1
102
RTVSPropertyOp55
 70
     1
102
RTVSPropertyOp56
 70
     1
102
RTVSPropertyOp57
 70
     1
102
RTVSPost2010Prop28
280
     0
102
RTVSPost2010PropOp28
 70
     1
102
RTVSPost2010Prop29
280
     1
102
RTVSPost2010PropOp29
 70
     1
102
RTVSPost2010Prop30
280
     1
102
RTVSPost2010PropOp30
 70
     1
102
RTVSPost2010Prop31
280
     0
102
RTVSPost2010PropOp31
 70
     1
102
RTVSPost2010Prop32
280
     0
102
RTVSPost2010PropOp32
 70
     1
102
RTVSPost2010Prop33
280
     0
102
RTVSPost2010PropOp33
 70
     1
102
RTVSPost2010Prop34
280
     0
102
RTVSPost2010PropOp34
 70
     1
102
RTVSPost2010Prop35
280
     0
102
RTVSPost2010PropOp35
 70
     1
102
RTVSPost2010Prop36
280
     0
102
RTVSPost2010PropOp36
 70
     1
102
RTVSPost2010Prop37
 90
       50
102
RTVSPost2010PropOp37
 70
     1
102
RTVSPost2010Prop38
140
0.0
102
RTVSPost2010PropOp38
 70
     1
102
RTVSPost2010Prop39
140
1.0
102
RTVSPost2010PropOp39
 70
     1
102
RTVSPost2010Prop40
 90
        0
102
RTVSPost2010PropOp40
 70
     1
102
RTVSPost2010Prop41ColorIndex
 90
       18
102
RTVSPost2010Prop41ColorRGB
 90
        0
102
RTVSPost2010PropOp41
 70
     1
102
RTVSPost2010Prop42
 90
       50
102
RTVSPost2010PropOp42
 70
     1
102
RTVSPost2010Prop43
 90
        3
102
RTVSPost2010PropOp43
 70
     1
102
RTVSPost2010Prop44ColorIndex
 90
        5
102
RTVSPost2010Prop44ColorRGB
 90
      255
102
RTVSPost2010PropOp44
 70
     1
102
RTVSPost2010Prop45
280
     0
102
RTVSPost2010PropOp45
 70
     1
102
RTVSPost2010Prop46
 90
       50
102
RTVSPost2010PropOp46
 70
     1
102
RTVSPost2010Prop47
 90
       50
102
RTVSPost2010PropOp47
 70
     1
102
RTVSPost2010Prop48
 90
       50
102
RTVSPost2010PropOp48
 70
     1
102
RTVSPost2010Prop49
280
     0
102
RTVSPost2010PropOp49
 70
     1
102
RTVSPost2010Prop50
 90
       50
102
RTVSPost2010PropOp50
 70
     1
102
RTVSPost2010Prop51ColorIndex
 90
      256
102
RTVSPost2010Prop51ColorRGB
 90
-16777216
102
RTVSPost2010PropOp51
 70
     0
102
RTVSPost2010Prop52
140
1.0
102
RTVSPost2010PropOp52
 70
     0
102
RTVSPost2010Prop53
 90
        2
102
RTVSPost2010PropOp53
 70
     1
102
RTVSPost2010Prop54
  1
strokes_ogs.tif
102
RTVSPost2010PropOp54
 70
     1
102
RTVSPost2010Prop55
280
     0
102
RTVSPost2010PropOp55
 70
     1
102
RTVSPost2010Prop56
140
1.0
102
RTVSPost2010PropOp56
 70
     1
102
RTVSPost2010Prop57
140
1.0
102
RTVSPost2010PropOp57
 70
     1
  0
XRECORD
  5
393
102
{ACAD_REACTORS
330
392
102
}
330
392
100
AcDbXrecord
280
     1
102
RTVSPropertyOp0
 70
     1
102
RTVSPropertyOp1
 70
     1
102
RTVSPropertyOp2
 70
     1
102
RTVSPropertyOp3
 70
     1
102
RTVSPropertyOp4
 70
     1
102
RTVSPropertyOp5
 70
     1
102
RTVSPropertyOp6
 70
     1
102
RTVSPropertyOp7
 70
     1
102
RTVSPropertyOp8
 70
     1
102
RTVSPropertyOp9
 70
     1
102
RTVSPropertyOp10
 70
     1
102
RTVSPropertyOp11
 70
     1
102
RTVSPropertyOp12
 70
     1
102
RTVSPropertyOp13
 70
     1
102
RTVSPropertyOp14
 70
     1
102
RTVSPropertyOp15
 70
     1
102
RTVSPropertyOp16
 70
     1
102
RTVSPropertyOp17
 70
     1
102
RTVSPropertyOp18
 70
     1
102
RTVSPropertyOp19
 70
     1
102
RTVSPropertyOp20
 70
     1
102
RTVSPropertyOp21
 70
     1
102
RTVSPropertyOp22
 70
     1
102
RTVSPropertyOp23
 70
     1
102
RTVSPropertyOp24
 70
     1
102
RTVSPropertyOp25
 70
     1
102
RTVSPropertyOp26
 70
     1
102
RTVSPropertyOp27
 70
     1
102
RTVSPropertyOp28
 70
     1
102
RTVSPropertyOp29
 70
     1
102
RTVSPropertyOp30
 70
     1
102
RTVSPropertyOp31
 70
     1
102
RTVSPropertyOp32
 70
     1
102
RTVSPropertyOp33
 70
     1
102
RTVSPropertyOp34
 70
     1
102
RTVSPropertyOp35
 70
     1
102
RTVSPropertyOp36
 70
     1
102
RTVSPropertyOp37
 70
     1
102
RTVSPropertyOp38
 70
     1
102
RTVSPropertyOp39
 70
     1
102
RTVSPropertyOp40
 70
     1
102
RTVSPropertyOp41
 70
     1
102
RTVSPropertyOp42
 70
     1
102
RTVSPropertyOp43
 70
     1
102
RTVSPropertyOp44
 70
     1
102
RTVSPropertyOp45
 70
     1
102
RTVSPropertyOp46
 70
     1
102
RTVSPropertyOp47
 70
     1
102
RTVSPropertyOp48
 70
     1
102
RTVSPropertyOp49
 70
     1
102
RTVSPropertyOp50
 70
     1
102
RTVSPropertyOp51
 70
     0
102
RTVSPropertyOp52
 70
     0
102
RTVSPropertyOp53
 70
     1
102
RTVSPropertyOp54
 70
     1
102
RTVSPropertyOp55
 70
     1
102
RTVSPropertyOp56
 70
     1
102
RTVSPropertyOp57
 70
     1
102
RTVSPost2010Prop28
280
     0
102
RTVSPost2010PropOp28
 70
     1
102
RTVSPost2010Prop29
280
     1
102
RTVSPost2010PropOp29
 70
     1
102
RTVSPost2010Prop30
280
     1
102
RTVSPost2010PropOp30
 70
     1
102
RTVSPost2010Prop31
280
     0
102
RTVSPost2010PropOp31
 70
     1
102
RTVSPost2010Prop32
280
     0
102
RTVSPost2010PropOp32
 70
     1
102
RTVSPost2010Prop33
280
     0
102
RTVSPost2010PropOp33
 70
     1
102
RTVSPost2010Prop34
280
     0
102
RTVSPost2010PropOp34
 70
     1
102
RTVSPost2010Prop35
280
     0
102
RTVSPost2010PropOp35
 70
     1
102
RTVSPost2010Prop36
280
     0
102
RTVSPost2010PropOp36
 70
     1
102
RTVSPost2010Prop37
 90
       50
102
RTVSPost2010PropOp37
 70
     1
102
RTVSPost2010Prop38
140
0.0
102
RTVSPost2010PropOp38
 70
     1
102
RTVSPost2010Prop39
140
1.0
102
RTVSPost2010PropOp39
 70
     1
102
RTVSPost2010Prop40
 90
        0
102
RTVSPost2010PropOp40
 70
     1
102
RTVSPost2010Prop41ColorIndex
 90
       18
102
RTVSPost2010Prop41ColorRGB
 90
        0
102
RTVSPost2010PropOp41
 70
     1
102
RTVSPost2010Prop42
 90
       50
102
RTVSPost2010PropOp42
 70
     1
102
RTVSPost2010Prop43
 90
        3
102
RTVSPost2010PropOp43
 70
     1
102
RTVSPost2010Prop44ColorIndex
 90
        5
102
RTVSPost2010Prop44ColorRGB
 90
      255
102
RTVSPost2010PropOp44
 70
     1
102
RTVSPost2010Prop45
280
     0
102
RTVSPost2010PropOp45
 70
     1
102
RTVSPost2010Prop46
 90
       50
102
RTVSPost2010PropOp46
 70
     1
102
RTVSPost2010Prop47
 90
       50
102
RTVSPost2010PropOp47
 70
     1
102
RTVSPost2010Prop48
 90
       50
102
RTVSPost2010PropOp48
 70
     1
102
RTVSPost2010Prop49
280
     0
102
RTVSPost2010PropOp49
 70
     1
102
RTVSPost2010Prop50
 90
       50
102
RTVSPost2010PropOp50
 70
     1
102
RTVSPost2010Prop51ColorIndex
 90
      256
102
RTVSPost2010Prop51ColorRGB
 90
-16777216
102
RTVSPost2010PropOp51
 70
     0
102
RTVSPost2010Prop52
140
1.0
102
RTVSPost2010PropOp52
 70
     0
102
RTVSPost2010Prop53
 90
        2
102
RTVSPost2010PropOp53
 70
     1
102
RTVSPost2010Prop54
  1
strokes_ogs.tif
102
RTVSPost2010PropOp54
 70
     1
102
RTVSPost2010Prop55
280
     0
102
RTVSPost2010PropOp55
 70
     1
102
RTVSPost2010Prop56
140
1.0
102
RTVSPost2010PropOp56
 70
     1
102
RTVSPost2010Prop57
140
1.0
102
RTVSPost2010PropOp57
 70
     1
  0
XRECORD
  5
395
102
{ACAD_REACTORS
330
394
102
}
330
394
100
AcDbXrecord
280
     1
102
RTVSPropertyOp0
 70
     1
102
RTVSPropertyOp1
 70
     1
102
RTVSPropertyOp2
 70
     1
102
RTVSPropertyOp3
 70
     1
102
RTVSPropertyOp4
 70
     1
102
RTVSPropertyOp5
 70
     1
102
RTVSPropertyOp6
 70
     1
102
RTVSPropertyOp7
 70
     1
102
RTVSPropertyOp8
 70
     1
102
RTVSPropertyOp9
 70
     1
102
RTVSPropertyOp10
 70
     1
102
RTVSPropertyOp11
 70
     1
102
RTVSPropertyOp12
 70
     1
102
RTVSPropertyOp13
 70
     1
102
RTVSPropertyOp14
 70
     1
102
RTVSPropertyOp15
 70
     1
102
RTVSPropertyOp16
 70
     1
102
RTVSPropertyOp17
 70
     1
102
RTVSPropertyOp18
 70
     1
102
RTVSPropertyOp19
 70
     1
102
RTVSPropertyOp20
 70
     1
102
RTVSPropertyOp21
 70
     1
102
RTVSPropertyOp22
 70
     1
102
RTVSPropertyOp23
 70
     1
102
RTVSPropertyOp24
 70
     1
102
RTVSPropertyOp25
 70
     1
102
RTVSPropertyOp26
 70
     1
102
RTVSPropertyOp27
 70
     1
102
RTVSPropertyOp28
 70
     1
102
RTVSPropertyOp29
 70
     1
102
RTVSPropertyOp30
 70
     1
102
RTVSPropertyOp31
 70
     1
102
RTVSPropertyOp32
 70
     1
102
RTVSPropertyOp33
 70
     1
102
RTVSPropertyOp34
 70
     1
102
RTVSPropertyOp35
 70
     1
102
RTVSPropertyOp36
 70
     1
102
RTVSPropertyOp37
 70
     1
102
RTVSPropertyOp38
 70
     1
102
RTVSPropertyOp39
 70
     1
102
RTVSPropertyOp40
 70
     1
102
RTVSPropertyOp41
 70
     1
102
RTVSPropertyOp42
 70
     1
102
RTVSPropertyOp43
 70
     1
102
RTVSPropertyOp44
 70
     1
102
RTVSPropertyOp45
 70
     1
102
RTVSPropertyOp46
 70
     1
102
RTVSPropertyOp47
 70
     1
102
RTVSPropertyOp48
 70
     1
102
RTVSPropertyOp49
 70
     1
102
RTVSPropertyOp50
 70
     1
102
RTVSPropertyOp51
 70
     0
102
RTVSPropertyOp52
 70
     0
102
RTVSPropertyOp53
 70
     1
102
RTVSPropertyOp54
 70
     1
102
RTVSPropertyOp55
 70
     1
102
RTVSPropertyOp56
 70
     1
102
RTVSPropertyOp57
 70
     1
102
RTVSPost2010Prop28
280
     0
102
RTVSPost2010PropOp28
 70
     1
102
RTVSPost2010Prop29
280
     1
102
RTVSPost2010PropOp29
 70
     1
102
RTVSPost2010Prop30
280
     1
102
RTVSPost2010PropOp30
 70
     1
102
RTVSPost2010Prop31
280
     0
102
RTVSPost2010PropOp31
 70
     1
102
RTVSPost2010Prop32
280
     0
102
RTVSPost2010PropOp32
 70
     1
102
RTVSPost2010Prop33
280
     0
102
RTVSPost2010PropOp33
 70
     1
102
RTVSPost2010Prop34
280
     0
102
RTVSPost2010PropOp34
 70
     1
102
RTVSPost2010Prop35
280
     0
102
RTVSPost2010PropOp35
 70
     1
102
RTVSPost2010Prop36
280
     0
102
RTVSPost2010PropOp36
 70
     1
102
RTVSPost2010Prop37
 90
       50
102
RTVSPost2010PropOp37
 70
     1
102
RTVSPost2010Prop38
140
0.0
102
RTVSPost2010PropOp38
 70
     1
102
RTVSPost2010Prop39
140
1.0
102
RTVSPost2010PropOp39
 70
     1
102
RTVSPost2010Prop40
 90
        0
102
RTVSPost2010PropOp40
 70
     1
102
RTVSPost2010Prop41ColorIndex
 90
       18
102
RTVSPost2010Prop41ColorRGB
 90
        0
102
RTVSPost2010PropOp41
 70
     1
102
RTVSPost2010Prop42
 90
       50
102
RTVSPost2010PropOp42
 70
     1
102
RTVSPost2010Prop43
 90
        3
102
RTVSPost2010PropOp43
 70
     1
102
RTVSPost2010Prop44ColorIndex
 90
        5
102
RTVSPost2010Prop44ColorRGB
 90
      255
102
RTVSPost2010PropOp44
 70
     1
102
RTVSPost2010Prop45
280
     0
102
RTVSPost2010PropOp45
 70
     1
102
RTVSPost2010Prop46
 90
       50
102
RTVSPost2010PropOp46
 70
     1
102
RTVSPost2010Prop47
 90
       50
102
RTVSPost2010PropOp47
 70
     1
102
RTVSPost2010Prop48
 90
       50
102
RTVSPost2010PropOp48
 70
     1
102
RTVSPost2010Prop49
280
     0
102
RTVSPost2010PropOp49
 70
     1
102
RTVSPost2010Prop50
 90
       50
102
RTVSPost2010PropOp50
 70
     1
102
RTVSPost2010Prop51ColorIndex
 90
      256
102
RTVSPost2010Prop51ColorRGB
 90
-16777216
102
RTVSPost2010PropOp51
 70
     0
102
RTVSPost2010Prop52
140
1.0
102
RTVSPost2010PropOp52
 70
     0
102
RTVSPost2010Prop53
 90
        2
102
RTVSPost2010PropOp53
 70
     1
102
RTVSPost2010Prop54
  1
strokes_ogs.tif
102
RTVSPost2010PropOp54
 70
     1
102
RTVSPost2010Prop55
280
     0
102
RTVSPost2010PropOp55
 70
     1
102
RTVSPost2010Prop56
140
1.0
102
RTVSPost2010PropOp56
 70
     1
102
RTVSPost2010Prop57
140
1.0
102
RTVSPost2010PropOp57
 70
     1
  0
XRECORD
  5
385
102
{ACAD_REACTORS
330
384
102
}
330
384
100
AcDbXrecord
280
     1
102
RTVSPropertyOp0
 70
     1
102
RTVSPropertyOp1
 70
     1
102
RTVSPropertyOp2
 70
     1
102
RTVSPropertyOp3
 70
     1
102
RTVSPropertyOp4
 70
     1
102
RTVSPropertyOp5
 70
     1
102
RTVSPropertyOp6
 70
     1
102
RTVSPropertyOp7
 70
     1
102
RTVSPropertyOp8
 70
     1
102
RTVSPropertyOp9
 70
     1
102
RTVSPropertyOp10
 70
     1
102
RTVSPropertyOp11
 70
     1
102
RTVSPropertyOp12
 70
     1
102
RTVSPropertyOp13
 70
     1
102
RTVSPropertyOp14
 70
     1
102
RTVSPropertyOp15
 70
     1
102
RTVSPropertyOp16
 70
     1
102
RTVSPropertyOp17
 70
     1
102
RTVSPropertyOp18
 70
     1
102
RTVSPropertyOp19
 70
     1
102
RTVSPropertyOp20
 70
     1
102
RTVSPropertyOp21
 70
     1
102
RTVSPropertyOp22
 70
     1
102
RTVSPropertyOp23
 70
     1
102
RTVSPropertyOp24
 70
     1
102
RTVSPropertyOp25
 70
     1
102
RTVSPropertyOp26
 70
     1
102
RTVSPropertyOp27
 70
     1
102
RTVSPropertyOp28
 70
     1
102
RTVSPropertyOp29
 70
     1
102
RTVSPropertyOp30
 70
     1
102
RTVSPropertyOp31
 70
     1
102
RTVSPropertyOp32
 70
     1
102
RTVSPropertyOp33
 70
     1
102
RTVSPropertyOp34
 70
     1
102
RTVSPropertyOp35
 70
     1
102
RTVSPropertyOp36
 70
     1
102
RTVSPropertyOp37
 70
     1
102
RTVSPropertyOp38
 70
     1
102
RTVSPropertyOp39
 70
     1
102
RTVSPropertyOp40
 70
     1
102
RTVSPropertyOp41
 70
     1
102
RTVSPropertyOp42
 70
     1
102
RTVSPropertyOp43
 70
     1
102
RTVSPropertyOp44
 70
     1
102
RTVSPropertyOp45
 70
     1
102
RTVSPropertyOp46
 70
     1
102
RTVSPropertyOp47
 70
     1
102
RTVSPropertyOp48
 70
     1
102
RTVSPropertyOp49
 70
     1
102
RTVSPropertyOp50
 70
     1
102
RTVSPropertyOp51
 70
     0
102
RTVSPropertyOp52
 70
     0
102
RTVSPropertyOp53
 70
     1
102
RTVSPropertyOp54
 70
     1
102
RTVSPropertyOp55
 70
     1
102
RTVSPropertyOp56
 70
     1
102
RTVSPropertyOp57
 70
     1
102
RTVSPost2010Prop28
280
     0
102
RTVSPost2010PropOp28
 70
     1
102
RTVSPost2010Prop29
280
     1
102
RTVSPost2010PropOp29
 70
     1
102
RTVSPost2010Prop30
280
     1
102
RTVSPost2010PropOp30
 70
     1
102
RTVSPost2010Prop31
280
     0
102
RTVSPost2010PropOp31
 70
     1
102
RTVSPost2010Prop32
280
     0
102
RTVSPost2010PropOp32
 70
     1
102
RTVSPost2010Prop33
280
     0
102
RTVSPost2010PropOp33
 70
     1
102
RTVSPost2010Prop34
280
     0
102
RTVSPost2010PropOp34
 70
     1
102
RTVSPost2010Prop35
280
     0
102
RTVSPost2010PropOp35
 70
     1
102
RTVSPost2010Prop36
280
     0
102
RTVSPost2010PropOp36
 70
     1
102
RTVSPost2010Prop37
 90
       50
102
RTVSPost2010PropOp37
 70
     1
102
RTVSPost2010Prop38
140
0.0
102
RTVSPost2010PropOp38
 70
     1
102
RTVSPost2010Prop39
140
1.0
102
RTVSPost2010PropOp39
 70
     1
102
RTVSPost2010Prop40
 90
        0
102
RTVSPost2010PropOp40
 70
     1
102
RTVSPost2010Prop41ColorIndex
 90
       18
102
RTVSPost2010Prop41ColorRGB
 90
        0
102
RTVSPost2010PropOp41
 70
     1
102
RTVSPost2010Prop42
 90
       50
102
RTVSPost2010PropOp42
 70
     1
102
RTVSPost2010Prop43
 90
        3
102
RTVSPost2010PropOp43
 70
     1
102
RTVSPost2010Prop44ColorIndex
 90
        5
102
RTVSPost2010Prop44ColorRGB
 90
      255
102
RTVSPost2010PropOp44
 70
     1
102
RTVSPost2010Prop45
280
     0
102
RTVSPost2010PropOp45
 70
     1
102
RTVSPost2010Prop46
 90
       50
102
RTVSPost2010PropOp46
 70
     1
102
RTVSPost2010Prop47
 90
       50
102
RTVSPost2010PropOp47
 70
     1
102
RTVSPost2010Prop48
 90
       50
102
RTVSPost2010PropOp48
 70
     1
102
RTVSPost2010Prop49
280
     0
102
RTVSPost2010PropOp49
 70
     1
102
RTVSPost2010Prop50
 90
       50
102
RTVSPost2010PropOp50
 70
     1
102
RTVSPost2010Prop51ColorIndex
 90
      256
102
RTVSPost2010Prop51ColorRGB
 90
-16777216
102
RTVSPost2010PropOp51
 70
     0
102
RTVSPost2010Prop52
140
1.0
102
RTVSPost2010PropOp52
 70
     0
102
RTVSPost2010Prop53
 90
        2
102
RTVSPost2010PropOp53
 70
     1
102
RTVSPost2010Prop54
  1
strokes_ogs.tif
102
RTVSPost2010PropOp54
 70
     1
102
RTVSPost2010Prop55
280
     0
102
RTVSPost2010PropOp55
 70
     1
102
RTVSPost2010Prop56
140
1.0
102
RTVSPost2010PropOp56
 70
     1
102
RTVSPost2010Prop57
140
1.0
102
RTVSPost2010PropOp57
 70
     1
  0
XRECORD
  5
377
102
{ACAD_REACTORS
330
376
102
}
330
376
100
AcDbXrecord
280
     1
102
RTVSPropertyOp0
 70
     1
102
RTVSPropertyOp1
 70
     1
102
RTVSPropertyOp2
 70
     1
102
RTVSPropertyOp3
 70
     1
102
RTVSPropertyOp4
 70
     1
102
RTVSPropertyOp5
 70
     1
102
RTVSPropertyOp6
 70
     1
102
RTVSPropertyOp7
 70
     1
102
RTVSPropertyOp8
 70
     1
102
RTVSPropertyOp9
 70
     1
102
RTVSPropertyOp10
 70
     1
102
RTVSPropertyOp11
 70
     1
102
RTVSPropertyOp12
 70
     1
102
RTVSPropertyOp13
 70
     1
102
RTVSPropertyOp14
 70
     1
102
RTVSPropertyOp15
 70
     1
102
RTVSPropertyOp16
 70
     1
102
RTVSPropertyOp17
 70
     1
102
RTVSPropertyOp18
 70
     1
102
RTVSPropertyOp19
 70
     1
102
RTVSPropertyOp20
 70
     1
102
RTVSPropertyOp21
 70
     1
102
RTVSPropertyOp22
 70
     1
102
RTVSPropertyOp23
 70
     1
102
RTVSPropertyOp24
 70
     1
102
RTVSPropertyOp25
 70
     1
102
RTVSPropertyOp26
 70
     1
102
RTVSPropertyOp27
 70
     1
102
RTVSPropertyOp28
 70
     1
102
RTVSPropertyOp29
 70
     1
102
RTVSPropertyOp30
 70
     1
102
RTVSPropertyOp31
 70
     1
102
RTVSPropertyOp32
 70
     1
102
RTVSPropertyOp33
 70
     1
102
RTVSPropertyOp34
 70
     1
102
RTVSPropertyOp35
 70
     1
102
RTVSPropertyOp36
 70
     1
102
RTVSPropertyOp37
 70
     1
102
RTVSPropertyOp38
 70
     1
102
RTVSPropertyOp39
 70
     1
102
RTVSPropertyOp40
 70
     1
102
RTVSPropertyOp41
 70
     1
102
RTVSPropertyOp42
 70
     1
102
RTVSPropertyOp43
 70
     1
102
RTVSPropertyOp44
 70
     1
102
RTVSPropertyOp45
 70
     1
102
RTVSPropertyOp46
 70
     1
102
RTVSPropertyOp47
 70
     1
102
RTVSPropertyOp48
 70
     1
102
RTVSPropertyOp49
 70
     1
102
RTVSPropertyOp50
 70
     1
102
RTVSPropertyOp51
 70
     0
102
RTVSPropertyOp52
 70
     0
102
RTVSPropertyOp53
 70
     1
102
RTVSPropertyOp54
 70
     1
102
RTVSPropertyOp55
 70
     1
102
RTVSPropertyOp56
 70
     1
102
RTVSPropertyOp57
 70
     1
102
RTVSPost2010Prop28
280
     0
102
RTVSPost2010PropOp28
 70
     1
102
RTVSPost2010Prop29
280
     1
102
RTVSPost2010PropOp29
 70
     1
102
RTVSPost2010Prop30
280
     1
102
RTVSPost2010PropOp30
 70
     1
102
RTVSPost2010Prop31
280
     0
102
RTVSPost2010PropOp31
 70
     1
102
RTVSPost2010Prop32
280
     0
102
RTVSPost2010PropOp32
 70
     1
102
RTVSPost2010Prop33
280
     0
102
RTVSPost2010PropOp33
 70
     1
102
RTVSPost2010Prop34
280
     0
102
RTVSPost2010PropOp34
 70
     1
102
RTVSPost2010Prop35
280
     0
102
RTVSPost2010PropOp35
 70
     1
102
RTVSPost2010Prop36
280
     0
102
RTVSPost2010PropOp36
 70
     1
102
RTVSPost2010Prop37
 90
       50
102
RTVSPost2010PropOp37
 70
     1
102
RTVSPost2010Prop38
140
0.0
102
RTVSPost2010PropOp38
 70
     1
102
RTVSPost2010Prop39
140
1.0
102
RTVSPost2010PropOp39
 70
     1
102
RTVSPost2010Prop40
 90
        0
102
RTVSPost2010PropOp40
 70
     1
102
RTVSPost2010Prop41ColorIndex
 90
       18
102
RTVSPost2010Prop41ColorRGB
 90
        0
102
RTVSPost2010PropOp41
 70
     1
102
RTVSPost2010Prop42
 90
       50
102
RTVSPost2010PropOp42
 70
     1
102
RTVSPost2010Prop43
 90
        3
102
RTVSPost2010PropOp43
 70
     1
102
RTVSPost2010Prop44ColorIndex
 90
        5
102
RTVSPost2010Prop44ColorRGB
 90
      255
102
RTVSPost2010PropOp44
 70
     1
102
RTVSPost2010Prop45
280
     0
102
RTVSPost2010PropOp45
 70
     1
102
RTVSPost2010Prop46
 90
       50
102
RTVSPost2010PropOp46
 70
     1
102
RTVSPost2010Prop47
 90
       50
102
RTVSPost2010PropOp47
 70
     1
102
RTVSPost2010Prop48
 90
       50
102
RTVSPost2010PropOp48
 70
     1
102
RTVSPost2010Prop49
280
     0
102
RTVSPost2010PropOp49
 70
     1
102
RTVSPost2010Prop50
 90
       50
102
RTVSPost2010PropOp50
 70
     1
102
RTVSPost2010Prop51ColorIndex
 90
      256
102
RTVSPost2010Prop51ColorRGB
 90
-16777216
102
RTVSPost2010PropOp51
 70
     0
102
RTVSPost2010Prop52
140
1.0
102
RTVSPost2010PropOp52
 70
     0
102
RTVSPost2010Prop53
 90
        2
102
RTVSPost2010PropOp53
 70
     1
102
RTVSPost2010Prop54
  1
strokes_ogs.tif
102
RTVSPost2010PropOp54
 70
     1
102
RTVSPost2010Prop55
280
     0
102
RTVSPost2010PropOp55
 70
     1
102
RTVSPost2010Prop56
140
1.0
102
RTVSPost2010PropOp56
 70
     1
102
RTVSPost2010Prop57
140
1.0
102
RTVSPost2010PropOp57
 70
     1
  0
XRECORD
  5
397
102
{ACAD_REACTORS
330
396
102
}
330
396
100
AcDbXrecord
280
     1
102
RTVSPropertyOp0
 70
     1
102
RTVSPropertyOp1
 70
     1
102
RTVSPropertyOp2
 70
     1
102
RTVSPropertyOp3
 70
     1
102
RTVSPropertyOp4
 70
     1
102
RTVSPropertyOp5
 70
     1
102
RTVSPropertyOp6
 70
     1
102
RTVSPropertyOp7
 70
     1
102
RTVSPropertyOp8
 70
     1
102
RTVSPropertyOp9
 70
     1
102
RTVSPropertyOp10
 70
     1
102
RTVSPropertyOp11
 70
     1
102
RTVSPropertyOp12
 70
     1
102
RTVSPropertyOp13
 70
     1
102
RTVSPropertyOp14
 70
     1
102
RTVSPropertyOp15
 70
     1
102
RTVSPropertyOp16
 70
     1
102
RTVSPropertyOp17
 70
     1
102
RTVSPropertyOp18
 70
     1
102
RTVSPropertyOp19
 70
     1
102
RTVSPropertyOp20
 70
     1
102
RTVSPropertyOp21
 70
     1
102
RTVSPropertyOp22
 70
     1
102
RTVSPropertyOp23
 70
     1
102
RTVSPropertyOp24
 70
     1
102
RTVSPropertyOp25
 70
     1
102
RTVSPropertyOp26
 70
     1
102
RTVSPropertyOp27
 70
     1
102
RTVSPropertyOp28
 70
     1
102
RTVSPropertyOp29
 70
     1
102
RTVSPropertyOp30
 70
     1
102
RTVSPropertyOp31
 70
     1
102
RTVSPropertyOp32
 70
     1
102
RTVSPropertyOp33
 70
     1
102
RTVSPropertyOp34
 70
     1
102
RTVSPropertyOp35
 70
     1
102
RTVSPropertyOp36
 70
     1
102
RTVSPropertyOp37
 70
     1
102
RTVSPropertyOp38
 70
     1
102
RTVSPropertyOp39
 70
     1
102
RTVSPropertyOp40
 70
     1
102
RTVSPropertyOp41
 70
     1
102
RTVSPropertyOp42
 70
     1
102
RTVSPropertyOp43
 70
     1
102
RTVSPropertyOp44
 70
     1
102
RTVSPropertyOp45
 70
     1
102
RTVSPropertyOp46
 70
     1
102
RTVSPropertyOp47
 70
     1
102
RTVSPropertyOp48
 70
     1
102
RTVSPropertyOp49
 70
     1
102
RTVSPropertyOp50
 70
     1
102
RTVSPropertyOp51
 70
     0
102
RTVSPropertyOp52
 70
     0
102
RTVSPropertyOp53
 70
     1
102
RTVSPropertyOp54
 70
     1
102
RTVSPropertyOp55
 70
     1
102
RTVSPropertyOp56
 70
     1
102
RTVSPropertyOp57
 70
     1
102
RTVSPost2010Prop28
280
     0
102
RTVSPost2010PropOp28
 70
     1
102
RTVSPost2010Prop29
280
     1
102
RTVSPost2010PropOp29
 70
     1
102
RTVSPost2010Prop30
280
     1
102
RTVSPost2010PropOp30
 70
     1
102
RTVSPost2010Prop31
280
     0
102
RTVSPost2010PropOp31
 70
     1
102
RTVSPost2010Prop32
280
     0
102
RTVSPost2010PropOp32
 70
     1
102
RTVSPost2010Prop33
280
     0
102
RTVSPost2010PropOp33
 70
     1
102
RTVSPost2010Prop34
280
     0
102
RTVSPost2010PropOp34
 70
     1
102
RTVSPost2010Prop35
280
     0
102
RTVSPost2010PropOp35
 70
     1
102
RTVSPost2010Prop36
280
     0
102
RTVSPost2010PropOp36
 70
     1
102
RTVSPost2010Prop37
 90
       50
102
RTVSPost2010PropOp37
 70
     1
102
RTVSPost2010Prop38
140
0.0
102
RTVSPost2010PropOp38
 70
     1
102
RTVSPost2010Prop39
140
1.0
102
RTVSPost2010PropOp39
 70
     1
102
RTVSPost2010Prop40
 90
        0
102
RTVSPost2010PropOp40
 70
     1
102
RTVSPost2010Prop41ColorIndex
 90
       18
102
RTVSPost2010Prop41ColorRGB
 90
        0
102
RTVSPost2010PropOp41
 70
     1
102
RTVSPost2010Prop42
 90
       50
102
RTVSPost2010PropOp42
 70
     1
102
RTVSPost2010Prop43
 90
        3
102
RTVSPost2010PropOp43
 70
     1
102
RTVSPost2010Prop44ColorIndex
 90
        5
102
RTVSPost2010Prop44ColorRGB
 90
      255
102
RTVSPost2010PropOp44
 70
     1
102
RTVSPost2010Prop45
280
     0
102
RTVSPost2010PropOp45
 70
     1
102
RTVSPost2010Prop46
 90
       50
102
RTVSPost2010PropOp46
 70
     1
102
RTVSPost2010Prop47
 90
       50
102
RTVSPost2010PropOp47
 70
     1
102
RTVSPost2010Prop48
 90
       50
102
RTVSPost2010PropOp48
 70
     1
102
RTVSPost2010Prop49
280
     0
102
RTVSPost2010PropOp49
 70
     1
102
RTVSPost2010Prop50
 90
       50
102
RTVSPost2010PropOp50
 70
     1
102
RTVSPost2010Prop51ColorIndex
 90
      256
102
RTVSPost2010Prop51ColorRGB
 90
-16777216
102
RTVSPost2010PropOp51
 70
     0
102
RTVSPost2010Prop52
140
1.0
102
RTVSPost2010PropOp52
 70
     0
102
RTVSPost2010Prop53
 90
        2
102
RTVSPost2010PropOp53
 70
     1
102
RTVSPost2010Prop54
  1
strokes_ogs.tif
102
RTVSPost2010PropOp54
 70
     1
102
RTVSPost2010Prop55
280
     0
102
RTVSPost2010PropOp55
 70
     1
102
RTVSPost2010Prop56
140
1.0
102
RTVSPost2010PropOp56
 70
     1
102
RTVSPost2010Prop57
140
1.0
102
RTVSPost2010PropOp57
 70
     1
  0
ENDSEC
  0
EOF
