  0
SECTION
  2
HEADER
  9
$ACADVER
  1
AC1018
  9
$ACADMAINTVER
 70
     0
  9
$DWGCODEPAGE
  3
ANSI_1252
  9
$INSBASE
 10
0.0
 20
0.0
 30
0.0
  9
$EXTMIN
 10
-291.0
 20
-699.0
 30
0.0
  9
$EXTMAX
 10
565.0
 20
34.0
 30
0.0
  9
$LIMMIN
 10
0.0
 20
0.0
  9
$LIMMAX
 10
12.0
 20
9.0
  9
$ORTHOMODE
 70
     0
  9
$REGENMODE
 70
     1
  9
$FILLMODE
 70
     1
  9
$QTEXTMODE
 70
     0
  9
$MIRRTEXT
 70
     1
  9
$LTSCALE
 40
1.0
  9
$ATTMODE
 70
     1
  9
$TEXTSIZE
 40
0.2
  9
$TRACEWID
 40
0.05
  9
$TEXTSTYLE
  7
Standard
  9
$CLAYER
  8
PREDEFINITO
  9
$CELTYPE
  6
ByLayer
  9
$CECOLOR
 62
   256
  9
$CELTSCALE
 40
1.0
  9
$DISPSILH
 70
     0
  9
$DIMSCALE
 40
1.0
  9
$DIMASZ
 40
0.18
  9
$DIMEXO
 40
0.0625
  9
$DIMDLI
 40
0.38
  9
$DIMRND
 40
0.0
  9
$DIMDLE
 40
0.0
  9
$DIMEXE
 40
0.18
  9
$DIMTP
 40
0.0
  9
$DIMTM
 40
0.0
  9
$DIMTXT
 40
0.18
  9
$DIMCEN
 40
0.09
  9
$DIMTSZ
 40
0.0
  9
$DIMTOL
 70
     0
  9
$DIMLIM
 70
     0
  9
$DIMTIH
 70
     1
  9
$DIMTOH
 70
     1
  9
$DIMSE1
 70
     0
  9
$DIMSE2
 70
     0
  9
$DIMTAD
 70
     0
  9
$DIMZIN
 70
     0
  9
$DIMBLK
  1

  9
$DIMASO
 70
     1
  9
$DIMSHO
 70
     1
  9
$DIMPOST
  1

  9
$DIMAPOST
  1

  9
$DIMALT
 70
     0
  9
$DIMALTD
 70
     2
  9
$DIMALTF
 40
25.4
  9
$DIMLFAC
 40
1.0
  9
$DIMTOFL
 70
     0
  9
$DIMTVP
 40
0.0
  9
$DIMTIX
 70
     0
  9
$DIMSOXD
 70
     0
  9
$DIMSAH
 70
     0
  9
$DIMBLK1
  1

  9
$DIMBLK2
  1

  9
$DIMSTYLE
  2
Standard
  9
$DIMCLRD
 70
     0
  9
$DIMCLRE
 70
     0
  9
$DIMCLRT
 70
     0
  9
$DIMTFAC
 40
1.0
  9
$DIMGAP
 40
0.09
  9
$DIMJUST
 70
     0
  9
$DIMSD1
 70
     0
  9
$DIMSD2
 70
     0
  9
$DIMTOLJ
 70
     1
  9
$DIMTZIN
 70
     0
  9
$DIMALTZ
 70
     0
  9
$DIMALTTZ
 70
     0
  9
$DIMUPT
 70
     0
  9
$DIMDEC
 70
     4
  9
$DIMTDEC
 70
     4
  9
$DIMALTU
 70
     2
  9
$DIMALTTD
 70
     2
  9
$DIMTXSTY
  7
Standard
  9
$DIMAUNIT
 70
     0
  9
$DIMADEC
 70
     0
  9
$DIMALTRND
 40
0.0
  9
$DIMAZIN
 70
     0
  9
$DIMDSEP
 70
    46
  9
$DIMATFIT
 70
     3
  9
$DIMFRAC
 70
     0
  9
$DIMLDRBLK
  1

  9
$DIMLUNIT
 70
     2
  9
$DIMLWD
 70
    -2
  9
$DIMLWE
 70
    -2
  9
$DIMTMOVE
 70
     2
  9
$LUNITS
 70
     2
  9
$LUPREC
 70
     2
  9
$SKETCHINC
 40
0.1
  9
$FILLETRAD
 40
0.5
  9
$AUNITS
 70
     0
  9
$AUPREC
 70
     0
  9
$MENU
  1
.
  9
$ELEVATION
 40
0.0
  9
$PELEVATION
 40
0.0
  9
$THICKNESS
 40
0.0
  9
$LIMCHECK
 70
     0
  9
$CHAMFERA
 40
0.5
  9
$CHAMFERB
 40
0.5
  9
$CHAMFERC
 40
1.0
  9
$CHAMFERD
 40
0.0
  9
$SKPOLY
 70
     0
  9
$TDCREATE
 40
2457577.705715382
  9
$TDUCREATE
 40
2457577.622382049
  9
$TDUPDATE
 40
2457577.705715394
  9
$TDUUPDATE
 40
2457577.62238206
  9
$TDINDWG
 40
0.0000000116
  9
$TDUSRTIMER
 40
0.0000000116
  9
$USRTIMER
 70
     1
  9
$ANGBASE
 50
0.0
  9
$ANGDIR
 70
     0
  9
$PDMODE
 70
     0
  9
$PDSIZE
 40
0.0
  9
$PLINEWID
 40
0.0
  9
$SPLFRAME
 70
     0
  9
$SPLINETYPE
 70
     6
  9
$SPLINESEGS
 70
     8
  9
$HANDSEED
  5
717
  9
$SURFTAB1
 70
     6
  9
$SURFTAB2
 70
     6
  9
$SURFTYPE
 70
     6
  9
$SURFU
 70
     6
  9
$SURFV
 70
     6
  9
$UCSBASE
  2

  9
$UCSNAME
  2

  9
$UCSORG
 10
0.0
 20
0.0
 30
0.0
  9
$UCSXDIR
 10
1.0
 20
0.0
 30
0.0
  9
$UCSYDIR
 10
0.0
 20
1.0
 30
0.0
  9
$UCSORTHOREF
  2

  9
$UCSORTHOVIEW
 70
     0
  9
$UCSORGTOP
 10
0.0
 20
0.0
 30
0.0
  9
$UCSORGBOTTOM
 10
0.0
 20
0.0
 30
0.0
  9
$UCSORGLEFT
 10
0.0
 20
0.0
 30
0.0
  9
$UCSORGRIGHT
 10
0.0
 20
0.0
 30
0.0
  9
$UCSORGFRONT
 10
0.0
 20
0.0
 30
0.0
  9
$UCSORGBACK
 10
0.0
 20
0.0
 30
0.0
  9
$PUCSBASE
  2

  9
$PUCSNAME
  2

  9
$PUCSORG
 10
0.0
 20
0.0
 30
0.0
  9
$PUCSXDIR
 10
1.0
 20
0.0
 30
0.0
  9
$PUCSYDIR
 10
0.0
 20
1.0
 30
0.0
  9
$PUCSORTHOREF
  2

  9
$PUCSORTHOVIEW
 70
     0
  9
$PUCSORGTOP
 10
0.0
 20
0.0
 30
0.0
  9
$PUCSORGBOTTOM
 10
0.0
 20
0.0
 30
0.0
  9
$PUCSORGLEFT
 10
0.0
 20
0.0
 30
0.0
  9
$PUCSORGRIGHT
 10
0.0
 20
0.0
 30
0.0
  9
$PUCSORGFRONT
 10
0.0
 20
0.0
 30
0.0
  9
$PUCSORGBACK
 10
0.0
 20
0.0
 30
0.0
  9
$USERI1
 70
     0
  9
$USERI2
 70
     0
  9
$USERI3
 70
     0
  9
$USERI4
 70
     0
  9
$USERI5
 70
     0
  9
$USERR1
 40
0.0
  9
$USERR2
 40
0.0
  9
$USERR3
 40
0.0
  9
$USERR4
 40
0.0
  9
$USERR5
 40
0.0
  9
$WORLDVIEW
 70
     1
  9
$SHADEDGE
 70
     3
  9
$SHADEDIF
 70
    70
  9
$TILEMODE
 70
     1
  9
$MAXACTVP
 70
    64
  9
$PINSBASE
 10
0.0
 20
0.0
 30
0.0
  9
$PLIMCHECK
 70
     0
  9
$PEXTMIN
 10
1.000000000000000E+20
 20
1.000000000000000E+20
 30
1.000000000000000E+20
  9
$PEXTMAX
 10
-1.000000000000000E+20
 20
-1.000000000000000E+20
 30
-1.000000000000000E+20
  9
$PLIMMIN
 10
0.0
 20
0.0
  9
$PLIMMAX
 10
12.0
 20
9.0
  9
$UNITMODE
 70
     0
  9
$VISRETAIN
 70
     1
  9
$PLINEGEN
 70
     0
  9
$PSLTSCALE
 70
     1
  9
$TREEDEPTH
 70
  3020
  9
$CMLSTYLE
  2
Standard
  9
$CMLJUST
 70
     0
  9
$CMLSCALE
 40
1.0
  9
$PROXYGRAPHICS
 70
     1
  9
$MEASUREMENT
 70
     0
  9
$CELWEIGHT
370
    -1
  9
$ENDCAPS
280
     0
  9
$JOINSTYLE
280
     0
  9
$LWDISPLAY
290
     0
  9
$INSUNITS
 70
     4
  9
$HYPERLINKBASE
  1

  9
$STYLESHEET
  1

  9
$XEDIT
290
     1
  9
$CEPSNTYPE
380
     0
  9
$PSTYLEMODE
290
     1
  9
$FINGERPRINTGUID
  2
{9A974019-D27A-43BA-84E8-80B35CF05F16}
  9
$VERSIONGUID
  2
{FAEB1C32-E019-11D5-929B-00C0DF256EC4}
  9
$EXTNAMES
290
     1
  9
$PSVPSCALE
 40
0.0
  9
$OLESTARTUP
290
     0
  9
$SORTENTS
280
   127
  9
$INDEXCTL
280
     0
  9
$HIDETEXT
280
     1
  9
$XCLIPFRAME
290
     0
  9
$HALOGAP
280
     0
  9
$OBSCOLOR
 70
   257
  9
$OBSLTYPE
280
     0
  9
$INTERSECTIONDISPLAY
280
     0
  9
$INTERSECTIONCOLOR
 70
   257
  9
$DIMASSOC
280
     2
  9
$PROJECTNAME
  1

  0
ENDSEC
  0
SECTION
  2
CLASSES
  0
CLASS
  1
ACDBDICTIONARYWDFLT
  2
AcDbDictionaryWithDefault
  3
ObjectDBX Classes
 90
        0
 91
        4
280
     0
281
     0
  0
CLASS
  1
VISUALSTYLE
  2
AcDbVisualStyle
  3
ObjectDBX Classes
 90
     4095
 91
        4
280
     0
281
     0
  0
ENDSEC
  0
SECTION
  2
TABLES
  0
TABLE
  2
VPORT
  5
8
330
0
100
AcDbSymbolTable
 70
     1
  0
VPORT
  5
29
330
8
100
AcDbSymbolTableRecord
100
AcDbViewportTableRecord
  2
*Active
 70
     0
 10
0.0
 20
0.0
 11
1.0
 21
1.0
 12
137.0
 22
-332.5
 13
0.0
 23
0.0
 14
0.5
 24
0.5
 15
0.5
 25
0.5
 16
0.0
 26
0.0
 36
1.0
 17
0.0
 27
0.0
 37
0.0
 40
747.66
 41
1.167803547066849
 42
50.0
 43
0.0
 44
0.0
 50
0.0
 51
0.0
 71
     0
 72
   100
 73
     1
 74
     3
 75
     0
 76
     0
 77
     0
 78
     0
281
     0
 65
     1
110
0.0
120
0.0
130
0.0
111
1.0
121
0.0
131
0.0
112
0.0
122
1.0
132
0.0
 79
     0
146
0.0
  0
ENDTAB
  0
TABLE
  2
LTYPE
  5
5
330
0
100
AcDbSymbolTable
 70
     1
  0
LTYPE
  5
14
330
5
100
AcDbSymbolTableRecord
100
AcDbLinetypeTableRecord
  2
ByBlock
 70
     0
  3

 72
    65
 73
     0
 40
0.0
  0
LTYPE
  5
15
330
5
100
AcDbSymbolTableRecord
100
AcDbLinetypeTableRecord
  2
ByLayer
 70
     0
  3

 72
    65
 73
     0
 40
0.0
  0
LTYPE
  5
16
330
5
100
AcDbSymbolTableRecord
100
AcDbLinetypeTableRecord
  2
Continuous
 70
     0
  3
Solid line
 72
    65
 73
     0
 40
0.0
  0
ENDTAB
  0
TABLE
  2
LAYER
  5
2
330
0
100
AcDbSymbolTable
 70
     5
  0
LAYER
  5
10
330
2
100
AcDbSymbolTableRecord
100
AcDbLayerTableRecord
  2
0
 70
     0
 62
     7
  6
Continuous
370
    -3
390
F
  0
LAYER
  5
3B
330
2
100
AcDbSymbolTableRecord
100
AcDbLayerTableRecord
  2
PREDEFINITO
 70
     0
 62
     7
  6
Continuous
370
    -3
390
F
  0
LAYER
  5
43
330
2
100
AcDbSymbolTableRecord
100
AcDbLayerTableRecord
  2
LIVELLO 03
 70
     0
 62
     5
  6
Continuous
370
    -3
390
F
  0
LAYER
  5
92
330
2
100
AcDbSymbolTableRecord
100
AcDbLayerTableRecord
  2
LIVELLO 04
 70
     0
 62
    98
  6
Continuous
370
    -3
390
F
  0
LAYER
  5
25B
330
2
100
AcDbSymbolTableRecord
100
AcDbLayerTableRecord
  2
LIVELLO 02
 70
     0
 62
   192
  6
Continuous
370
    -3
390
F
  0
ENDTAB
  0
TABLE
  2
STYLE
  5
3
330
0
100
AcDbSymbolTable
 70
     1
  0
STYLE
  5
11
330
3
100
AcDbSymbolTableRecord
100
AcDbTextStyleTableRecord
  2
Standard
 70
     0
 40
0.0
 41
1.0
 50
0.0
 71
     0
 42
0.2
  3
txt
  4

  0
ENDTAB
  0
TABLE
  2
VIEW
  5
6
330
0
100
AcDbSymbolTable
 70
     0
  0
ENDTAB
  0
TABLE
  2
UCS
  5
7
330
0
100
AcDbSymbolTable
 70
     0
  0
ENDTAB
  0
TABLE
  2
APPID
  5
9
330
0
100
AcDbSymbolTable
 70
     1
  0
APPID
  5
12
330
9
100
AcDbSymbolTableRecord
100
AcDbRegAppTableRecord
  2
ACAD
 70
     0
  0
ENDTAB
  0
TABLE
  2
DIMSTYLE
  5
A
330
0
100
AcDbSymbolTable
 70
     1
100
AcDbDimStyleTable
  0
DIMSTYLE
105
27
330
A
100
AcDbSymbolTableRecord
100
AcDbDimStyleTableRecord
  2
Standard
 70
     0
340
11
  0
ENDTAB
  0
TABLE
  2
BLOCK_RECORD
  5
1
330
0
100
AcDbSymbolTable
 70
     1
  0
BLOCK_RECORD
  5
1F
330
1
100
AcDbSymbolTableRecord
100
AcDbBlockTableRecord
  2
*Model_Space
340
22
  0
BLOCK_RECORD
  5
1B
330
1
100
AcDbSymbolTableRecord
100
AcDbBlockTableRecord
  2
*Paper_Space
340
1E
  0
BLOCK_RECORD
  5
23
330
1
100
AcDbSymbolTableRecord
100
AcDbBlockTableRecord
  2
*Paper_Space0
340
26
  0
ENDTAB
  0
ENDSEC
  0
SECTION
  2
BLOCKS
  0
BLOCK
  5
20
330
1F
100
AcDbEntity
  8
0
100
AcDbBlockBegin
  2
*Model_Space
 70
     0
 10
0.0
 20
0.0
 30
0.0
  3
*Model_Space
  1

  0
ENDBLK
  5
21
330
1F
100
AcDbEntity
  8
0
100
AcDbBlockEnd
  0
BLOCK
  5
1C
330
1B
100
AcDbEntity
 67
     1
  8
0
100
AcDbBlockBegin
  2
*Paper_Space
 70
     0
 10
0.0
 20
0.0
 30
0.0
  3
*Paper_Space
  1

  0
ENDBLK
  5
1D
330
1B
100
AcDbEntity
 67
     1
  8
0
100
AcDbBlockEnd
  0
BLOCK
  5
24
330
23
100
AcDbEntity
  8
0
100
AcDbBlockBegin
  2
*Paper_Space0
 70
     0
 10
0.0
 20
0.0
 30
0.0
  3
*Paper_Space0
  1

  0
ENDBLK
  5
25
330
23
100
AcDbEntity
  8
0
100
AcDbBlockEnd
  0
ENDSEC
  0
SECTION
  2
ENTITIES
  0
POLYLINE
  5
3C
330
1F
100
AcDbEntity
  8
PREDEFINITO
100
AcDb2dPolyline
 66
     1
 10
0.0
 20
0.0
 30
0.0
  0
VERTEX
  5
3D
330
3C
100
AcDbEntity
  8
PREDEFINITO
100
AcDbVertex
100
AcDb2dVertex
 10
-291.0
 20
-699.0
 30
0.0
  0
VERTEX
  5
3E
330
3C
100
AcDbEntity
  8
PREDEFINITO
100
AcDbVertex
100
AcDb2dVertex
 10
565.0
 20
-699.0
 30
0.0
  0
VERTEX
  5
3F
330
3C
100
AcDbEntity
  8
PREDEFINITO
100
AcDbVertex
100
AcDb2dVertex
 10
565.0
 20
34.0
 30
0.0
  0
VERTEX
  5
40
330
3C
100
AcDbEntity
  8
PREDEFINITO
100
AcDbVertex
100
AcDb2dVertex
 10
-291.0
 20
34.0
 30
0.0
  0
VERTEX
  5
41
330
3C
100
AcDbEntity
  8
PREDEFINITO
100
AcDbVertex
100
AcDb2dVertex
 10
-291.0
 20
-699.0
 30
0.0
  0
SEQEND
  5
42
330
3C
100
AcDbEntity
  8
PREDEFINITO
  0
LINE
  5
44
330
1F
100
AcDbEntity
  8
LIVELLO 03
100
AcDbLine
 10
-112.0
 20
-20.0
 30
0.0
 11
-116.0
 21
-20.0
 31
0.0
  0
LINE
  5
45
330
1F
100
AcDbEntity
  8
LIVELLO 03
100
AcDbLine
 10
-112.0
 20
-10.0
 30
0.0
 11
-112.0
 21
-20.0
 31
0.0
  0
LINE
  5
46
330
1F
100
AcDbEntity
  8
LIVELLO 03
100
AcDbLine
 10
-157.0
 20
-30.0
 30
0.0
 11
-153.0
 21
-30.0
 31
0.0
  0
LINE
  5
47
330
1F
100
AcDbEntity
  8
LIVELLO 03
100
AcDbLine
 10
-157.0
 20
-10.0
 30
0.0
 11
-153.0
 21
-10.0
 31
0.0
  0
LINE
  5
48
330
1F
100
AcDbEntity
  8
LIVELLO 03
100
AcDbLine
 10
-116.0
 20
-30.0
 30
0.0
 11
-112.0
 21
-30.0
 31
0.0
  0
LINE
  5
49
330
1F
100
AcDbEntity
  8
LIVELLO 03
100
AcDbLine
 10
-116.0
 20
-20.0
 30
0.0
 11
-116.0
 21
-30.0
 31
0.0
  0
LINE
  5
4A
330
1F
100
AcDbEntity
  8
LIVELLO 03
100
AcDbLine
 10
-167.0
 20
1.0
 30
0.0
 11
-175.0
 21
1.0
 31
0.0
  0
LINE
  5
4B
330
1F
100
AcDbEntity
  8
LIVELLO 03
100
AcDbLine
 10
-175.0
 20
1.0
 30
0.0
 11
-175.0
 21
-3.0
 31
0.0
  0
LINE
  5
4C
330
1F
100
AcDbEntity
  8
LIVELLO 03
100
AcDbLine
 10
-182.0
 20
-3.0
 30
0.0
 11
-182.0
 21
1.0
 31
0.0
  0
LINE
  5
4D
330
1F
100
AcDbEntity
  8
LIVELLO 03
100
AcDbLine
 10
-167.0
 20
-19.0
 30
0.0
 11
-167.0
 21
-9.0
 31
0.0
  0
LINE
  5
4E
330
1F
100
AcDbEntity
  8
LIVELLO 03
100
AcDbLine
 10
-167.0
 20
-9.0
 30
0.0
 11
-171.0
 21
-9.0
 31
0.0
  0
LINE
  5
4F
330
1F
100
AcDbEntity
  8
LIVELLO 03
100
AcDbLine
 10
-171.0
 20
-9.0
 30
0.0
 11
-171.0
 21
-3.0
 31
0.0
  0
LINE
  5
50
330
1F
100
AcDbEntity
  8
LIVELLO 03
100
AcDbLine
 10
-171.0
 20
-3.0
 30
0.0
 11
-167.0
 21
-3.0
 31
0.0
  0
LINE
  5
51
330
1F
100
AcDbEntity
  8
LIVELLO 03
100
AcDbLine
 10
-167.0
 20
-24.0
 30
0.0
 11
-171.0
 21
-24.0
 31
0.0
  0
LINE
  5
52
330
1F
100
AcDbEntity
  8
LIVELLO 03
100
AcDbLine
 10
-202.0
 20
1.0
 30
0.0
 11
-212.0
 21
1.0
 31
0.0
  0
LINE
  5
53
330
1F
100
AcDbEntity
  8
LIVELLO 03
100
AcDbLine
 10
-192.0
 20
1.0
 30
0.0
 11
-192.0
 21
-3.0
 31
0.0
  0
LINE
  5
54
330
1F
100
AcDbEntity
  8
LIVELLO 03
100
AcDbLine
 10
-176.0
 20
-41.0
 30
0.0
 11
-174.0
 21
-41.0
 31
0.0
  0
LINE
  5
55
330
1F
100
AcDbEntity
  8
LIVELLO 03
100
AcDbLine
 10
-174.0
 20
-37.0
 30
0.0
 11
-171.0
 21
-37.0
 31
0.0
  0
LINE
  5
56
330
1F
100
AcDbEntity
  8
LIVELLO 03
100
AcDbLine
 10
-192.0
 20
-37.0
 30
0.0
 11
-182.0
 21
-37.0
 31
0.0
  0
POLYLINE
  5
57
330
1F
100
AcDbEntity
  8
LIVELLO 03
100
AcDb2dPolyline
 66
     1
 10
0.0
 20
0.0
 30
0.0
  0
VERTEX
  5
58
330
57
100
AcDbEntity
  8
LIVELLO 03
100
AcDbVertex
100
AcDb2dVertex
 10
-153.0
 20
0.0
 30
0.0
  0
VERTEX
  5
59
330
57
100
AcDbEntity
  8
LIVELLO 03
100
AcDbVertex
100
AcDb2dVertex
 10
-142.0
 20
0.0
 30
0.0
  0
VERTEX
  5
5A
330
57
100
AcDbEntity
  8
LIVELLO 03
100
AcDbVertex
100
AcDb2dVertex
 10
-142.0
 20
-4.0
 30
0.0
  0
VERTEX
  5
5B
330
57
100
AcDbEntity
  8
LIVELLO 03
100
AcDbVertex
100
AcDb2dVertex
 10
-136.0
 20
-4.0
 30
0.0
  0
VERTEX
  5
5C
330
57
100
AcDbEntity
  8
LIVELLO 03
100
AcDbVertex
100
AcDb2dVertex
 10
-136.0
 20
0.0
 30
0.0
  0
VERTEX
  5
5D
330
57
100
AcDbEntity
  8
LIVELLO 03
100
AcDbVertex
100
AcDb2dVertex
 10
-131.0
 20
0.0
 30
0.0
  0
VERTEX
  5
5E
330
57
100
AcDbEntity
  8
LIVELLO 03
100
AcDbVertex
100
AcDb2dVertex
 10
-131.0
 20
-4.0
 30
0.0
  0
VERTEX
  5
5F
330
57
100
AcDbEntity
  8
LIVELLO 03
100
AcDbVertex
100
AcDb2dVertex
 10
-125.0
 20
-4.0
 30
0.0
  0
VERTEX
  5
60
330
57
100
AcDbEntity
  8
LIVELLO 03
100
AcDbVertex
100
AcDb2dVertex
 10
-125.0
 20
0.0
 30
0.0
  0
VERTEX
  5
61
330
57
100
AcDbEntity
  8
LIVELLO 03
100
AcDbVertex
100
AcDb2dVertex
 10
-116.0
 20
0.0
 30
0.0
  0
SEQEND
  5
62
330
57
100
AcDbEntity
  8
LIVELLO 03
  0
LINE
  5
63
330
1F
100
AcDbEntity
  8
LIVELLO 03
100
AcDbLine
 10
-153.0
 20
-10.0
 30
0.0
 11
-153.0
 21
0.0
 31
0.0
  0
SPLINE
  5
64
330
1F
100
AcDbEntity
  8
LIVELLO 03
100
AcDbSpline
210
0.0
220
0.0
230
1.0
 70
     8
 71
     2
 72
    22
 73
    19
 74
     0
 42
0.0000000001
 43
0.0000000001
 40
0.0
 40
0.0
 40
0.0
 40
8.5
 40
8.5
 40
11.5
 40
11.5
 40
18.5
 40
18.5
 40
21.5
 40
21.5
 40
31.5
 40
31.5
 40
34.5
 40
34.5
 40
41.5
 40
41.5
 40
44.5
 40
44.5
 40
49.0
 40
49.0
 40
49.0
 10
-116.0
 20
-38.0
 30
0.0
 10
-120.25
 20
-38.0
 30
0.0
 10
-124.5
 20
-38.0
 30
0.0
 10
-124.5
 20
-40.0
 30
0.0
 10
-124.5
 20
-42.0
 30
0.0
 10
-128.0
 20
-42.0
 30
0.0
 10
-131.5
 20
-42.0
 30
0.0
 10
-131.5
 20
-40.0
 30
0.0
 10
-131.5
 20
-38.0
 30
0.0
 10
-136.5
 20
-38.0
 30
0.0
 10
-141.5
 20
-38.0
 30
0.0
 10
-141.5
 20
-40.0
 30
0.0
 10
-141.5
 20
-42.0
 30
0.0
 10
-145.0
 20
-42.0
 30
0.0
 10
-148.5
 20
-42.0
 30
0.0
 10
-148.5
 20
-40.0
 30
0.0
 10
-148.5
 20
-38.0
 30
0.0
 10
-150.75
 20
-38.0
 30
0.0
 10
-153.0
 20
-38.0
 30
0.0
  0
LINE
  5
65
330
1F
100
AcDbEntity
  8
LIVELLO 03
100
AcDbLine
 10
-171.0
 20
-24.0
 30
0.0
 11
-171.0
 21
-19.0
 31
0.0
  0
LINE
  5
66
330
1F
100
AcDbEntity
  8
LIVELLO 03
100
AcDbLine
 10
-171.0
 20
-19.0
 30
0.0
 11
-167.0
 21
-19.0
 31
0.0
  0
LINE
  5
67
330
1F
100
AcDbEntity
  8
LIVELLO 03
100
AcDbLine
 10
-157.0
 20
-20.0
 30
0.0
 11
-157.0
 21
-10.0
 31
0.0
  0
LINE
  5
68
330
1F
100
AcDbEntity
  8
LIVELLO 03
100
AcDbLine
 10
-153.0
 20
-30.0
 30
0.0
 11
-153.0
 21
-20.0
 31
0.0
  0
LINE
  5
69
330
1F
100
AcDbEntity
  8
LIVELLO 03
100
AcDbLine
 10
-116.0
 20
-10.0
 30
0.0
 11
-112.0
 21
-10.0
 31
0.0
  0
LINE
  5
6A
330
1F
100
AcDbEntity
  8
LIVELLO 03
100
AcDbLine
 10
-116.0
 20
0.0
 30
0.0
 11
-116.0
 21
-10.0
 31
0.0
  0
LINE
  5
6B
330
1F
100
AcDbEntity
  8
LIVELLO 03
100
AcDbLine
 10
-202.0
 20
-37.0
 30
0.0
 11
-202.0
 21
-41.0
 31
0.0
  0
LINE
  5
6C
330
1F
100
AcDbEntity
  8
LIVELLO 03
100
AcDbLine
 10
-202.0
 20
-41.0
 30
0.0
 11
-192.0
 21
-41.0
 31
0.0
  0
LINE
  5
6D
330
1F
100
AcDbEntity
  8
LIVELLO 03
100
AcDbLine
 10
-192.0
 20
-41.0
 30
0.0
 11
-192.0
 21
-37.0
 31
0.0
  0
LINE
  5
6E
330
1F
100
AcDbEntity
  8
LIVELLO 03
100
AcDbLine
 10
-182.0
 20
-37.0
 30
0.0
 11
-182.0
 21
-41.0
 31
0.0
  0
LINE
  5
6F
330
1F
100
AcDbEntity
  8
LIVELLO 03
100
AcDbLine
 10
-182.0
 20
-41.0
 30
0.0
 11
-176.0
 21
-41.0
 31
0.0
  0
LINE
  5
70
330
1F
100
AcDbEntity
  8
LIVELLO 03
100
AcDbLine
 10
-171.0
 20
-30.0
 30
0.0
 11
-167.0
 21
-30.0
 31
0.0
  0
LINE
  5
71
330
1F
100
AcDbEntity
  8
LIVELLO 03
100
AcDbLine
 10
-167.0
 20
-30.0
 30
0.0
 11
-167.0
 21
-24.0
 31
0.0
  0
LINE
  5
72
330
1F
100
AcDbEntity
  8
LIVELLO 03
100
AcDbLine
 10
-171.0
 20
-37.0
 30
0.0
 11
-171.0
 21
-30.0
 31
0.0
  0
LINE
  5
73
330
1F
100
AcDbEntity
  8
LIVELLO 03
100
AcDbLine
 10
-208.0
 20
-3.0
 30
0.0
 11
-208.0
 21
-9.0
 31
0.0
  0
LINE
  5
74
330
1F
100
AcDbEntity
  8
LIVELLO 03
100
AcDbLine
 10
-212.0
 20
-9.0
 30
0.0
 11
-212.0
 21
-19.0
 31
0.0
  0
LINE
  5
75
330
1F
100
AcDbEntity
  8
LIVELLO 03
100
AcDbLine
 10
-208.0
 20
-19.0
 30
0.0
 11
-208.0
 21
-24.0
 31
0.0
  0
LINE
  5
76
330
1F
100
AcDbEntity
  8
LIVELLO 03
100
AcDbLine
 10
-153.0
 20
-20.0
 30
0.0
 11
-157.0
 21
-20.0
 31
0.0
  0
POLYLINE
  5
77
330
1F
100
AcDbEntity
  8
LIVELLO 03
100
AcDb2dPolyline
 66
     1
 10
0.0
 20
0.0
 30
0.0
  0
VERTEX
  5
78
330
77
100
AcDbEntity
  8
LIVELLO 03
100
AcDbVertex
100
AcDb2dVertex
 10
-153.0
 20
-38.0
 30
0.0
  0
VERTEX
  5
79
330
77
100
AcDbEntity
  8
LIVELLO 03
100
AcDbVertex
100
AcDb2dVertex
 10
-157.0
 20
-38.0
 30
0.0
  0
VERTEX
  5
7A
330
77
100
AcDbEntity
  8
LIVELLO 03
100
AcDbVertex
100
AcDb2dVertex
 10
-157.0
 20
-30.0
 30
0.0
  0
SEQEND
  5
7B
330
77
100
AcDbEntity
  8
LIVELLO 03
  0
POLYLINE
  5
7C
330
1F
100
AcDbEntity
  8
LIVELLO 03
100
AcDb2dPolyline
 66
     1
 10
0.0
 20
0.0
 30
0.0
  0
VERTEX
  5
7D
330
7C
100
AcDbEntity
  8
LIVELLO 03
100
AcDbVertex
100
AcDb2dVertex
 10
-112.0
 20
-30.0
 30
0.0
  0
VERTEX
  5
7E
330
7C
100
AcDbEntity
  8
LIVELLO 03
100
AcDbVertex
100
AcDb2dVertex
 10
-112.0
 20
-38.0
 30
0.0
  0
VERTEX
  5
7F
330
7C
100
AcDbEntity
  8
LIVELLO 03
100
AcDbVertex
100
AcDb2dVertex
 10
-116.0
 20
-38.0
 30
0.0
  0
SEQEND
  5
80
330
7C
100
AcDbEntity
  8
LIVELLO 03
  0
LINE
  5
81
330
1F
100
AcDbEntity
  8
LIVELLO 03
100
AcDbLine
 10
-212.0
 20
-3.0
 30
0.0
 11
-208.0
 21
-3.0
 31
0.0
  0
LINE
  5
82
330
1F
100
AcDbEntity
  8
LIVELLO 03
100
AcDbLine
 10
-202.0
 20
-3.0
 30
0.0
 11
-202.0
 21
1.0
 31
0.0
  0
LINE
  5
83
330
1F
100
AcDbEntity
  8
LIVELLO 03
100
AcDbLine
 10
-208.0
 20
-24.0
 30
0.0
 11
-208.0
 21
-19.0
 31
0.0
  0
LINE
  5
84
330
1F
100
AcDbEntity
  8
LIVELLO 03
100
AcDbLine
 10
-212.0
 20
-24.0
 30
0.0
 11
-212.0
 21
-30.0
 31
0.0
  0
LINE
  5
85
330
1F
100
AcDbEntity
  8
LIVELLO 03
100
AcDbLine
 10
-208.0
 20
-30.0
 30
0.0
 11
-208.0
 21
-37.0
 31
0.0
  0
LINE
  5
86
330
1F
100
AcDbEntity
  8
LIVELLO 03
100
AcDbLine
 10
-208.0
 20
-24.0
 30
0.0
 11
-212.0
 21
-24.0
 31
0.0
  0
LINE
  5
87
330
1F
100
AcDbEntity
  8
LIVELLO 03
100
AcDbLine
 10
-175.0
 20
-3.0
 30
0.0
 11
-182.0
 21
-3.0
 31
0.0
  0
LINE
  5
88
330
1F
100
AcDbEntity
  8
LIVELLO 03
100
AcDbLine
 10
-182.0
 20
1.0
 30
0.0
 11
-192.0
 21
1.0
 31
0.0
  0
LINE
  5
89
330
1F
100
AcDbEntity
  8
LIVELLO 03
100
AcDbLine
 10
-212.0
 20
1.0
 30
0.0
 11
-212.0
 21
-3.0
 31
0.0
  0
LINE
  5
8A
330
1F
100
AcDbEntity
  8
LIVELLO 03
100
AcDbLine
 10
-167.0
 20
-3.0
 30
0.0
 11
-167.0
 21
1.0
 31
0.0
  0
LINE
  5
8B
330
1F
100
AcDbEntity
  8
LIVELLO 03
100
AcDbLine
 10
-208.0
 20
-9.0
 30
0.0
 11
-212.0
 21
-9.0
 31
0.0
  0
LINE
  5
8C
330
1F
100
AcDbEntity
  8
LIVELLO 03
100
AcDbLine
 10
-208.0
 20
-19.0
 30
0.0
 11
-208.0
 21
-24.0
 31
0.0
  0
LINE
  5
8D
330
1F
100
AcDbEntity
  8
LIVELLO 03
100
AcDbLine
 10
-212.0
 20
-19.0
 30
0.0
 11
-208.0
 21
-19.0
 31
0.0
  0
LINE
  5
8E
330
1F
100
AcDbEntity
  8
LIVELLO 03
100
AcDbLine
 10
-192.0
 20
-3.0
 30
0.0
 11
-202.0
 21
-3.0
 31
0.0
  0
LINE
  5
8F
330
1F
100
AcDbEntity
  8
LIVELLO 03
100
AcDbLine
 10
-212.0
 20
-30.0
 30
0.0
 11
-208.0
 21
-30.0
 31
0.0
  0
LINE
  5
90
330
1F
100
AcDbEntity
  8
LIVELLO 03
100
AcDbLine
 10
-208.0
 20
-37.0
 30
0.0
 11
-202.0
 21
-37.0
 31
0.0
  0
LINE
  5
91
330
1F
100
AcDbEntity
  8
LIVELLO 03
100
AcDbLine
 10
-174.0
 20
-41.0
 30
0.0
 11
-174.0
 21
-37.0
 31
0.0
  0
CIRCLE
  5
93
330
1F
100
AcDbEntity
  8
LIVELLO 04
100
AcDbCircle
 10
-139.0
 20
-110.5
 30
0.0
 40
3.5
  0
CIRCLE
  5
94
330
1F
100
AcDbEntity
  8
LIVELLO 04
100
AcDbCircle
 10
-115.0
 20
-176.5
 30
0.0
 40
3.5
  0
CIRCLE
  5
95
330
1F
100
AcDbEntity
  8
LIVELLO 04
100
AcDbCircle
 10
-115.0
 20
-110.5
 30
0.0
 40
3.5
  0
CIRCLE
  5
96
330
1F
100
AcDbEntity
  8
LIVELLO 04
100
AcDbCircle
 10
-91.0
 20
-110.5
 30
0.0
 40
3.5
  0
CIRCLE
  5
97
330
1F
100
AcDbEntity
  8
LIVELLO 04
100
AcDbCircle
 10
-67.0
 20
-110.5
 30
0.0
 40
3.5
  0
CIRCLE
  5
98
330
1F
100
AcDbEntity
  8
LIVELLO 04
100
AcDbCircle
 10
-43.0
 20
-110.5
 30
0.0
 40
3.5
  0
CIRCLE
  5
99
330
1F
100
AcDbEntity
  8
LIVELLO 04
100
AcDbCircle
 10
-19.0
 20
-110.5
 30
0.0
 40
3.5
  0
CIRCLE
  5
9A
330
1F
100
AcDbEntity
  8
LIVELLO 04
100
AcDbCircle
 10
5.0
 20
-110.5
 30
0.0
 40
3.5
  0
CIRCLE
  5
9B
330
1F
100
AcDbEntity
  8
LIVELLO 04
100
AcDbCircle
 10
29.0
 20
-110.5
 30
0.0
 40
3.5
  0
CIRCLE
  5
9C
330
1F
100
AcDbEntity
  8
LIVELLO 04
100
AcDbCircle
 10
53.0
 20
-110.5
 30
0.0
 40
3.5
  0
CIRCLE
  5
9D
330
1F
100
AcDbEntity
  8
LIVELLO 04
100
AcDbCircle
 10
77.0
 20
-110.5
 30
0.0
 40
3.5
  0
CIRCLE
  5
9E
330
1F
100
AcDbEntity
  8
LIVELLO 04
100
AcDbCircle
 10
101.0
 20
-110.5
 30
0.0
 40
3.5
  0
POLYLINE
  5
9F
330
1F
100
AcDbEntity
  8
LIVELLO 04
100
AcDb2dPolyline
 66
     1
 10
0.0
 20
0.0
 30
0.0
  0
VERTEX
  5
A0
330
9F
100
AcDbEntity
  8
LIVELLO 04
100
AcDbVertex
100
AcDb2dVertex
 10
113.0
 20
-122.0
 30
0.0
  0
VERTEX
  5
A1
330
9F
100
AcDbEntity
  8
LIVELLO 04
100
AcDbVertex
100
AcDb2dVertex
 10
113.0
 20
-99.0
 30
0.0
  0
SEQEND
  5
A2
330
9F
100
AcDbEntity
  8
LIVELLO 04
  0
CIRCLE
  5
A3
330
1F
100
AcDbEntity
  8
LIVELLO 04
100
AcDbCircle
 10
-91.0
 20
-176.5
 30
0.0
 40
3.5
  0
CIRCLE
  5
A4
330
1F
100
AcDbEntity
  8
LIVELLO 04
100
AcDbCircle
 10
-67.0
 20
-176.5
 30
0.0
 40
3.5
  0
CIRCLE
  5
A5
330
1F
100
AcDbEntity
  8
LIVELLO 04
100
AcDbCircle
 10
-43.0
 20
-176.5
 30
0.0
 40
3.5
  0
CIRCLE
  5
A6
330
1F
100
AcDbEntity
  8
LIVELLO 04
100
AcDbCircle
 10
-19.0
 20
-176.5
 30
0.0
 40
3.5
  0
CIRCLE
  5
A7
330
1F
100
AcDbEntity
  8
LIVELLO 04
100
AcDbCircle
 10
5.0
 20
-176.5
 30
0.0
 40
3.5
  0
CIRCLE
  5
A8
330
1F
100
AcDbEntity
  8
LIVELLO 04
100
AcDbCircle
 10
29.0
 20
-176.5
 30
0.0
 40
3.5
  0
CIRCLE
  5
A9
330
1F
100
AcDbEntity
  8
LIVELLO 04
100
AcDbCircle
 10
53.0
 20
-176.5
 30
0.0
 40
3.5
  0
CIRCLE
  5
AA
330
1F
100
AcDbEntity
  8
LIVELLO 04
100
AcDbCircle
 10
77.0
 20
-176.5
 30
0.0
 40
3.5
  0
CIRCLE
  5
AB
330
1F
100
AcDbEntity
  8
LIVELLO 04
100
AcDbCircle
 10
101.0
 20
-176.5
 30
0.0
 40
3.5
  0
POLYLINE
  5
AC
330
1F
100
AcDbEntity
  8
LIVELLO 04
100
AcDb2dPolyline
 66
     1
 10
0.0
 20
0.0
 30
0.0
  0
VERTEX
  5
AD
330
AC
100
AcDbEntity
  8
LIVELLO 04
100
AcDbVertex
100
AcDb2dVertex
 10
-199.0
 20
-69.0
 30
0.0
  0
VERTEX
  5
AE
330
AC
100
AcDbEntity
  8
LIVELLO 04
100
AcDbVertex
100
AcDb2dVertex
 10
-175.0
 20
-69.0
 30
0.0
  0
VERTEX
  5
AF
330
AC
100
AcDbEntity
  8
LIVELLO 04
100
AcDbVertex
100
AcDb2dVertex
 10
-175.0
 20
-72.0
 30
0.0
  0
VERTEX
  5
B0
330
AC
100
AcDbEntity
  8
LIVELLO 04
100
AcDbVertex
100
AcDb2dVertex
 10
-151.0
 20
-72.0
 30
0.0
  0
VERTEX
  5
B1
330
AC
100
AcDbEntity
  8
LIVELLO 04
100
AcDbVertex
100
AcDb2dVertex
 10
-151.0
 20
-69.0
 30
0.0
  0
VERTEX
  5
B2
330
AC
100
AcDbEntity
  8
LIVELLO 04
100
AcDbVertex
100
AcDb2dVertex
 10
-127.0
 20
-69.0
 30
0.0
  0
VERTEX
  5
B3
330
AC
100
AcDbEntity
  8
LIVELLO 04
100
AcDbVertex
100
AcDb2dVertex
 10
-127.0
 20
-72.0
 30
0.0
  0
VERTEX
  5
B4
330
AC
100
AcDbEntity
  8
LIVELLO 04
100
AcDbVertex
100
AcDb2dVertex
 10
-103.0
 20
-72.0
 30
0.0
  0
VERTEX
  5
B5
330
AC
100
AcDbEntity
  8
LIVELLO 04
100
AcDbVertex
100
AcDb2dVertex
 10
-103.0
 20
-69.0
 30
0.0
  0
VERTEX
  5
B6
330
AC
100
AcDbEntity
  8
LIVELLO 04
100
AcDbVertex
100
AcDb2dVertex
 10
-79.0
 20
-69.0
 30
0.0
  0
VERTEX
  5
B7
330
AC
100
AcDbEntity
  8
LIVELLO 04
100
AcDbVertex
100
AcDb2dVertex
 10
-79.0
 20
-72.0
 30
0.0
  0
VERTEX
  5
B8
330
AC
100
AcDbEntity
  8
LIVELLO 04
100
AcDbVertex
100
AcDb2dVertex
 10
-55.0
 20
-72.0
 30
0.0
  0
VERTEX
  5
B9
330
AC
100
AcDbEntity
  8
LIVELLO 04
100
AcDbVertex
100
AcDb2dVertex
 10
-55.0
 20
-69.0
 30
0.0
  0
VERTEX
  5
BA
330
AC
100
AcDbEntity
  8
LIVELLO 04
100
AcDbVertex
100
AcDb2dVertex
 10
-31.0
 20
-69.0
 30
0.0
  0
VERTEX
  5
BB
330
AC
100
AcDbEntity
  8
LIVELLO 04
100
AcDbVertex
100
AcDb2dVertex
 10
-31.0
 20
-72.0
 30
0.0
  0
VERTEX
  5
BC
330
AC
100
AcDbEntity
  8
LIVELLO 04
100
AcDbVertex
100
AcDb2dVertex
 10
-7.0
 20
-72.0
 30
0.0
  0
VERTEX
  5
BD
330
AC
100
AcDbEntity
  8
LIVELLO 04
100
AcDbVertex
100
AcDb2dVertex
 10
-7.0
 20
-69.0
 30
0.0
  0
VERTEX
  5
BE
330
AC
100
AcDbEntity
  8
LIVELLO 04
100
AcDbVertex
100
AcDb2dVertex
 10
17.0
 20
-69.0
 30
0.0
  0
VERTEX
  5
BF
330
AC
100
AcDbEntity
  8
LIVELLO 04
100
AcDbVertex
100
AcDb2dVertex
 10
17.0
 20
-72.0
 30
0.0
  0
VERTEX
  5
C0
330
AC
100
AcDbEntity
  8
LIVELLO 04
100
AcDbVertex
100
AcDb2dVertex
 10
41.0
 20
-72.0
 30
0.0
  0
VERTEX
  5
C1
330
AC
100
AcDbEntity
  8
LIVELLO 04
100
AcDbVertex
100
AcDb2dVertex
 10
41.0
 20
-69.0
 30
0.0
  0
VERTEX
  5
C2
330
AC
100
AcDbEntity
  8
LIVELLO 04
100
AcDbVertex
100
AcDb2dVertex
 10
65.0
 20
-69.0
 30
0.0
  0
VERTEX
  5
C3
330
AC
100
AcDbEntity
  8
LIVELLO 04
100
AcDbVertex
100
AcDb2dVertex
 10
65.0
 20
-72.0
 30
0.0
  0
VERTEX
  5
C4
330
AC
100
AcDbEntity
  8
LIVELLO 04
100
AcDbVertex
100
AcDb2dVertex
 10
89.0
 20
-72.0
 30
0.0
  0
VERTEX
  5
C5
330
AC
100
AcDbEntity
  8
LIVELLO 04
100
AcDbVertex
100
AcDb2dVertex
 10
89.0
 20
-69.0
 30
0.0
  0
VERTEX
  5
C6
330
AC
100
AcDbEntity
  8
LIVELLO 04
100
AcDbVertex
100
AcDb2dVertex
 10
113.0
 20
-69.0
 30
0.0
  0
SEQEND
  5
C7
330
AC
100
AcDbEntity
  8
LIVELLO 04
  0
POLYLINE
  5
C8
330
1F
100
AcDbEntity
  8
LIVELLO 04
100
AcDb2dPolyline
 66
     1
 10
0.0
 20
0.0
 30
0.0
  0
VERTEX
  5
C9
330
C8
100
AcDbEntity
  8
LIVELLO 04
100
AcDbVertex
100
AcDb2dVertex
 10
-199.0
 20
-89.0
 30
0.0
  0
VERTEX
  5
CA
330
C8
100
AcDbEntity
  8
LIVELLO 04
100
AcDbVertex
100
AcDb2dVertex
 10
-199.0
 20
-86.0
 30
0.0
  0
VERTEX
  5
CB
330
C8
100
AcDbEntity
  8
LIVELLO 04
100
AcDbVertex
100
AcDb2dVertex
 10
-196.0
 20
-86.0
 30
0.0
  0
VERTEX
  5
CC
330
C8
100
AcDbEntity
  8
LIVELLO 04
100
AcDbVertex
100
AcDb2dVertex
 10
-196.0
 20
-72.0
 30
0.0
  0
VERTEX
  5
CD
330
C8
100
AcDbEntity
  8
LIVELLO 04
100
AcDbVertex
100
AcDb2dVertex
 10
-199.0
 20
-72.0
 30
0.0
  0
VERTEX
  5
CE
330
C8
100
AcDbEntity
  8
LIVELLO 04
100
AcDbVertex
100
AcDb2dVertex
 10
-199.0
 20
-69.0
 30
0.0
  0
SEQEND
  5
CF
330
C8
100
AcDbEntity
  8
LIVELLO 04
  0
POLYLINE
  5
D0
330
1F
100
AcDbEntity
  8
LIVELLO 04
100
AcDb2dPolyline
 66
     1
 10
0.0
 20
0.0
 30
0.0
  0
VERTEX
  5
D1
330
D0
100
AcDbEntity
  8
LIVELLO 04
100
AcDbVertex
100
AcDb2dVertex
 10
113.0
 20
-89.0
 30
0.0
  0
VERTEX
  5
D2
330
D0
100
AcDbEntity
  8
LIVELLO 04
100
AcDbVertex
100
AcDb2dVertex
 10
89.0
 20
-89.0
 30
0.0
  0
VERTEX
  5
D3
330
D0
100
AcDbEntity
  8
LIVELLO 04
100
AcDbVertex
100
AcDb2dVertex
 10
89.0
 20
-86.0
 30
0.0
  0
VERTEX
  5
D4
330
D0
100
AcDbEntity
  8
LIVELLO 04
100
AcDbVertex
100
AcDb2dVertex
 10
65.0
 20
-86.0
 30
0.0
  0
VERTEX
  5
D5
330
D0
100
AcDbEntity
  8
LIVELLO 04
100
AcDbVertex
100
AcDb2dVertex
 10
65.0
 20
-89.0
 30
0.0
  0
VERTEX
  5
D6
330
D0
100
AcDbEntity
  8
LIVELLO 04
100
AcDbVertex
100
AcDb2dVertex
 10
41.0
 20
-89.0
 30
0.0
  0
VERTEX
  5
D7
330
D0
100
AcDbEntity
  8
LIVELLO 04
100
AcDbVertex
100
AcDb2dVertex
 10
41.0
 20
-86.0
 30
0.0
  0
VERTEX
  5
D8
330
D0
100
AcDbEntity
  8
LIVELLO 04
100
AcDbVertex
100
AcDb2dVertex
 10
17.0
 20
-86.0
 30
0.0
  0
VERTEX
  5
D9
330
D0
100
AcDbEntity
  8
LIVELLO 04
100
AcDbVertex
100
AcDb2dVertex
 10
17.0
 20
-89.0
 30
0.0
  0
VERTEX
  5
DA
330
D0
100
AcDbEntity
  8
LIVELLO 04
100
AcDbVertex
100
AcDb2dVertex
 10
-7.0
 20
-89.0
 30
0.0
  0
VERTEX
  5
DB
330
D0
100
AcDbEntity
  8
LIVELLO 04
100
AcDbVertex
100
AcDb2dVertex
 10
-7.0
 20
-86.0
 30
0.0
  0
VERTEX
  5
DC
330
D0
100
AcDbEntity
  8
LIVELLO 04
100
AcDbVertex
100
AcDb2dVertex
 10
-31.0
 20
-86.0
 30
0.0
  0
VERTEX
  5
DD
330
D0
100
AcDbEntity
  8
LIVELLO 04
100
AcDbVertex
100
AcDb2dVertex
 10
-31.0
 20
-89.0
 30
0.0
  0
VERTEX
  5
DE
330
D0
100
AcDbEntity
  8
LIVELLO 04
100
AcDbVertex
100
AcDb2dVertex
 10
-55.0
 20
-89.0
 30
0.0
  0
VERTEX
  5
DF
330
D0
100
AcDbEntity
  8
LIVELLO 04
100
AcDbVertex
100
AcDb2dVertex
 10
-55.0
 20
-86.0
 30
0.0
  0
VERTEX
  5
E0
330
D0
100
AcDbEntity
  8
LIVELLO 04
100
AcDbVertex
100
AcDb2dVertex
 10
-79.0
 20
-86.0
 30
0.0
  0
VERTEX
  5
E1
330
D0
100
AcDbEntity
  8
LIVELLO 04
100
AcDbVertex
100
AcDb2dVertex
 10
-79.0
 20
-89.0
 30
0.0
  0
VERTEX
  5
E2
330
D0
100
AcDbEntity
  8
LIVELLO 04
100
AcDbVertex
100
AcDb2dVertex
 10
-103.0
 20
-89.0
 30
0.0
  0
VERTEX
  5
E3
330
D0
100
AcDbEntity
  8
LIVELLO 04
100
AcDbVertex
100
AcDb2dVertex
 10
-103.0
 20
-86.0
 30
0.0
  0
VERTEX
  5
E4
330
D0
100
AcDbEntity
  8
LIVELLO 04
100
AcDbVertex
100
AcDb2dVertex
 10
-127.0
 20
-86.0
 30
0.0
  0
VERTEX
  5
E5
330
D0
100
AcDbEntity
  8
LIVELLO 04
100
AcDbVertex
100
AcDb2dVertex
 10
-127.0
 20
-89.0
 30
0.0
  0
VERTEX
  5
E6
330
D0
100
AcDbEntity
  8
LIVELLO 04
100
AcDbVertex
100
AcDb2dVertex
 10
-151.0
 20
-89.0
 30
0.0
  0
VERTEX
  5
E7
330
D0
100
AcDbEntity
  8
LIVELLO 04
100
AcDbVertex
100
AcDb2dVertex
 10
-151.0
 20
-86.0
 30
0.0
  0
VERTEX
  5
E8
330
D0
100
AcDbEntity
  8
LIVELLO 04
100
AcDbVertex
100
AcDb2dVertex
 10
-175.0
 20
-86.0
 30
0.0
  0
VERTEX
  5
E9
330
D0
100
AcDbEntity
  8
LIVELLO 04
100
AcDbVertex
100
AcDb2dVertex
 10
-175.0
 20
-89.0
 30
0.0
  0
VERTEX
  5
EA
330
D0
100
AcDbEntity
  8
LIVELLO 04
100
AcDbVertex
100
AcDb2dVertex
 10
-199.0
 20
-89.0
 30
0.0
  0
SEQEND
  5
EB
330
D0
100
AcDbEntity
  8
LIVELLO 04
  0
POLYLINE
  5
EC
330
1F
100
AcDbEntity
  8
LIVELLO 04
100
AcDb2dPolyline
 66
     1
 10
0.0
 20
0.0
 30
0.0
  0
VERTEX
  5
ED
330
EC
100
AcDbEntity
  8
LIVELLO 04
100
AcDbVertex
100
AcDb2dVertex
 10
113.0
 20
-69.0
 30
0.0
  0
VERTEX
  5
EE
330
EC
100
AcDbEntity
  8
LIVELLO 04
100
AcDbVertex
100
AcDb2dVertex
 10
113.0
 20
-72.0
 30
0.0
  0
VERTEX
  5
EF
330
EC
100
AcDbEntity
  8
LIVELLO 04
100
AcDbVertex
100
AcDb2dVertex
 10
110.0
 20
-72.0
 30
0.0
  0
VERTEX
  5
F0
330
EC
100
AcDbEntity
  8
LIVELLO 04
100
AcDbVertex
100
AcDb2dVertex
 10
110.0
 20
-86.0
 30
0.0
  0
VERTEX
  5
F1
330
EC
100
AcDbEntity
  8
LIVELLO 04
100
AcDbVertex
100
AcDb2dVertex
 10
113.0
 20
-86.0
 30
0.0
  0
VERTEX
  5
F2
330
EC
100
AcDbEntity
  8
LIVELLO 04
100
AcDbVertex
100
AcDb2dVertex
 10
113.0
 20
-89.0
 30
0.0
  0
SEQEND
  5
F3
330
EC
100
AcDbEntity
  8
LIVELLO 04
  0
POLYLINE
  5
F4
330
1F
100
AcDbEntity
  8
LIVELLO 04
100
AcDb2dPolyline
 66
     1
 10
0.0
 20
0.0
 30
0.0
  0
VERTEX
  5
F5
330
F4
100
AcDbEntity
  8
LIVELLO 04
100
AcDbVertex
100
AcDb2dVertex
 10
-199.0
 20
-122.0
 30
0.0
  0
VERTEX
  5
F6
330
F4
100
AcDbEntity
  8
LIVELLO 04
100
AcDbVertex
100
AcDb2dVertex
 10
-175.0
 20
-122.0
 30
0.0
  0
VERTEX
  5
F7
330
F4
100
AcDbEntity
  8
LIVELLO 04
100
AcDbVertex
100
AcDb2dVertex
 10
-175.0
 20
-125.0
 30
0.0
  0
VERTEX
  5
F8
330
F4
100
AcDbEntity
  8
LIVELLO 04
100
AcDbVertex
100
AcDb2dVertex
 10
-151.0
 20
-125.0
 30
0.0
  0
VERTEX
  5
F9
330
F4
100
AcDbEntity
  8
LIVELLO 04
100
AcDbVertex
100
AcDb2dVertex
 10
-151.0
 20
-122.0
 30
0.0
  0
VERTEX
  5
FA
330
F4
100
AcDbEntity
  8
LIVELLO 04
100
AcDbVertex
100
AcDb2dVertex
 10
-127.0
 20
-122.0
 30
0.0
  0
VERTEX
  5
FB
330
F4
100
AcDbEntity
  8
LIVELLO 04
100
AcDbVertex
100
AcDb2dVertex
 10
-127.0
 20
-125.0
 30
0.0
  0
VERTEX
  5
FC
330
F4
100
AcDbEntity
  8
LIVELLO 04
100
AcDbVertex
100
AcDb2dVertex
 10
-103.0
 20
-125.0
 30
0.0
  0
VERTEX
  5
FD
330
F4
100
AcDbEntity
  8
LIVELLO 04
100
AcDbVertex
100
AcDb2dVertex
 10
-103.0
 20
-122.0
 30
0.0
  0
VERTEX
  5
FE
330
F4
100
AcDbEntity
  8
LIVELLO 04
100
AcDbVertex
100
AcDb2dVertex
 10
-79.0
 20
-122.0
 30
0.0
  0
VERTEX
  5
FF
330
F4
100
AcDbEntity
  8
LIVELLO 04
100
AcDbVertex
100
AcDb2dVertex
 10
-79.0
 20
-125.0
 30
0.0
  0
VERTEX
  5
100
330
F4
100
AcDbEntity
  8
LIVELLO 04
100
AcDbVertex
100
AcDb2dVertex
 10
-55.0
 20
-125.0
 30
0.0
  0
VERTEX
  5
101
330
F4
100
AcDbEntity
  8
LIVELLO 04
100
AcDbVertex
100
AcDb2dVertex
 10
-55.0
 20
-122.0
 30
0.0
  0
VERTEX
  5
102
330
F4
100
AcDbEntity
  8
LIVELLO 04
100
AcDbVertex
100
AcDb2dVertex
 10
-31.0
 20
-122.0
 30
0.0
  0
VERTEX
  5
103
330
F4
100
AcDbEntity
  8
LIVELLO 04
100
AcDbVertex
100
AcDb2dVertex
 10
-31.0
 20
-125.0
 30
0.0
  0
VERTEX
  5
104
330
F4
100
AcDbEntity
  8
LIVELLO 04
100
AcDbVertex
100
AcDb2dVertex
 10
-7.0
 20
-125.0
 30
0.0
  0
VERTEX
  5
105
330
F4
100
AcDbEntity
  8
LIVELLO 04
100
AcDbVertex
100
AcDb2dVertex
 10
-7.0
 20
-122.0
 30
0.0
  0
VERTEX
  5
106
330
F4
100
AcDbEntity
  8
LIVELLO 04
100
AcDbVertex
100
AcDb2dVertex
 10
17.0
 20
-122.0
 30
0.0
  0
VERTEX
  5
107
330
F4
100
AcDbEntity
  8
LIVELLO 04
100
AcDbVertex
100
AcDb2dVertex
 10
17.0
 20
-125.0
 30
0.0
  0
VERTEX
  5
108
330
F4
100
AcDbEntity
  8
LIVELLO 04
100
AcDbVertex
100
AcDb2dVertex
 10
41.0
 20
-125.0
 30
0.0
  0
VERTEX
  5
109
330
F4
100
AcDbEntity
  8
LIVELLO 04
100
AcDbVertex
100
AcDb2dVertex
 10
41.0
 20
-122.0
 30
0.0
  0
VERTEX
  5
10A
330
F4
100
AcDbEntity
  8
LIVELLO 04
100
AcDbVertex
100
AcDb2dVertex
 10
65.0
 20
-122.0
 30
0.0
  0
VERTEX
  5
10B
330
F4
100
AcDbEntity
  8
LIVELLO 04
100
AcDbVertex
100
AcDb2dVertex
 10
65.0
 20
-125.0
 30
0.0
  0
VERTEX
  5
10C
330
F4
100
AcDbEntity
  8
LIVELLO 04
100
AcDbVertex
100
AcDb2dVertex
 10
89.0
 20
-125.0
 30
0.0
  0
VERTEX
  5
10D
330
F4
100
AcDbEntity
  8
LIVELLO 04
100
AcDbVertex
100
AcDb2dVertex
 10
89.0
 20
-122.0
 30
0.0
  0
VERTEX
  5
10E
330
F4
100
AcDbEntity
  8
LIVELLO 04
100
AcDbVertex
100
AcDb2dVertex
 10
113.0
 20
-122.0
 30
0.0
  0
SEQEND
  5
10F
330
F4
100
AcDbEntity
  8
LIVELLO 04
  0
POLYLINE
  5
110
330
1F
100
AcDbEntity
  8
LIVELLO 04
100
AcDb2dPolyline
 66
     1
 10
0.0
 20
0.0
 30
0.0
  0
VERTEX
  5
111
330
110
100
AcDbEntity
  8
LIVELLO 04
100
AcDbVertex
100
AcDb2dVertex
 10
-199.0
 20
-99.0
 30
0.0
  0
VERTEX
  5
112
330
110
100
AcDbEntity
  8
LIVELLO 04
100
AcDbVertex
100
AcDb2dVertex
 10
-199.0
 20
-122.0
 30
0.0
  0
SEQEND
  5
113
330
110
100
AcDbEntity
  8
LIVELLO 04
  0
POLYLINE
  5
114
330
1F
100
AcDbEntity
  8
LIVELLO 04
100
AcDb2dPolyline
 66
     1
 10
0.0
 20
0.0
 30
0.0
  0
VERTEX
  5
115
330
114
100
AcDbEntity
  8
LIVELLO 04
100
AcDbVertex
100
AcDb2dVertex
 10
113.0
 20
-99.0
 30
0.0
  0
VERTEX
  5
116
330
114
100
AcDbEntity
  8
LIVELLO 04
100
AcDbVertex
100
AcDb2dVertex
 10
89.0
 20
-99.0
 30
0.0
  0
VERTEX
  5
117
330
114
100
AcDbEntity
  8
LIVELLO 04
100
AcDbVertex
100
AcDb2dVertex
 10
89.0
 20
-96.0
 30
0.0
  0
VERTEX
  5
118
330
114
100
AcDbEntity
  8
LIVELLO 04
100
AcDbVertex
100
AcDb2dVertex
 10
65.0
 20
-96.0
 30
0.0
  0
VERTEX
  5
119
330
114
100
AcDbEntity
  8
LIVELLO 04
100
AcDbVertex
100
AcDb2dVertex
 10
65.0
 20
-99.0
 30
0.0
  0
VERTEX
  5
11A
330
114
100
AcDbEntity
  8
LIVELLO 04
100
AcDbVertex
100
AcDb2dVertex
 10
41.0
 20
-99.0
 30
0.0
  0
VERTEX
  5
11B
330
114
100
AcDbEntity
  8
LIVELLO 04
100
AcDbVertex
100
AcDb2dVertex
 10
41.0
 20
-96.0
 30
0.0
  0
VERTEX
  5
11C
330
114
100
AcDbEntity
  8
LIVELLO 04
100
AcDbVertex
100
AcDb2dVertex
 10
17.0
 20
-96.0
 30
0.0
  0
VERTEX
  5
11D
330
114
100
AcDbEntity
  8
LIVELLO 04
100
AcDbVertex
100
AcDb2dVertex
 10
17.0
 20
-99.0
 30
0.0
  0
VERTEX
  5
11E
330
114
100
AcDbEntity
  8
LIVELLO 04
100
AcDbVertex
100
AcDb2dVertex
 10
-7.0
 20
-99.0
 30
0.0
  0
VERTEX
  5
11F
330
114
100
AcDbEntity
  8
LIVELLO 04
100
AcDbVertex
100
AcDb2dVertex
 10
-7.0
 20
-96.0
 30
0.0
  0
VERTEX
  5
120
330
114
100
AcDbEntity
  8
LIVELLO 04
100
AcDbVertex
100
AcDb2dVertex
 10
-31.0
 20
-96.0
 30
0.0
  0
VERTEX
  5
121
330
114
100
AcDbEntity
  8
LIVELLO 04
100
AcDbVertex
100
AcDb2dVertex
 10
-31.0
 20
-99.0
 30
0.0
  0
VERTEX
  5
122
330
114
100
AcDbEntity
  8
LIVELLO 04
100
AcDbVertex
100
AcDb2dVertex
 10
-55.0
 20
-99.0
 30
0.0
  0
VERTEX
  5
123
330
114
100
AcDbEntity
  8
LIVELLO 04
100
AcDbVertex
100
AcDb2dVertex
 10
-55.0
 20
-96.0
 30
0.0
  0
VERTEX
  5
124
330
114
100
AcDbEntity
  8
LIVELLO 04
100
AcDbVertex
100
AcDb2dVertex
 10
-79.0
 20
-96.0
 30
0.0
  0
VERTEX
  5
125
330
114
100
AcDbEntity
  8
LIVELLO 04
100
AcDbVertex
100
AcDb2dVertex
 10
-79.0
 20
-99.0
 30
0.0
  0
VERTEX
  5
126
330
114
100
AcDbEntity
  8
LIVELLO 04
100
AcDbVertex
100
AcDb2dVertex
 10
-103.0
 20
-99.0
 30
0.0
  0
VERTEX
  5
127
330
114
100
AcDbEntity
  8
LIVELLO 04
100
AcDbVertex
100
AcDb2dVertex
 10
-103.0
 20
-96.0
 30
0.0
  0
VERTEX
  5
128
330
114
100
AcDbEntity
  8
LIVELLO 04
100
AcDbVertex
100
AcDb2dVertex
 10
-127.0
 20
-96.0
 30
0.0
  0
VERTEX
  5
129
330
114
100
AcDbEntity
  8
LIVELLO 04
100
AcDbVertex
100
AcDb2dVertex
 10
-127.0
 20
-99.0
 30
0.0
  0
VERTEX
  5
12A
330
114
100
AcDbEntity
  8
LIVELLO 04
100
AcDbVertex
100
AcDb2dVertex
 10
-151.0
 20
-99.0
 30
0.0
  0
VERTEX
  5
12B
330
114
100
AcDbEntity
  8
LIVELLO 04
100
AcDbVertex
100
AcDb2dVertex
 10
-151.0
 20
-96.0
 30
0.0
  0
VERTEX
  5
12C
330
114
100
AcDbEntity
  8
LIVELLO 04
100
AcDbVertex
100
AcDb2dVertex
 10
-175.0
 20
-96.0
 30
0.0
  0
VERTEX
  5
12D
330
114
100
AcDbEntity
  8
LIVELLO 04
100
AcDbVertex
100
AcDb2dVertex
 10
-175.0
 20
-99.0
 30
0.0
  0
VERTEX
  5
12E
330
114
100
AcDbEntity
  8
LIVELLO 04
100
AcDbVertex
100
AcDb2dVertex
 10
-199.0
 20
-99.0
 30
0.0
  0
SEQEND
  5
12F
330
114
100
AcDbEntity
  8
LIVELLO 04
  0
POLYLINE
  5
130
330
1F
100
AcDbEntity
  8
LIVELLO 04
100
AcDb2dPolyline
 66
     1
 10
0.0
 20
0.0
 30
0.0
  0
VERTEX
  5
131
330
130
100
AcDbEntity
  8
LIVELLO 04
100
AcDbVertex
100
AcDb2dVertex
 10
-199.0
 20
-188.0
 30
0.0
  0
VERTEX
  5
132
330
130
100
AcDbEntity
  8
LIVELLO 04
100
AcDbVertex
100
AcDb2dVertex
 10
-175.0
 20
-188.0
 30
0.0
  0
VERTEX
  5
133
330
130
100
AcDbEntity
  8
LIVELLO 04
100
AcDbVertex
100
AcDb2dVertex
 10
-175.0
 20
-191.0
 30
0.0
  0
VERTEX
  5
134
330
130
100
AcDbEntity
  8
LIVELLO 04
100
AcDbVertex
100
AcDb2dVertex
 10
-151.0
 20
-191.0
 30
0.0
  0
VERTEX
  5
135
330
130
100
AcDbEntity
  8
LIVELLO 04
100
AcDbVertex
100
AcDb2dVertex
 10
-151.0
 20
-188.0
 30
0.0
  0
VERTEX
  5
136
330
130
100
AcDbEntity
  8
LIVELLO 04
100
AcDbVertex
100
AcDb2dVertex
 10
-127.0
 20
-188.0
 30
0.0
  0
VERTEX
  5
137
330
130
100
AcDbEntity
  8
LIVELLO 04
100
AcDbVertex
100
AcDb2dVertex
 10
-127.0
 20
-191.0
 30
0.0
  0
VERTEX
  5
138
330
130
100
AcDbEntity
  8
LIVELLO 04
100
AcDbVertex
100
AcDb2dVertex
 10
-103.0
 20
-191.0
 30
0.0
  0
VERTEX
  5
139
330
130
100
AcDbEntity
  8
LIVELLO 04
100
AcDbVertex
100
AcDb2dVertex
 10
-103.0
 20
-188.0
 30
0.0
  0
VERTEX
  5
13A
330
130
100
AcDbEntity
  8
LIVELLO 04
100
AcDbVertex
100
AcDb2dVertex
 10
-79.0
 20
-188.0
 30
0.0
  0
VERTEX
  5
13B
330
130
100
AcDbEntity
  8
LIVELLO 04
100
AcDbVertex
100
AcDb2dVertex
 10
-79.0
 20
-191.0
 30
0.0
  0
VERTEX
  5
13C
330
130
100
AcDbEntity
  8
LIVELLO 04
100
AcDbVertex
100
AcDb2dVertex
 10
-55.0
 20
-191.0
 30
0.0
  0
VERTEX
  5
13D
330
130
100
AcDbEntity
  8
LIVELLO 04
100
AcDbVertex
100
AcDb2dVertex
 10
-55.0
 20
-188.0
 30
0.0
  0
VERTEX
  5
13E
330
130
100
AcDbEntity
  8
LIVELLO 04
100
AcDbVertex
100
AcDb2dVertex
 10
-31.0
 20
-188.0
 30
0.0
  0
VERTEX
  5
13F
330
130
100
AcDbEntity
  8
LIVELLO 04
100
AcDbVertex
100
AcDb2dVertex
 10
-31.0
 20
-191.0
 30
0.0
  0
VERTEX
  5
140
330
130
100
AcDbEntity
  8
LIVELLO 04
100
AcDbVertex
100
AcDb2dVertex
 10
-7.0
 20
-191.0
 30
0.0
  0
VERTEX
  5
141
330
130
100
AcDbEntity
  8
LIVELLO 04
100
AcDbVertex
100
AcDb2dVertex
 10
-7.0
 20
-188.0
 30
0.0
  0
VERTEX
  5
142
330
130
100
AcDbEntity
  8
LIVELLO 04
100
AcDbVertex
100
AcDb2dVertex
 10
17.0
 20
-188.0
 30
0.0
  0
VERTEX
  5
143
330
130
100
AcDbEntity
  8
LIVELLO 04
100
AcDbVertex
100
AcDb2dVertex
 10
17.0
 20
-191.0
 30
0.0
  0
VERTEX
  5
144
330
130
100
AcDbEntity
  8
LIVELLO 04
100
AcDbVertex
100
AcDb2dVertex
 10
41.0
 20
-191.0
 30
0.0
  0
VERTEX
  5
145
330
130
100
AcDbEntity
  8
LIVELLO 04
100
AcDbVertex
100
AcDb2dVertex
 10
41.0
 20
-188.0
 30
0.0
  0
VERTEX
  5
146
330
130
100
AcDbEntity
  8
LIVELLO 04
100
AcDbVertex
100
AcDb2dVertex
 10
65.0
 20
-188.0
 30
0.0
  0
VERTEX
  5
147
330
130
100
AcDbEntity
  8
LIVELLO 04
100
AcDbVertex
100
AcDb2dVertex
 10
65.0
 20
-191.0
 30
0.0
  0
VERTEX
  5
148
330
130
100
AcDbEntity
  8
LIVELLO 04
100
AcDbVertex
100
AcDb2dVertex
 10
89.0
 20
-191.0
 30
0.0
  0
VERTEX
  5
149
330
130
100
AcDbEntity
  8
LIVELLO 04
100
AcDbVertex
100
AcDb2dVertex
 10
89.0
 20
-188.0
 30
0.0
  0
VERTEX
  5
14A
330
130
100
AcDbEntity
  8
LIVELLO 04
100
AcDbVertex
100
AcDb2dVertex
 10
113.0
 20
-188.0
 30
0.0
  0
SEQEND
  5
14B
330
130
100
AcDbEntity
  8
LIVELLO 04
  0
POLYLINE
  5
14C
330
1F
100
AcDbEntity
  8
LIVELLO 04
100
AcDb2dPolyline
 66
     1
 10
0.0
 20
0.0
 30
0.0
  0
VERTEX
  5
14D
330
14C
100
AcDbEntity
  8
LIVELLO 04
100
AcDbVertex
100
AcDb2dVertex
 10
-199.0
 20
-165.0
 30
0.0
  0
VERTEX
  5
14E
330
14C
100
AcDbEntity
  8
LIVELLO 04
100
AcDbVertex
100
AcDb2dVertex
 10
-199.0
 20
-188.0
 30
0.0
  0
SEQEND
  5
14F
330
14C
100
AcDbEntity
  8
LIVELLO 04
  0
POLYLINE
  5
150
330
1F
100
AcDbEntity
  8
LIVELLO 04
100
AcDb2dPolyline
 66
     1
 10
0.0
 20
0.0
 30
0.0
  0
VERTEX
  5
151
330
150
100
AcDbEntity
  8
LIVELLO 04
100
AcDbVertex
100
AcDb2dVertex
 10
113.0
 20
-165.0
 30
0.0
  0
VERTEX
  5
152
330
150
100
AcDbEntity
  8
LIVELLO 04
100
AcDbVertex
100
AcDb2dVertex
 10
89.0
 20
-165.0
 30
0.0
  0
VERTEX
  5
153
330
150
100
AcDbEntity
  8
LIVELLO 04
100
AcDbVertex
100
AcDb2dVertex
 10
89.0
 20
-162.0
 30
0.0
  0
VERTEX
  5
154
330
150
100
AcDbEntity
  8
LIVELLO 04
100
AcDbVertex
100
AcDb2dVertex
 10
65.0
 20
-162.0
 30
0.0
  0
VERTEX
  5
155
330
150
100
AcDbEntity
  8
LIVELLO 04
100
AcDbVertex
100
AcDb2dVertex
 10
65.0
 20
-165.0
 30
0.0
  0
VERTEX
  5
156
330
150
100
AcDbEntity
  8
LIVELLO 04
100
AcDbVertex
100
AcDb2dVertex
 10
41.0
 20
-165.0
 30
0.0
  0
VERTEX
  5
157
330
150
100
AcDbEntity
  8
LIVELLO 04
100
AcDbVertex
100
AcDb2dVertex
 10
41.0
 20
-162.0
 30
0.0
  0
VERTEX
  5
158
330
150
100
AcDbEntity
  8
LIVELLO 04
100
AcDbVertex
100
AcDb2dVertex
 10
17.0
 20
-162.0
 30
0.0
  0
VERTEX
  5
159
330
150
100
AcDbEntity
  8
LIVELLO 04
100
AcDbVertex
100
AcDb2dVertex
 10
17.0
 20
-165.0
 30
0.0
  0
VERTEX
  5
15A
330
150
100
AcDbEntity
  8
LIVELLO 04
100
AcDbVertex
100
AcDb2dVertex
 10
-7.0
 20
-165.0
 30
0.0
  0
VERTEX
  5
15B
330
150
100
AcDbEntity
  8
LIVELLO 04
100
AcDbVertex
100
AcDb2dVertex
 10
-7.0
 20
-162.0
 30
0.0
  0
VERTEX
  5
15C
330
150
100
AcDbEntity
  8
LIVELLO 04
100
AcDbVertex
100
AcDb2dVertex
 10
-31.0
 20
-162.0
 30
0.0
  0
VERTEX
  5
15D
330
150
100
AcDbEntity
  8
LIVELLO 04
100
AcDbVertex
100
AcDb2dVertex
 10
-31.0
 20
-165.0
 30
0.0
  0
VERTEX
  5
15E
330
150
100
AcDbEntity
  8
LIVELLO 04
100
AcDbVertex
100
AcDb2dVertex
 10
-55.0
 20
-165.0
 30
0.0
  0
VERTEX
  5
15F
330
150
100
AcDbEntity
  8
LIVELLO 04
100
AcDbVertex
100
AcDb2dVertex
 10
-55.0
 20
-162.0
 30
0.0
  0
VERTEX
  5
160
330
150
100
AcDbEntity
  8
LIVELLO 04
100
AcDbVertex
100
AcDb2dVertex
 10
-79.0
 20
-162.0
 30
0.0
  0
VERTEX
  5
161
330
150
100
AcDbEntity
  8
LIVELLO 04
100
AcDbVertex
100
AcDb2dVertex
 10
-79.0
 20
-165.0
 30
0.0
  0
VERTEX
  5
162
330
150
100
AcDbEntity
  8
LIVELLO 04
100
AcDbVertex
100
AcDb2dVertex
 10
-103.0
 20
-165.0
 30
0.0
  0
VERTEX
  5
163
330
150
100
AcDbEntity
  8
LIVELLO 04
100
AcDbVertex
100
AcDb2dVertex
 10
-103.0
 20
-162.0
 30
0.0
  0
VERTEX
  5
164
330
150
100
AcDbEntity
  8
LIVELLO 04
100
AcDbVertex
100
AcDb2dVertex
 10
-127.0
 20
-162.0
 30
0.0
  0
VERTEX
  5
165
330
150
100
AcDbEntity
  8
LIVELLO 04
100
AcDbVertex
100
AcDb2dVertex
 10
-127.0
 20
-165.0
 30
0.0
  0
VERTEX
  5
166
330
150
100
AcDbEntity
  8
LIVELLO 04
100
AcDbVertex
100
AcDb2dVertex
 10
-151.0
 20
-165.0
 30
0.0
  0
VERTEX
  5
167
330
150
100
AcDbEntity
  8
LIVELLO 04
100
AcDbVertex
100
AcDb2dVertex
 10
-151.0
 20
-162.0
 30
0.0
  0
VERTEX
  5
168
330
150
100
AcDbEntity
  8
LIVELLO 04
100
AcDbVertex
100
AcDb2dVertex
 10
-175.0
 20
-162.0
 30
0.0
  0
VERTEX
  5
169
330
150
100
AcDbEntity
  8
LIVELLO 04
100
AcDbVertex
100
AcDb2dVertex
 10
-175.0
 20
-165.0
 30
0.0
  0
VERTEX
  5
16A
330
150
100
AcDbEntity
  8
LIVELLO 04
100
AcDbVertex
100
AcDb2dVertex
 10
-199.0
 20
-165.0
 30
0.0
  0
SEQEND
  5
16B
330
150
100
AcDbEntity
  8
LIVELLO 04
  0
POLYLINE
  5
16C
330
1F
100
AcDbEntity
  8
LIVELLO 04
100
AcDb2dPolyline
 66
     1
 10
0.0
 20
0.0
 30
0.0
  0
VERTEX
  5
16D
330
16C
100
AcDbEntity
  8
LIVELLO 04
100
AcDbVertex
100
AcDb2dVertex
 10
113.0
 20
-188.0
 30
0.0
  0
VERTEX
  5
16E
330
16C
100
AcDbEntity
  8
LIVELLO 04
100
AcDbVertex
100
AcDb2dVertex
 10
113.0
 20
-165.0
 30
0.0
  0
SEQEND
  5
16F
330
16C
100
AcDbEntity
  8
LIVELLO 04
  0
POLYLINE
  5
170
330
1F
100
AcDbEntity
  8
LIVELLO 04
100
AcDb2dPolyline
 66
     1
 10
0.0
 20
0.0
 30
0.0
  0
VERTEX
  5
171
330
170
100
AcDbEntity
  8
LIVELLO 04
100
AcDbVertex
100
AcDb2dVertex
 10
-199.0
 20
-136.0
 30
0.0
  0
VERTEX
  5
172
330
170
100
AcDbEntity
  8
LIVELLO 04
100
AcDbVertex
100
AcDb2dVertex
 10
-175.0
 20
-136.0
 30
0.0
  0
VERTEX
  5
173
330
170
100
AcDbEntity
  8
LIVELLO 04
100
AcDbVertex
100
AcDb2dVertex
 10
-175.0
 20
-139.0
 30
0.0
  0
VERTEX
  5
174
330
170
100
AcDbEntity
  8
LIVELLO 04
100
AcDbVertex
100
AcDb2dVertex
 10
-151.0
 20
-139.0
 30
0.0
  0
VERTEX
  5
175
330
170
100
AcDbEntity
  8
LIVELLO 04
100
AcDbVertex
100
AcDb2dVertex
 10
-151.0
 20
-136.0
 30
0.0
  0
VERTEX
  5
176
330
170
100
AcDbEntity
  8
LIVELLO 04
100
AcDbVertex
100
AcDb2dVertex
 10
-127.0
 20
-136.0
 30
0.0
  0
VERTEX
  5
177
330
170
100
AcDbEntity
  8
LIVELLO 04
100
AcDbVertex
100
AcDb2dVertex
 10
-127.0
 20
-139.0
 30
0.0
  0
VERTEX
  5
178
330
170
100
AcDbEntity
  8
LIVELLO 04
100
AcDbVertex
100
AcDb2dVertex
 10
-103.0
 20
-139.0
 30
0.0
  0
VERTEX
  5
179
330
170
100
AcDbEntity
  8
LIVELLO 04
100
AcDbVertex
100
AcDb2dVertex
 10
-103.0
 20
-136.0
 30
0.0
  0
VERTEX
  5
17A
330
170
100
AcDbEntity
  8
LIVELLO 04
100
AcDbVertex
100
AcDb2dVertex
 10
-79.0
 20
-136.0
 30
0.0
  0
VERTEX
  5
17B
330
170
100
AcDbEntity
  8
LIVELLO 04
100
AcDbVertex
100
AcDb2dVertex
 10
-79.0
 20
-139.0
 30
0.0
  0
VERTEX
  5
17C
330
170
100
AcDbEntity
  8
LIVELLO 04
100
AcDbVertex
100
AcDb2dVertex
 10
-55.0
 20
-139.0
 30
0.0
  0
VERTEX
  5
17D
330
170
100
AcDbEntity
  8
LIVELLO 04
100
AcDbVertex
100
AcDb2dVertex
 10
-55.0
 20
-136.0
 30
0.0
  0
VERTEX
  5
17E
330
170
100
AcDbEntity
  8
LIVELLO 04
100
AcDbVertex
100
AcDb2dVertex
 10
-31.0
 20
-136.0
 30
0.0
  0
VERTEX
  5
17F
330
170
100
AcDbEntity
  8
LIVELLO 04
100
AcDbVertex
100
AcDb2dVertex
 10
-31.0
 20
-139.0
 30
0.0
  0
VERTEX
  5
180
330
170
100
AcDbEntity
  8
LIVELLO 04
100
AcDbVertex
100
AcDb2dVertex
 10
-7.0
 20
-139.0
 30
0.0
  0
VERTEX
  5
181
330
170
100
AcDbEntity
  8
LIVELLO 04
100
AcDbVertex
100
AcDb2dVertex
 10
-7.0
 20
-136.0
 30
0.0
  0
VERTEX
  5
182
330
170
100
AcDbEntity
  8
LIVELLO 04
100
AcDbVertex
100
AcDb2dVertex
 10
17.0
 20
-136.0
 30
0.0
  0
VERTEX
  5
183
330
170
100
AcDbEntity
  8
LIVELLO 04
100
AcDbVertex
100
AcDb2dVertex
 10
17.0
 20
-139.0
 30
0.0
  0
VERTEX
  5
184
330
170
100
AcDbEntity
  8
LIVELLO 04
100
AcDbVertex
100
AcDb2dVertex
 10
41.0
 20
-139.0
 30
0.0
  0
VERTEX
  5
185
330
170
100
AcDbEntity
  8
LIVELLO 04
100
AcDbVertex
100
AcDb2dVertex
 10
41.0
 20
-136.0
 30
0.0
  0
VERTEX
  5
186
330
170
100
AcDbEntity
  8
LIVELLO 04
100
AcDbVertex
100
AcDb2dVertex
 10
65.0
 20
-136.0
 30
0.0
  0
VERTEX
  5
187
330
170
100
AcDbEntity
  8
LIVELLO 04
100
AcDbVertex
100
AcDb2dVertex
 10
65.0
 20
-139.0
 30
0.0
  0
VERTEX
  5
188
330
170
100
AcDbEntity
  8
LIVELLO 04
100
AcDbVertex
100
AcDb2dVertex
 10
89.0
 20
-139.0
 30
0.0
  0
VERTEX
  5
189
330
170
100
AcDbEntity
  8
LIVELLO 04
100
AcDbVertex
100
AcDb2dVertex
 10
89.0
 20
-136.0
 30
0.0
  0
VERTEX
  5
18A
330
170
100
AcDbEntity
  8
LIVELLO 04
100
AcDbVertex
100
AcDb2dVertex
 10
113.0
 20
-136.0
 30
0.0
  0
SEQEND
  5
18B
330
170
100
AcDbEntity
  8
LIVELLO 04
  0
POLYLINE
  5
18C
330
1F
100
AcDbEntity
  8
LIVELLO 04
100
AcDb2dPolyline
 66
     1
 10
0.0
 20
0.0
 30
0.0
  0
VERTEX
  5
18D
330
18C
100
AcDbEntity
  8
LIVELLO 04
100
AcDbVertex
100
AcDb2dVertex
 10
-199.0
 20
-156.0
 30
0.0
  0
VERTEX
  5
18E
330
18C
100
AcDbEntity
  8
LIVELLO 04
100
AcDbVertex
100
AcDb2dVertex
 10
-199.0
 20
-153.0
 30
0.0
  0
VERTEX
  5
18F
330
18C
100
AcDbEntity
  8
LIVELLO 04
100
AcDbVertex
100
AcDb2dVertex
 10
-196.0
 20
-153.0
 30
0.0
  0
VERTEX
  5
190
330
18C
100
AcDbEntity
  8
LIVELLO 04
100
AcDbVertex
100
AcDb2dVertex
 10
-196.0
 20
-139.0
 30
0.0
  0
VERTEX
  5
191
330
18C
100
AcDbEntity
  8
LIVELLO 04
100
AcDbVertex
100
AcDb2dVertex
 10
-199.0
 20
-139.0
 30
0.0
  0
VERTEX
  5
192
330
18C
100
AcDbEntity
  8
LIVELLO 04
100
AcDbVertex
100
AcDb2dVertex
 10
-199.0
 20
-136.0
 30
0.0
  0
SEQEND
  5
193
330
18C
100
AcDbEntity
  8
LIVELLO 04
  0
POLYLINE
  5
194
330
1F
100
AcDbEntity
  8
LIVELLO 04
100
AcDb2dPolyline
 66
     1
 10
0.0
 20
0.0
 30
0.0
  0
VERTEX
  5
195
330
194
100
AcDbEntity
  8
LIVELLO 04
100
AcDbVertex
100
AcDb2dVertex
 10
113.0
 20
-156.0
 30
0.0
  0
VERTEX
  5
196
330
194
100
AcDbEntity
  8
LIVELLO 04
100
AcDbVertex
100
AcDb2dVertex
 10
89.0
 20
-156.0
 30
0.0
  0
VERTEX
  5
197
330
194
100
AcDbEntity
  8
LIVELLO 04
100
AcDbVertex
100
AcDb2dVertex
 10
89.0
 20
-153.0
 30
0.0
  0
VERTEX
  5
198
330
194
100
AcDbEntity
  8
LIVELLO 04
100
AcDbVertex
100
AcDb2dVertex
 10
65.0
 20
-153.0
 30
0.0
  0
VERTEX
  5
199
330
194
100
AcDbEntity
  8
LIVELLO 04
100
AcDbVertex
100
AcDb2dVertex
 10
65.0
 20
-156.0
 30
0.0
  0
VERTEX
  5
19A
330
194
100
AcDbEntity
  8
LIVELLO 04
100
AcDbVertex
100
AcDb2dVertex
 10
41.0
 20
-156.0
 30
0.0
  0
VERTEX
  5
19B
330
194
100
AcDbEntity
  8
LIVELLO 04
100
AcDbVertex
100
AcDb2dVertex
 10
41.0
 20
-153.0
 30
0.0
  0
VERTEX
  5
19C
330
194
100
AcDbEntity
  8
LIVELLO 04
100
AcDbVertex
100
AcDb2dVertex
 10
17.0
 20
-153.0
 30
0.0
  0
VERTEX
  5
19D
330
194
100
AcDbEntity
  8
LIVELLO 04
100
AcDbVertex
100
AcDb2dVertex
 10
17.0
 20
-156.0
 30
0.0
  0
VERTEX
  5
19E
330
194
100
AcDbEntity
  8
LIVELLO 04
100
AcDbVertex
100
AcDb2dVertex
 10
-7.0
 20
-156.0
 30
0.0
  0
VERTEX
  5
19F
330
194
100
AcDbEntity
  8
LIVELLO 04
100
AcDbVertex
100
AcDb2dVertex
 10
-7.0
 20
-153.0
 30
0.0
  0
VERTEX
  5
1A0
330
194
100
AcDbEntity
  8
LIVELLO 04
100
AcDbVertex
100
AcDb2dVertex
 10
-31.0
 20
-153.0
 30
0.0
  0
VERTEX
  5
1A1
330
194
100
AcDbEntity
  8
LIVELLO 04
100
AcDbVertex
100
AcDb2dVertex
 10
-31.0
 20
-156.0
 30
0.0
  0
VERTEX
  5
1A2
330
194
100
AcDbEntity
  8
LIVELLO 04
100
AcDbVertex
100
AcDb2dVertex
 10
-55.0
 20
-156.0
 30
0.0
  0
VERTEX
  5
1A3
330
194
100
AcDbEntity
  8
LIVELLO 04
100
AcDbVertex
100
AcDb2dVertex
 10
-55.0
 20
-153.0
 30
0.0
  0
VERTEX
  5
1A4
330
194
100
AcDbEntity
  8
LIVELLO 04
100
AcDbVertex
100
AcDb2dVertex
 10
-79.0
 20
-153.0
 30
0.0
  0
VERTEX
  5
1A5
330
194
100
AcDbEntity
  8
LIVELLO 04
100
AcDbVertex
100
AcDb2dVertex
 10
-79.0
 20
-156.0
 30
0.0
  0
VERTEX
  5
1A6
330
194
100
AcDbEntity
  8
LIVELLO 04
100
AcDbVertex
100
AcDb2dVertex
 10
-103.0
 20
-156.0
 30
0.0
  0
VERTEX
  5
1A7
330
194
100
AcDbEntity
  8
LIVELLO 04
100
AcDbVertex
100
AcDb2dVertex
 10
-103.0
 20
-153.0
 30
0.0
  0
VERTEX
  5
1A8
330
194
100
AcDbEntity
  8
LIVELLO 04
100
AcDbVertex
100
AcDb2dVertex
 10
-127.0
 20
-153.0
 30
0.0
  0
VERTEX
  5
1A9
330
194
100
AcDbEntity
  8
LIVELLO 04
100
AcDbVertex
100
AcDb2dVertex
 10
-127.0
 20
-156.0
 30
0.0
  0
VERTEX
  5
1AA
330
194
100
AcDbEntity
  8
LIVELLO 04
100
AcDbVertex
100
AcDb2dVertex
 10
-151.0
 20
-156.0
 30
0.0
  0
VERTEX
  5
1AB
330
194
100
AcDbEntity
  8
LIVELLO 04
100
AcDbVertex
100
AcDb2dVertex
 10
-151.0
 20
-153.0
 30
0.0
  0
VERTEX
  5
1AC
330
194
100
AcDbEntity
  8
LIVELLO 04
100
AcDbVertex
100
AcDb2dVertex
 10
-175.0
 20
-153.0
 30
0.0
  0
VERTEX
  5
1AD
330
194
100
AcDbEntity
  8
LIVELLO 04
100
AcDbVertex
100
AcDb2dVertex
 10
-175.0
 20
-156.0
 30
0.0
  0
VERTEX
  5
1AE
330
194
100
AcDbEntity
  8
LIVELLO 04
100
AcDbVertex
100
AcDb2dVertex
 10
-199.0
 20
-156.0
 30
0.0
  0
SEQEND
  5
1AF
330
194
100
AcDbEntity
  8
LIVELLO 04
  0
POLYLINE
  5
1B0
330
1F
100
AcDbEntity
  8
LIVELLO 04
100
AcDb2dPolyline
 66
     1
 10
0.0
 20
0.0
 30
0.0
  0
VERTEX
  5
1B1
330
1B0
100
AcDbEntity
  8
LIVELLO 04
100
AcDbVertex
100
AcDb2dVertex
 10
113.0
 20
-136.0
 30
0.0
  0
VERTEX
  5
1B2
330
1B0
100
AcDbEntity
  8
LIVELLO 04
100
AcDbVertex
100
AcDb2dVertex
 10
113.0
 20
-139.0
 30
0.0
  0
VERTEX
  5
1B3
330
1B0
100
AcDbEntity
  8
LIVELLO 04
100
AcDbVertex
100
AcDb2dVertex
 10
110.0
 20
-139.0
 30
0.0
  0
VERTEX
  5
1B4
330
1B0
100
AcDbEntity
  8
LIVELLO 04
100
AcDbVertex
100
AcDb2dVertex
 10
110.0
 20
-153.0
 30
0.0
  0
VERTEX
  5
1B5
330
1B0
100
AcDbEntity
  8
LIVELLO 04
100
AcDbVertex
100
AcDb2dVertex
 10
113.0
 20
-153.0
 30
0.0
  0
VERTEX
  5
1B6
330
1B0
100
AcDbEntity
  8
LIVELLO 04
100
AcDbVertex
100
AcDb2dVertex
 10
113.0
 20
-156.0
 30
0.0
  0
SEQEND
  5
1B7
330
1B0
100
AcDbEntity
  8
LIVELLO 04
  0
CIRCLE
  5
1B8
330
1F
100
AcDbEntity
  8
LIVELLO 04
100
AcDbCircle
 10
-187.0
 20
-110.5
 30
0.0
 40
3.5
  0
CIRCLE
  5
1B9
330
1F
100
AcDbEntity
  8
LIVELLO 04
100
AcDbCircle
 10
-163.0
 20
-110.5
 30
0.0
 40
3.5
  0
CIRCLE
  5
1BA
330
1F
100
AcDbEntity
  8
LIVELLO 04
100
AcDbCircle
 10
53.0
 20
-146.0
 30
0.0
 40
3.5
  0
CIRCLE
  5
1BB
330
1F
100
AcDbEntity
  8
LIVELLO 04
100
AcDbCircle
 10
77.0
 20
-146.0
 30
0.0
 40
3.5
  0
CIRCLE
  5
1BC
330
1F
100
AcDbEntity
  8
LIVELLO 04
100
AcDbCircle
 10
-187.0
 20
-146.0
 30
0.0
 40
3.5
  0
CIRCLE
  5
1BD
330
1F
100
AcDbEntity
  8
LIVELLO 04
100
AcDbCircle
 10
-139.0
 20
-146.0
 30
0.0
 40
3.5
  0
CIRCLE
  5
1BE
330
1F
100
AcDbEntity
  8
LIVELLO 04
100
AcDbCircle
 10
-91.0
 20
-146.0
 30
0.0
 40
3.5
  0
CIRCLE
  5
1BF
330
1F
100
AcDbEntity
  8
LIVELLO 04
100
AcDbCircle
 10
-43.0
 20
-146.0
 30
0.0
 40
3.5
  0
CIRCLE
  5
1C0
330
1F
100
AcDbEntity
  8
LIVELLO 04
100
AcDbCircle
 10
5.0
 20
-146.0
 30
0.0
 40
3.5
  0
CIRCLE
  5
1C1
330
1F
100
AcDbEntity
  8
LIVELLO 04
100
AcDbCircle
 10
29.0
 20
-146.0
 30
0.0
 40
3.5
  0
CIRCLE
  5
1C2
330
1F
100
AcDbEntity
  8
LIVELLO 04
100
AcDbCircle
 10
-163.0
 20
-146.0
 30
0.0
 40
3.5
  0
CIRCLE
  5
1C3
330
1F
100
AcDbEntity
  8
LIVELLO 04
100
AcDbCircle
 10
-115.0
 20
-146.0
 30
0.0
 40
3.5
  0
CIRCLE
  5
1C4
330
1F
100
AcDbEntity
  8
LIVELLO 04
100
AcDbCircle
 10
-67.0
 20
-146.0
 30
0.0
 40
3.5
  0
CIRCLE
  5
1C5
330
1F
100
AcDbEntity
  8
LIVELLO 04
100
AcDbCircle
 10
-19.0
 20
-146.0
 30
0.0
 40
3.5
  0
CIRCLE
  5
1C6
330
1F
100
AcDbEntity
  8
LIVELLO 04
100
AcDbCircle
 10
101.0
 20
-146.0
 30
0.0
 40
3.5
  0
CIRCLE
  5
1C7
330
1F
100
AcDbEntity
  8
LIVELLO 04
100
AcDbCircle
 10
-139.0
 20
-176.5
 30
0.0
 40
3.5
  0
CIRCLE
  5
1C8
330
1F
100
AcDbEntity
  8
LIVELLO 04
100
AcDbCircle
 10
-163.0
 20
-176.5
 30
0.0
 40
3.5
  0
CIRCLE
  5
1C9
330
1F
100
AcDbEntity
  8
LIVELLO 04
100
AcDbCircle
 10
-187.0
 20
-176.5
 30
0.0
 40
3.5
  0
LINE
  5
1CA
330
1F
100
AcDbEntity
  8
LIVELLO 03
100
AcDbLine
 10
474.0
 20
-262.0
 30
0.0
 11
474.0
 21
-277.0
 31
0.0
  0
LINE
  5
1CB
330
1F
100
AcDbEntity
  8
LIVELLO 03
100
AcDbLine
 10
470.0
 20
-262.0
 30
0.0
 11
474.0
 21
-262.0
 31
0.0
  0
LINE
  5
1CC
330
1F
100
AcDbEntity
  8
LIVELLO 03
100
AcDbLine
 10
470.0
 20
-247.0
 30
0.0
 11
470.0
 21
-262.0
 31
0.0
  0
LINE
  5
1CD
330
1F
100
AcDbEntity
  8
LIVELLO 03
100
AcDbLine
 10
474.0
 20
-247.0
 30
0.0
 11
470.0
 21
-247.0
 31
0.0
  0
LINE
  5
1CE
330
1F
100
AcDbEntity
  8
LIVELLO 03
100
AcDbLine
 10
474.0
 20
-238.0
 30
0.0
 11
474.0
 21
-247.0
 31
0.0
  0
POLYLINE
  5
1CF
330
1F
100
AcDbEntity
  8
LIVELLO 03
100
AcDb2dPolyline
 66
     1
 10
0.0
 20
0.0
 30
0.0
  0
VERTEX
  5
1D0
330
1CF
100
AcDbEntity
  8
LIVELLO 03
100
AcDbVertex
100
AcDb2dVertex
 10
424.0
 20
-238.0
 30
0.0
  0
VERTEX
  5
1D1
330
1CF
100
AcDbEntity
  8
LIVELLO 03
100
AcDbVertex
100
AcDb2dVertex
 10
474.0
 20
-238.0
 30
0.0
  0
SEQEND
  5
1D2
330
1CF
100
AcDbEntity
  8
LIVELLO 03
  0
POLYLINE
  5
1D3
330
1F
100
AcDbEntity
  8
LIVELLO 03
100
AcDb2dPolyline
 66
     1
 10
0.0
 20
0.0
 30
0.0
  0
VERTEX
  5
1D4
330
1D3
100
AcDbEntity
  8
LIVELLO 03
100
AcDbVertex
100
AcDb2dVertex
 10
424.0
 20
-147.0
 30
0.0
  0
VERTEX
  5
1D5
330
1D3
100
AcDbEntity
  8
LIVELLO 03
100
AcDbVertex
100
AcDb2dVertex
 10
424.0
 20
-157.0
 30
0.0
  0
VERTEX
  5
1D6
330
1D3
100
AcDbEntity
  8
LIVELLO 03
100
AcDbVertex
100
AcDb2dVertex
 10
420.0
 20
-157.0
 30
0.0
  0
VERTEX
  5
1D7
330
1D3
100
AcDbEntity
  8
LIVELLO 03
100
AcDbVertex
100
AcDb2dVertex
 10
420.0
 20
-172.0
 30
0.0
  0
VERTEX
  5
1D8
330
1D3
100
AcDbEntity
  8
LIVELLO 03
100
AcDbVertex
100
AcDb2dVertex
 10
424.0
 20
-172.0
 30
0.0
  0
VERTEX
  5
1D9
330
1D3
100
AcDbEntity
  8
LIVELLO 03
100
AcDbVertex
100
AcDb2dVertex
 10
424.0
 20
-187.0
 30
0.0
  0
VERTEX
  5
1DA
330
1D3
100
AcDbEntity
  8
LIVELLO 03
100
AcDbVertex
100
AcDb2dVertex
 10
420.0
 20
-187.0
 30
0.0
  0
VERTEX
  5
1DB
330
1D3
100
AcDbEntity
  8
LIVELLO 03
100
AcDbVertex
100
AcDb2dVertex
 10
420.0
 20
-202.0
 30
0.0
  0
VERTEX
  5
1DC
330
1D3
100
AcDbEntity
  8
LIVELLO 03
100
AcDbVertex
100
AcDb2dVertex
 10
424.0
 20
-202.0
 30
0.0
  0
VERTEX
  5
1DD
330
1D3
100
AcDbEntity
  8
LIVELLO 03
100
AcDbVertex
100
AcDb2dVertex
 10
424.0
 20
-217.0
 30
0.0
  0
VERTEX
  5
1DE
330
1D3
100
AcDbEntity
  8
LIVELLO 03
100
AcDbVertex
100
AcDb2dVertex
 10
420.0
 20
-217.0
 30
0.0
  0
VERTEX
  5
1DF
330
1D3
100
AcDbEntity
  8
LIVELLO 03
100
AcDbVertex
100
AcDb2dVertex
 10
420.0
 20
-232.0
 30
0.0
  0
VERTEX
  5
1E0
330
1D3
100
AcDbEntity
  8
LIVELLO 03
100
AcDbVertex
100
AcDb2dVertex
 10
424.0
 20
-232.0
 30
0.0
  0
VERTEX
  5
1E1
330
1D3
100
AcDbEntity
  8
LIVELLO 03
100
AcDbVertex
100
AcDb2dVertex
 10
424.0
 20
-238.0
 30
0.0
  0
SEQEND
  5
1E2
330
1D3
100
AcDbEntity
  8
LIVELLO 03
  0
POLYLINE
  5
1E3
330
1F
100
AcDbEntity
  8
LIVELLO 03
100
AcDb2dPolyline
 66
     1
 10
0.0
 20
0.0
 30
0.0
  0
VERTEX
  5
1E4
330
1E3
100
AcDbEntity
  8
LIVELLO 03
100
AcDbVertex
100
AcDb2dVertex
 10
354.0
 20
-147.0
 30
0.0
  0
VERTEX
  5
1E5
330
1E3
100
AcDbEntity
  8
LIVELLO 03
100
AcDbVertex
100
AcDb2dVertex
 10
369.0
 20
-147.0
 30
0.0
  0
VERTEX
  5
1E6
330
1E3
100
AcDbEntity
  8
LIVELLO 03
100
AcDbVertex
100
AcDb2dVertex
 10
369.0
 20
-151.0
 30
0.0
  0
VERTEX
  5
1E7
330
1E3
100
AcDbEntity
  8
LIVELLO 03
100
AcDbVertex
100
AcDb2dVertex
 10
384.0
 20
-151.0
 30
0.0
  0
VERTEX
  5
1E8
330
1E3
100
AcDbEntity
  8
LIVELLO 03
100
AcDbVertex
100
AcDb2dVertex
 10
384.0
 20
-147.0
 30
0.0
  0
VERTEX
  5
1E9
330
1E3
100
AcDbEntity
  8
LIVELLO 03
100
AcDbVertex
100
AcDb2dVertex
 10
399.0
 20
-147.0
 30
0.0
  0
VERTEX
  5
1EA
330
1E3
100
AcDbEntity
  8
LIVELLO 03
100
AcDbVertex
100
AcDb2dVertex
 10
399.0
 20
-151.0
 30
0.0
  0
VERTEX
  5
1EB
330
1E3
100
AcDbEntity
  8
LIVELLO 03
100
AcDbVertex
100
AcDb2dVertex
 10
414.0
 20
-151.0
 30
0.0
  0
VERTEX
  5
1EC
330
1E3
100
AcDbEntity
  8
LIVELLO 03
100
AcDbVertex
100
AcDb2dVertex
 10
414.0
 20
-147.0
 30
0.0
  0
VERTEX
  5
1ED
330
1E3
100
AcDbEntity
  8
LIVELLO 03
100
AcDbVertex
100
AcDb2dVertex
 10
424.0
 20
-147.0
 30
0.0
  0
SEQEND
  5
1EE
330
1E3
100
AcDbEntity
  8
LIVELLO 03
  0
SPLINE
  5
1EF
330
1F
100
AcDbEntity
  8
LIVELLO 03
100
AcDbSpline
210
0.0
220
0.0
230
1.0
 70
     8
 71
     2
 72
    38
 73
    35
 74
     0
 42
0.0000000001
 43
0.0000000001
 40
0.0
 40
0.0
 40
0.0
 40
15.0
 40
15.0
 40
18.0
 40
18.0
 40
33.0
 40
33.0
 40
36.0
 40
36.0
 40
51.0
 40
51.0
 40
55.0
 40
55.0
 40
70.0
 40
70.0
 40
74.0
 40
74.0
 40
89.0
 40
89.0
 40
93.0
 40
93.0
 40
108.0
 40
108.0
 40
112.0
 40
112.0
 40
127.0
 40
127.0
 40
131.0
 40
131.0
 40
146.0
 40
146.0
 40
150.0
 40
150.0
 40
166.0
 40
166.0
 40
166.0
 10
354.0
 20
-283.0
 30
0.0
 10
354.0
 20
-275.5
 30
0.0
 10
354.0
 20
-268.0
 30
0.0
 10
356.0
 20
-268.0
 30
0.0
 10
358.0
 20
-268.0
 30
0.0
 10
358.0
 20
-260.5
 30
0.0
 10
358.0
 20
-253.0
 30
0.0
 10
356.0
 20
-253.0
 30
0.0
 10
354.0
 20
-253.0
 30
0.0
 10
354.0
 20
-245.5
 30
0.0
 10
354.0
 20
-238.0
 30
0.0
 10
356.0
 20
-238.0
 30
0.0
 10
358.0
 20
-238.0
 30
0.0
 10
358.0
 20
-230.5
 30
0.0
 10
358.0
 20
-223.0
 30
0.0
 10
356.0
 20
-223.0
 30
0.0
 10
354.0
 20
-223.0
 30
0.0
 10
354.0
 20
-215.5
 30
0.0
 10
354.0
 20
-208.0
 30
0.0
 10
356.0
 20
-208.0
 30
0.0
 10
358.0
 20
-208.0
 30
0.0
 10
358.0
 20
-200.5
 30
0.0
 10
358.0
 20
-193.0
 30
0.0
 10
356.0
 20
-193.0
 30
0.0
 10
354.0
 20
-193.0
 30
0.0
 10
354.0
 20
-185.5
 30
0.0
 10
354.0
 20
-178.0
 30
0.0
 10
356.0
 20
-178.0
 30
0.0
 10
358.0
 20
-178.0
 30
0.0
 10
358.0
 20
-170.5
 30
0.0
 10
358.0
 20
-163.0
 30
0.0
 10
356.0
 20
-163.0
 30
0.0
 10
354.0
 20
-163.0
 30
0.0
 10
354.0
 20
-155.0
 30
0.0
 10
354.0
 20
-147.0
 30
0.0
  0
POLYLINE
  5
1F0
330
1F
100
AcDbEntity
  8
LIVELLO 03
100
AcDb2dPolyline
 66
     1
 10
0.0
 20
0.0
 30
0.0
  0
VERTEX
  5
1F1
330
1F0
100
AcDbEntity
  8
LIVELLO 03
100
AcDbVertex
100
AcDb2dVertex
 10
425.0
 20
-287.0
 30
0.0
  0
VERTEX
  5
1F2
330
1F0
100
AcDbEntity
  8
LIVELLO 03
100
AcDbVertex
100
AcDb2dVertex
 10
425.0
 20
-283.0
 30
0.0
  0
VERTEX
  5
1F3
330
1F0
100
AcDbEntity
  8
LIVELLO 03
100
AcDbVertex
100
AcDb2dVertex
 10
410.0
 20
-283.0
 30
0.0
  0
VERTEX
  5
1F4
330
1F0
100
AcDbEntity
  8
LIVELLO 03
100
AcDbVertex
100
AcDb2dVertex
 10
410.0
 20
-287.0
 30
0.0
  0
VERTEX
  5
1F5
330
1F0
100
AcDbEntity
  8
LIVELLO 03
100
AcDbVertex
100
AcDb2dVertex
 10
395.0
 20
-287.0
 30
0.0
  0
VERTEX
  5
1F6
330
1F0
100
AcDbEntity
  8
LIVELLO 03
100
AcDbVertex
100
AcDb2dVertex
 10
395.0
 20
-283.0
 30
0.0
  0
VERTEX
  5
1F7
330
1F0
100
AcDbEntity
  8
LIVELLO 03
100
AcDbVertex
100
AcDb2dVertex
 10
380.0
 20
-283.0
 30
0.0
  0
VERTEX
  5
1F8
330
1F0
100
AcDbEntity
  8
LIVELLO 03
100
AcDbVertex
100
AcDb2dVertex
 10
380.0
 20
-287.0
 30
0.0
  0
VERTEX
  5
1F9
330
1F0
100
AcDbEntity
  8
LIVELLO 03
100
AcDbVertex
100
AcDb2dVertex
 10
365.0
 20
-287.0
 30
0.0
  0
VERTEX
  5
1FA
330
1F0
100
AcDbEntity
  8
LIVELLO 03
100
AcDbVertex
100
AcDb2dVertex
 10
365.0
 20
-283.0
 30
0.0
  0
VERTEX
  5
1FB
330
1F0
100
AcDbEntity
  8
LIVELLO 03
100
AcDbVertex
100
AcDb2dVertex
 10
354.0
 20
-283.0
 30
0.0
  0
SEQEND
  5
1FC
330
1F0
100
AcDbEntity
  8
LIVELLO 03
  0
POLYLINE
  5
1FD
330
1F
100
AcDbEntity
  8
LIVELLO 03
100
AcDb2dPolyline
 66
     1
 10
0.0
 20
0.0
 30
0.0
  0
VERTEX
  5
1FE
330
1FD
100
AcDbEntity
  8
LIVELLO 03
100
AcDbVertex
100
AcDb2dVertex
 10
470.0
 20
-287.0
 30
0.0
  0
VERTEX
  5
1FF
330
1FD
100
AcDbEntity
  8
LIVELLO 03
100
AcDbVertex
100
AcDb2dVertex
 10
455.0
 20
-287.0
 30
0.0
  0
VERTEX
  5
200
330
1FD
100
AcDbEntity
  8
LIVELLO 03
100
AcDbVertex
100
AcDb2dVertex
 10
455.0
 20
-283.0
 30
0.0
  0
VERTEX
  5
201
330
1FD
100
AcDbEntity
  8
LIVELLO 03
100
AcDbVertex
100
AcDb2dVertex
 10
440.0
 20
-283.0
 30
0.0
  0
VERTEX
  5
202
330
1FD
100
AcDbEntity
  8
LIVELLO 03
100
AcDbVertex
100
AcDb2dVertex
 10
440.0
 20
-287.0
 30
0.0
  0
VERTEX
  5
203
330
1FD
100
AcDbEntity
  8
LIVELLO 03
100
AcDbVertex
100
AcDb2dVertex
 10
425.0
 20
-287.0
 30
0.0
  0
SEQEND
  5
204
330
1FD
100
AcDbEntity
  8
LIVELLO 03
  0
LINE
  5
205
330
1F
100
AcDbEntity
  8
LIVELLO 03
100
AcDbLine
 10
470.0
 20
-277.0
 30
0.0
 11
470.0
 21
-287.0
 31
0.0
  0
LINE
  5
206
330
1F
100
AcDbEntity
  8
LIVELLO 03
100
AcDbLine
 10
474.0
 20
-277.0
 30
0.0
 11
470.0
 21
-277.0
 31
0.0
  0
LINE
  5
207
330
1F
100
AcDbEntity
  8
LIVELLO 03
100
AcDbLine
 10
179.0
 20
-440.5
 30
0.0
 11
194.0
 21
-440.5
 31
0.0
  0
LINE
  5
208
330
1F
100
AcDbEntity
  8
LIVELLO 03
100
AcDbLine
 10
179.0
 20
-444.5
 30
0.0
 11
179.0
 21
-440.5
 31
0.0
  0
LINE
  5
209
330
1F
100
AcDbEntity
  8
LIVELLO 03
100
AcDbLine
 10
164.0
 20
-444.5
 30
0.0
 11
179.0
 21
-444.5
 31
0.0
  0
LINE
  5
20A
330
1F
100
AcDbEntity
  8
LIVELLO 03
100
AcDbLine
 10
419.0
 20
-308.5
 30
0.0
 11
419.0
 21
-304.5
 31
0.0
  0
POLYLINE
  5
20B
330
1F
100
AcDbEntity
  8
LIVELLO 03
100
AcDb2dPolyline
 66
     1
 10
0.0
 20
0.0
 30
0.0
  0
VERTEX
  5
20C
330
20B
100
AcDbEntity
  8
LIVELLO 03
100
AcDbVertex
100
AcDb2dVertex
 10
168.0
 20
-440.5
 30
0.0
  0
VERTEX
  5
20D
330
20B
100
AcDbEntity
  8
LIVELLO 03
100
AcDbVertex
100
AcDb2dVertex
 10
164.0
 20
-440.5
 30
0.0
  0
VERTEX
  5
20E
330
20B
100
AcDbEntity
  8
LIVELLO 03
100
AcDbVertex
100
AcDb2dVertex
 10
164.0
 20
-444.5
 30
0.0
  0
SEQEND
  5
20F
330
20B
100
AcDbEntity
  8
LIVELLO 03
  0
LINE
  5
210
330
1F
100
AcDbEntity
  8
LIVELLO 03
100
AcDbLine
 10
434.0
 20
-308.5
 30
0.0
 11
419.0
 21
-308.5
 31
0.0
  0
LINE
  5
211
330
1F
100
AcDbEntity
  8
LIVELLO 03
100
AcDbLine
 10
314.0
 20
-304.5
 30
0.0
 11
314.0
 21
-308.5
 31
0.0
  0
LINE
  5
212
330
1F
100
AcDbEntity
  8
LIVELLO 03
100
AcDbLine
 10
329.0
 20
-304.5
 30
0.0
 11
314.0
 21
-304.5
 31
0.0
  0
LINE
  5
213
330
1F
100
AcDbEntity
  8
LIVELLO 03
100
AcDbLine
 10
329.0
 20
-308.5
 30
0.0
 11
329.0
 21
-304.5
 31
0.0
  0
LINE
  5
214
330
1F
100
AcDbEntity
  8
LIVELLO 03
100
AcDbLine
 10
344.0
 20
-308.5
 30
0.0
 11
329.0
 21
-308.5
 31
0.0
  0
LINE
  5
215
330
1F
100
AcDbEntity
  8
LIVELLO 03
100
AcDbLine
 10
344.0
 20
-304.5
 30
0.0
 11
344.0
 21
-308.5
 31
0.0
  0
LINE
  5
216
330
1F
100
AcDbEntity
  8
LIVELLO 03
100
AcDbLine
 10
359.0
 20
-304.5
 30
0.0
 11
344.0
 21
-304.5
 31
0.0
  0
LINE
  5
217
330
1F
100
AcDbEntity
  8
LIVELLO 03
100
AcDbLine
 10
359.0
 20
-308.5
 30
0.0
 11
359.0
 21
-304.5
 31
0.0
  0
LINE
  5
218
330
1F
100
AcDbEntity
  8
LIVELLO 03
100
AcDbLine
 10
374.0
 20
-308.5
 30
0.0
 11
359.0
 21
-308.5
 31
0.0
  0
LINE
  5
219
330
1F
100
AcDbEntity
  8
LIVELLO 03
100
AcDbLine
 10
374.0
 20
-304.5
 30
0.0
 11
374.0
 21
-308.5
 31
0.0
  0
LINE
  5
21A
330
1F
100
AcDbEntity
  8
LIVELLO 03
100
AcDbLine
 10
389.0
 20
-304.5
 30
0.0
 11
374.0
 21
-304.5
 31
0.0
  0
LINE
  5
21B
330
1F
100
AcDbEntity
  8
LIVELLO 03
100
AcDbLine
 10
389.0
 20
-308.5
 30
0.0
 11
389.0
 21
-304.5
 31
0.0
  0
LINE
  5
21C
330
1F
100
AcDbEntity
  8
LIVELLO 03
100
AcDbLine
 10
404.0
 20
-308.5
 30
0.0
 11
389.0
 21
-308.5
 31
0.0
  0
LINE
  5
21D
330
1F
100
AcDbEntity
  8
LIVELLO 03
100
AcDbLine
 10
404.0
 20
-304.5
 30
0.0
 11
404.0
 21
-308.5
 31
0.0
  0
LINE
  5
21E
330
1F
100
AcDbEntity
  8
LIVELLO 03
100
AcDbLine
 10
419.0
 20
-304.5
 30
0.0
 11
404.0
 21
-304.5
 31
0.0
  0
LINE
  5
21F
330
1F
100
AcDbEntity
  8
LIVELLO 03
100
AcDbLine
 10
239.0
 20
-308.5
 30
0.0
 11
239.0
 21
-304.5
 31
0.0
  0
LINE
  5
220
330
1F
100
AcDbEntity
  8
LIVELLO 03
100
AcDbLine
 10
239.0
 20
-304.5
 30
0.0
 11
224.0
 21
-304.5
 31
0.0
  0
LINE
  5
221
330
1F
100
AcDbEntity
  8
LIVELLO 03
100
AcDbLine
 10
254.0
 20
-304.5
 30
0.0
 11
254.0
 21
-308.5
 31
0.0
  0
LINE
  5
222
330
1F
100
AcDbEntity
  8
LIVELLO 03
100
AcDbLine
 10
269.0
 20
-308.5
 30
0.0
 11
269.0
 21
-304.5
 31
0.0
  0
LINE
  5
223
330
1F
100
AcDbEntity
  8
LIVELLO 03
100
AcDbLine
 10
284.0
 20
-308.5
 30
0.0
 11
269.0
 21
-308.5
 31
0.0
  0
LINE
  5
224
330
1F
100
AcDbEntity
  8
LIVELLO 03
100
AcDbLine
 10
284.0
 20
-304.5
 30
0.0
 11
284.0
 21
-308.5
 31
0.0
  0
LINE
  5
225
330
1F
100
AcDbEntity
  8
LIVELLO 03
100
AcDbLine
 10
299.0
 20
-308.5
 30
0.0
 11
299.0
 21
-304.5
 31
0.0
  0
LINE
  5
226
330
1F
100
AcDbEntity
  8
LIVELLO 03
100
AcDbLine
 10
254.0
 20
-308.5
 30
0.0
 11
239.0
 21
-308.5
 31
0.0
  0
LINE
  5
227
330
1F
100
AcDbEntity
  8
LIVELLO 03
100
AcDbLine
 10
269.0
 20
-304.5
 30
0.0
 11
254.0
 21
-304.5
 31
0.0
  0
LINE
  5
228
330
1F
100
AcDbEntity
  8
LIVELLO 03
100
AcDbLine
 10
224.0
 20
-467.0
 30
0.0
 11
209.0
 21
-467.0
 31
0.0
  0
LINE
  5
229
330
1F
100
AcDbEntity
  8
LIVELLO 03
100
AcDbLine
 10
224.0
 20
-471.0
 30
0.0
 11
224.0
 21
-467.0
 31
0.0
  0
LINE
  5
22A
330
1F
100
AcDbEntity
  8
LIVELLO 03
100
AcDbLine
 10
239.0
 20
-471.0
 30
0.0
 11
224.0
 21
-471.0
 31
0.0
  0
LINE
  5
22B
330
1F
100
AcDbEntity
  8
LIVELLO 03
100
AcDbLine
 10
239.0
 20
-467.0
 30
0.0
 11
239.0
 21
-471.0
 31
0.0
  0
LINE
  5
22C
330
1F
100
AcDbEntity
  8
LIVELLO 03
100
AcDbLine
 10
254.0
 20
-467.0
 30
0.0
 11
239.0
 21
-467.0
 31
0.0
  0
LINE
  5
22D
330
1F
100
AcDbEntity
  8
LIVELLO 03
100
AcDbLine
 10
254.0
 20
-471.0
 30
0.0
 11
254.0
 21
-467.0
 31
0.0
  0
LINE
  5
22E
330
1F
100
AcDbEntity
  8
LIVELLO 03
100
AcDbLine
 10
299.0
 20
-304.5
 30
0.0
 11
284.0
 21
-304.5
 31
0.0
  0
LINE
  5
22F
330
1F
100
AcDbEntity
  8
LIVELLO 03
100
AcDbLine
 10
314.0
 20
-308.5
 30
0.0
 11
299.0
 21
-308.5
 31
0.0
  0
LINE
  5
230
330
1F
100
AcDbEntity
  8
LIVELLO 03
100
AcDbLine
 10
194.0
 20
-308.5
 30
0.0
 11
179.0
 21
-308.5
 31
0.0
  0
LINE
  5
231
330
1F
100
AcDbEntity
  8
LIVELLO 03
100
AcDbLine
 10
179.0
 20
-304.5
 30
0.0
 11
168.0
 21
-304.5
 31
0.0
  0
SPLINE
  5
232
330
1F
100
AcDbEntity
  8
LIVELLO 03
100
AcDbSpline
210
0.0
220
0.0
230
1.0
 70
     8
 71
     2
 72
    38
 73
    35
 74
     0
 42
0.0000000001
 43
0.0000000001
 40
-166.0
 40
-166.0
 40
-166.0
 40
-150.0
 40
-150.0
 40
-146.0
 40
-146.0
 40
-131.0
 40
-131.0
 40
-127.0
 40
-127.0
 40
-112.0
 40
-112.0
 40
-108.0
 40
-108.0
 40
-93.0
 40
-93.0
 40
-89.0
 40
-89.0
 40
-74.0
 40
-74.0
 40
-70.0
 40
-70.0
 40
-55.0
 40
-55.0
 40
-51.0
 40
-51.0
 40
-36.0
 40
-36.0
 40
-33.0
 40
-33.0
 40
-18.0
 40
-18.0
 40
-15.0
 40
-15.0
 40
0.0
 40
0.0
 40
0.0
 10
168.0
 20
-304.5
 30
0.0
 10
168.0
 20
-312.5
 30
0.0
 10
168.0
 20
-320.5
 30
0.0
 10
166.0
 20
-320.5
 30
0.0
 10
164.0
 20
-320.5
 30
0.0
 10
164.0
 20
-328.0
 30
0.0
 10
164.0
 20
-335.5
 30
0.0
 10
166.0
 20
-335.5
 30
0.0
 10
168.0
 20
-335.5
 30
0.0
 10
168.0
 20
-343.0
 30
0.0
 10
168.0
 20
-350.5
 30
0.0
 10
166.0
 20
-350.5
 30
0.0
 10
164.0
 20
-350.5
 30
0.0
 10
164.0
 20
-358.0
 30
0.0
 10
164.0
 20
-365.5
 30
0.0
 10
166.0
 20
-365.5
 30
0.0
 10
168.0
 20
-365.5
 30
0.0
 10
168.0
 20
-373.0
 30
0.0
 10
168.0
 20
-380.5
 30
0.0
 10
166.0
 20
-380.5
 30
0.0
 10
164.0
 20
-380.5
 30
0.0
 10
164.0
 20
-388.0
 30
0.0
 10
164.0
 20
-395.5
 30
0.0
 10
166.0
 20
-395.5
 30
0.0
 10
168.0
 20
-395.5
 30
0.0
 10
168.0
 20
-403.0
 30
0.0
 10
168.0
 20
-410.5
 30
0.0
 10
166.0
 20
-410.5
 30
0.0
 10
164.0
 20
-410.5
 30
0.0
 10
164.0
 20
-418.0
 30
0.0
 10
164.0
 20
-425.5
 30
0.0
 10
166.0
 20
-425.5
 30
0.0
 10
168.0
 20
-425.5
 30
0.0
 10
168.0
 20
-433.0
 30
0.0
 10
168.0
 20
-440.5
 30
0.0
  0
LINE
  5
233
330
1F
100
AcDbEntity
  8
LIVELLO 03
100
AcDbLine
 10
194.0
 20
-304.5
 30
0.0
 11
194.0
 21
-308.5
 31
0.0
  0
LINE
  5
234
330
1F
100
AcDbEntity
  8
LIVELLO 03
100
AcDbLine
 10
209.0
 20
-304.5
 30
0.0
 11
194.0
 21
-304.5
 31
0.0
  0
LINE
  5
235
330
1F
100
AcDbEntity
  8
LIVELLO 03
100
AcDbLine
 10
209.0
 20
-308.5
 30
0.0
 11
209.0
 21
-304.5
 31
0.0
  0
LINE
  5
236
330
1F
100
AcDbEntity
  8
LIVELLO 03
100
AcDbLine
 10
224.0
 20
-308.5
 30
0.0
 11
209.0
 21
-308.5
 31
0.0
  0
LINE
  5
237
330
1F
100
AcDbEntity
  8
LIVELLO 03
100
AcDbLine
 10
224.0
 20
-304.5
 30
0.0
 11
224.0
 21
-308.5
 31
0.0
  0
LINE
  5
238
330
1F
100
AcDbEntity
  8
LIVELLO 03
100
AcDbLine
 10
179.0
 20
-308.5
 30
0.0
 11
179.0
 21
-304.5
 31
0.0
  0
LINE
  5
239
330
1F
100
AcDbEntity
  8
LIVELLO 03
100
AcDbLine
 10
419.0
 20
-602.0
 30
0.0
 11
419.0
 21
-606.0
 31
0.0
  0
LINE
  5
23A
330
1F
100
AcDbEntity
  8
LIVELLO 03
100
AcDbLine
 10
404.0
 20
-602.0
 30
0.0
 11
419.0
 21
-602.0
 31
0.0
  0
LINE
  5
23B
330
1F
100
AcDbEntity
  8
LIVELLO 03
100
AcDbLine
 10
404.0
 20
-606.0
 30
0.0
 11
404.0
 21
-602.0
 31
0.0
  0
LINE
  5
23C
330
1F
100
AcDbEntity
  8
LIVELLO 03
100
AcDbLine
 10
389.0
 20
-606.0
 30
0.0
 11
404.0
 21
-606.0
 31
0.0
  0
LINE
  5
23D
330
1F
100
AcDbEntity
  8
LIVELLO 03
100
AcDbLine
 10
389.0
 20
-602.0
 30
0.0
 11
389.0
 21
-606.0
 31
0.0
  0
LINE
  5
23E
330
1F
100
AcDbEntity
  8
LIVELLO 03
100
AcDbLine
 10
374.0
 20
-602.0
 30
0.0
 11
389.0
 21
-602.0
 31
0.0
  0
LINE
  5
23F
330
1F
100
AcDbEntity
  8
LIVELLO 03
100
AcDbLine
 10
374.0
 20
-606.0
 30
0.0
 11
374.0
 21
-602.0
 31
0.0
  0
LINE
  5
240
330
1F
100
AcDbEntity
  8
LIVELLO 03
100
AcDbLine
 10
359.0
 20
-606.0
 30
0.0
 11
374.0
 21
-606.0
 31
0.0
  0
LINE
  5
241
330
1F
100
AcDbEntity
  8
LIVELLO 03
100
AcDbLine
 10
359.0
 20
-602.0
 30
0.0
 11
359.0
 21
-606.0
 31
0.0
  0
LINE
  5
242
330
1F
100
AcDbEntity
  8
LIVELLO 03
100
AcDbLine
 10
344.0
 20
-602.0
 30
0.0
 11
359.0
 21
-602.0
 31
0.0
  0
LINE
  5
243
330
1F
100
AcDbEntity
  8
LIVELLO 03
100
AcDbLine
 10
344.0
 20
-606.0
 30
0.0
 11
344.0
 21
-602.0
 31
0.0
  0
LINE
  5
244
330
1F
100
AcDbEntity
  8
LIVELLO 03
100
AcDbLine
 10
329.0
 20
-606.0
 30
0.0
 11
344.0
 21
-606.0
 31
0.0
  0
LINE
  5
245
330
1F
100
AcDbEntity
  8
LIVELLO 03
100
AcDbLine
 10
329.0
 20
-602.0
 30
0.0
 11
329.0
 21
-606.0
 31
0.0
  0
LINE
  5
246
330
1F
100
AcDbEntity
  8
LIVELLO 03
100
AcDbLine
 10
314.0
 20
-602.0
 30
0.0
 11
329.0
 21
-602.0
 31
0.0
  0
LINE
  5
247
330
1F
100
AcDbEntity
  8
LIVELLO 03
100
AcDbLine
 10
314.0
 20
-606.0
 30
0.0
 11
314.0
 21
-602.0
 31
0.0
  0
LINE
  5
248
330
1F
100
AcDbEntity
  8
LIVELLO 03
100
AcDbLine
 10
299.0
 20
-606.0
 30
0.0
 11
314.0
 21
-606.0
 31
0.0
  0
LINE
  5
249
330
1F
100
AcDbEntity
  8
LIVELLO 03
100
AcDbLine
 10
299.0
 20
-602.0
 30
0.0
 11
299.0
 21
-606.0
 31
0.0
  0
LINE
  5
24A
330
1F
100
AcDbEntity
  8
LIVELLO 03
100
AcDbLine
 10
284.0
 20
-602.0
 30
0.0
 11
299.0
 21
-602.0
 31
0.0
  0
LINE
  5
24B
330
1F
100
AcDbEntity
  8
LIVELLO 03
100
AcDbLine
 10
284.0
 20
-606.0
 30
0.0
 11
284.0
 21
-602.0
 31
0.0
  0
LINE
  5
24C
330
1F
100
AcDbEntity
  8
LIVELLO 03
100
AcDbLine
 10
269.0
 20
-606.0
 30
0.0
 11
284.0
 21
-606.0
 31
0.0
  0
LINE
  5
24D
330
1F
100
AcDbEntity
  8
LIVELLO 03
100
AcDbLine
 10
269.0
 20
-602.0
 30
0.0
 11
269.0
 21
-606.0
 31
0.0
  0
LINE
  5
24E
330
1F
100
AcDbEntity
  8
LIVELLO 03
100
AcDbLine
 10
254.0
 20
-602.0
 30
0.0
 11
269.0
 21
-602.0
 31
0.0
  0
LINE
  5
24F
330
1F
100
AcDbEntity
  8
LIVELLO 03
100
AcDbLine
 10
254.0
 20
-606.0
 30
0.0
 11
254.0
 21
-602.0
 31
0.0
  0
LINE
  5
250
330
1F
100
AcDbEntity
  8
LIVELLO 03
100
AcDbLine
 10
239.0
 20
-606.0
 30
0.0
 11
254.0
 21
-606.0
 31
0.0
  0
LINE
  5
251
330
1F
100
AcDbEntity
  8
LIVELLO 03
100
AcDbLine
 10
239.0
 20
-602.0
 30
0.0
 11
239.0
 21
-606.0
 31
0.0
  0
LINE
  5
252
330
1F
100
AcDbEntity
  8
LIVELLO 03
100
AcDbLine
 10
224.0
 20
-602.0
 30
0.0
 11
239.0
 21
-602.0
 31
0.0
  0
LINE
  5
253
330
1F
100
AcDbEntity
  8
LIVELLO 03
100
AcDbLine
 10
224.0
 20
-606.0
 30
0.0
 11
224.0
 21
-602.0
 31
0.0
  0
LINE
  5
254
330
1F
100
AcDbEntity
  8
LIVELLO 03
100
AcDbLine
 10
209.0
 20
-606.0
 30
0.0
 11
224.0
 21
-606.0
 31
0.0
  0
LINE
  5
255
330
1F
100
AcDbEntity
  8
LIVELLO 03
100
AcDbLine
 10
209.0
 20
-602.0
 30
0.0
 11
209.0
 21
-606.0
 31
0.0
  0
LINE
  5
256
330
1F
100
AcDbEntity
  8
LIVELLO 03
100
AcDbLine
 10
194.0
 20
-602.0
 30
0.0
 11
209.0
 21
-602.0
 31
0.0
  0
LINE
  5
257
330
1F
100
AcDbEntity
  8
LIVELLO 03
100
AcDbLine
 10
194.0
 20
-606.0
 30
0.0
 11
194.0
 21
-602.0
 31
0.0
  0
LINE
  5
258
330
1F
100
AcDbEntity
  8
LIVELLO 03
100
AcDbLine
 10
179.0
 20
-606.0
 30
0.0
 11
194.0
 21
-606.0
 31
0.0
  0
LINE
  5
259
330
1F
100
AcDbEntity
  8
LIVELLO 03
100
AcDbLine
 10
179.0
 20
-602.0
 30
0.0
 11
179.0
 21
-606.0
 31
0.0
  0
LINE
  5
25A
330
1F
100
AcDbEntity
  8
LIVELLO 03
100
AcDbLine
 10
164.0
 20
-602.0
 30
0.0
 11
179.0
 21
-602.0
 31
0.0
  0
SPLINE
  5
25C
330
1F
100
AcDbEntity
  8
LIVELLO 02
100
AcDbSpline
210
0.0
220
0.0
230
1.0
 70
    11
 71
     2
 72
    12
 73
     9
 74
     0
 42
0.0000000001
 43
0.0000000001
 40
0.0
 40
0.0
 40
0.0
 40
304.0
 40
304.0
 40
427.0
 40
427.0
 40
731.0
 40
731.0
 40
854.0
 40
854.0
 40
854.0
 10
184.0
 20
-424.5
 30
0.0
 10
336.0
 20
-424.5
 30
0.0
 10
488.0
 20
-424.5
 30
0.0
 10
488.0
 20
-374.5
 30
0.0
 10
488.0
 20
-324.5
 30
0.0
 10
336.0
 20
-324.5
 30
0.0
 10
184.0
 20
-324.5
 30
0.0
 10
184.0
 20
-374.5
 30
0.0
 10
184.0
 20
-424.5
 30
0.0
  0
POLYLINE
  5
25D
330
1F
100
AcDbEntity
  8
LIVELLO 03
100
AcDb2dPolyline
 66
     1
 10
0.0
 20
0.0
 30
0.0
  0
VERTEX
  5
25E
330
25D
100
AcDbEntity
  8
LIVELLO 03
100
AcDbVertex
100
AcDb2dVertex
 10
237.0
 20
-287.0
 30
0.0
  0
VERTEX
  5
25F
330
25D
100
AcDbEntity
  8
LIVELLO 03
100
AcDbVertex
100
AcDb2dVertex
 10
237.0
 20
-283.0
 30
0.0
  0
VERTEX
  5
260
330
25D
100
AcDbEntity
  8
LIVELLO 03
100
AcDbVertex
100
AcDb2dVertex
 10
252.0
 20
-283.0
 30
0.0
  0
VERTEX
  5
261
330
25D
100
AcDbEntity
  8
LIVELLO 03
100
AcDbVertex
100
AcDb2dVertex
 10
252.0
 20
-287.0
 30
0.0
  0
VERTEX
  5
262
330
25D
100
AcDbEntity
  8
LIVELLO 03
100
AcDbVertex
100
AcDb2dVertex
 10
267.0
 20
-287.0
 30
0.0
  0
VERTEX
  5
263
330
25D
100
AcDbEntity
  8
LIVELLO 03
100
AcDbVertex
100
AcDb2dVertex
 10
267.0
 20
-283.0
 30
0.0
  0
VERTEX
  5
264
330
25D
100
AcDbEntity
  8
LIVELLO 03
100
AcDbVertex
100
AcDb2dVertex
 10
282.0
 20
-283.0
 30
0.0
  0
VERTEX
  5
265
330
25D
100
AcDbEntity
  8
LIVELLO 03
100
AcDbVertex
100
AcDb2dVertex
 10
282.0
 20
-287.0
 30
0.0
  0
VERTEX
  5
266
330
25D
100
AcDbEntity
  8
LIVELLO 03
100
AcDbVertex
100
AcDb2dVertex
 10
297.0
 20
-287.0
 30
0.0
  0
VERTEX
  5
267
330
25D
100
AcDbEntity
  8
LIVELLO 03
100
AcDbVertex
100
AcDb2dVertex
 10
297.0
 20
-283.0
 30
0.0
  0
VERTEX
  5
268
330
25D
100
AcDbEntity
  8
LIVELLO 03
100
AcDbVertex
100
AcDb2dVertex
 10
308.0
 20
-283.0
 30
0.0
  0
SEQEND
  5
269
330
25D
100
AcDbEntity
  8
LIVELLO 03
  0
POLYLINE
  5
26A
330
1F
100
AcDbEntity
  8
LIVELLO 03
100
AcDb2dPolyline
 66
     1
 10
0.0
 20
0.0
 30
0.0
  0
VERTEX
  5
26B
330
26A
100
AcDbEntity
  8
LIVELLO 03
100
AcDbVertex
100
AcDb2dVertex
 10
192.0
 20
-287.0
 30
0.0
  0
VERTEX
  5
26C
330
26A
100
AcDbEntity
  8
LIVELLO 03
100
AcDbVertex
100
AcDb2dVertex
 10
207.0
 20
-287.0
 30
0.0
  0
VERTEX
  5
26D
330
26A
100
AcDbEntity
  8
LIVELLO 03
100
AcDbVertex
100
AcDb2dVertex
 10
207.0
 20
-283.0
 30
0.0
  0
VERTEX
  5
26E
330
26A
100
AcDbEntity
  8
LIVELLO 03
100
AcDbVertex
100
AcDb2dVertex
 10
222.0
 20
-283.0
 30
0.0
  0
VERTEX
  5
26F
330
26A
100
AcDbEntity
  8
LIVELLO 03
100
AcDbVertex
100
AcDb2dVertex
 10
222.0
 20
-287.0
 30
0.0
  0
VERTEX
  5
270
330
26A
100
AcDbEntity
  8
LIVELLO 03
100
AcDbVertex
100
AcDb2dVertex
 10
237.0
 20
-287.0
 30
0.0
  0
SEQEND
  5
271
330
26A
100
AcDbEntity
  8
LIVELLO 03
  0
LINE
  5
272
330
1F
100
AcDbEntity
  8
LIVELLO 03
100
AcDbLine
 10
192.0
 20
-277.0
 30
0.0
 11
192.0
 21
-287.0
 31
0.0
  0
LINE
  5
273
330
1F
100
AcDbEntity
  8
LIVELLO 03
100
AcDbLine
 10
188.0
 20
-277.0
 30
0.0
 11
192.0
 21
-277.0
 31
0.0
  0
LINE
  5
274
330
1F
100
AcDbEntity
  8
LIVELLO 03
100
AcDbLine
 10
188.0
 20
-262.0
 30
0.0
 11
188.0
 21
-277.0
 31
0.0
  0
LINE
  5
275
330
1F
100
AcDbEntity
  8
LIVELLO 03
100
AcDbLine
 10
192.0
 20
-262.0
 30
0.0
 11
188.0
 21
-262.0
 31
0.0
  0
LINE
  5
276
330
1F
100
AcDbEntity
  8
LIVELLO 03
100
AcDbLine
 10
192.0
 20
-247.0
 30
0.0
 11
192.0
 21
-262.0
 31
0.0
  0
LINE
  5
277
330
1F
100
AcDbEntity
  8
LIVELLO 03
100
AcDbLine
 10
188.0
 20
-247.0
 30
0.0
 11
192.0
 21
-247.0
 31
0.0
  0
LINE
  5
278
330
1F
100
AcDbEntity
  8
LIVELLO 03
100
AcDbLine
 10
188.0
 20
-238.0
 30
0.0
 11
188.0
 21
-247.0
 31
0.0
  0
POLYLINE
  5
279
330
1F
100
AcDbEntity
  8
LIVELLO 03
100
AcDb2dPolyline
 66
     1
 10
0.0
 20
0.0
 30
0.0
  0
VERTEX
  5
27A
330
279
100
AcDbEntity
  8
LIVELLO 03
100
AcDbVertex
100
AcDb2dVertex
 10
238.0
 20
-238.0
 30
0.0
  0
VERTEX
  5
27B
330
279
100
AcDbEntity
  8
LIVELLO 03
100
AcDbVertex
100
AcDb2dVertex
 10
188.0
 20
-238.0
 30
0.0
  0
SEQEND
  5
27C
330
279
100
AcDbEntity
  8
LIVELLO 03
  0
POLYLINE
  5
27D
330
1F
100
AcDbEntity
  8
LIVELLO 03
100
AcDb2dPolyline
 66
     1
 10
0.0
 20
0.0
 30
0.0
  0
VERTEX
  5
27E
330
27D
100
AcDbEntity
  8
LIVELLO 03
100
AcDbVertex
100
AcDb2dVertex
 10
238.0
 20
-147.0
 30
0.0
  0
VERTEX
  5
27F
330
27D
100
AcDbEntity
  8
LIVELLO 03
100
AcDbVertex
100
AcDb2dVertex
 10
238.0
 20
-157.0
 30
0.0
  0
VERTEX
  5
280
330
27D
100
AcDbEntity
  8
LIVELLO 03
100
AcDbVertex
100
AcDb2dVertex
 10
242.0
 20
-157.0
 30
0.0
  0
VERTEX
  5
281
330
27D
100
AcDbEntity
  8
LIVELLO 03
100
AcDbVertex
100
AcDb2dVertex
 10
242.0
 20
-172.0
 30
0.0
  0
VERTEX
  5
282
330
27D
100
AcDbEntity
  8
LIVELLO 03
100
AcDbVertex
100
AcDb2dVertex
 10
238.0
 20
-172.0
 30
0.0
  0
VERTEX
  5
283
330
27D
100
AcDbEntity
  8
LIVELLO 03
100
AcDbVertex
100
AcDb2dVertex
 10
238.0
 20
-187.0
 30
0.0
  0
VERTEX
  5
284
330
27D
100
AcDbEntity
  8
LIVELLO 03
100
AcDbVertex
100
AcDb2dVertex
 10
242.0
 20
-187.0
 30
0.0
  0
VERTEX
  5
285
330
27D
100
AcDbEntity
  8
LIVELLO 03
100
AcDbVertex
100
AcDb2dVertex
 10
242.0
 20
-202.0
 30
0.0
  0
VERTEX
  5
286
330
27D
100
AcDbEntity
  8
LIVELLO 03
100
AcDbVertex
100
AcDb2dVertex
 10
238.0
 20
-202.0
 30
0.0
  0
VERTEX
  5
287
330
27D
100
AcDbEntity
  8
LIVELLO 03
100
AcDbVertex
100
AcDb2dVertex
 10
238.0
 20
-217.0
 30
0.0
  0
VERTEX
  5
288
330
27D
100
AcDbEntity
  8
LIVELLO 03
100
AcDbVertex
100
AcDb2dVertex
 10
242.0
 20
-217.0
 30
0.0
  0
VERTEX
  5
289
330
27D
100
AcDbEntity
  8
LIVELLO 03
100
AcDbVertex
100
AcDb2dVertex
 10
242.0
 20
-232.0
 30
0.0
  0
VERTEX
  5
28A
330
27D
100
AcDbEntity
  8
LIVELLO 03
100
AcDbVertex
100
AcDb2dVertex
 10
238.0
 20
-232.0
 30
0.0
  0
VERTEX
  5
28B
330
27D
100
AcDbEntity
  8
LIVELLO 03
100
AcDbVertex
100
AcDb2dVertex
 10
238.0
 20
-238.0
 30
0.0
  0
SEQEND
  5
28C
330
27D
100
AcDbEntity
  8
LIVELLO 03
  0
POLYLINE
  5
28D
330
1F
100
AcDbEntity
  8
LIVELLO 03
100
AcDb2dPolyline
 66
     1
 10
0.0
 20
0.0
 30
0.0
  0
VERTEX
  5
28E
330
28D
100
AcDbEntity
  8
LIVELLO 03
100
AcDbVertex
100
AcDb2dVertex
 10
308.0
 20
-147.0
 30
0.0
  0
VERTEX
  5
28F
330
28D
100
AcDbEntity
  8
LIVELLO 03
100
AcDbVertex
100
AcDb2dVertex
 10
293.0
 20
-147.0
 30
0.0
  0
VERTEX
  5
290
330
28D
100
AcDbEntity
  8
LIVELLO 03
100
AcDbVertex
100
AcDb2dVertex
 10
293.0
 20
-151.0
 30
0.0
  0
VERTEX
  5
291
330
28D
100
AcDbEntity
  8
LIVELLO 03
100
AcDbVertex
100
AcDb2dVertex
 10
278.0
 20
-151.0
 30
0.0
  0
VERTEX
  5
292
330
28D
100
AcDbEntity
  8
LIVELLO 03
100
AcDbVertex
100
AcDb2dVertex
 10
278.0
 20
-147.0
 30
0.0
  0
VERTEX
  5
293
330
28D
100
AcDbEntity
  8
LIVELLO 03
100
AcDbVertex
100
AcDb2dVertex
 10
263.0
 20
-147.0
 30
0.0
  0
VERTEX
  5
294
330
28D
100
AcDbEntity
  8
LIVELLO 03
100
AcDbVertex
100
AcDb2dVertex
 10
263.0
 20
-151.0
 30
0.0
  0
VERTEX
  5
295
330
28D
100
AcDbEntity
  8
LIVELLO 03
100
AcDbVertex
100
AcDb2dVertex
 10
248.0
 20
-151.0
 30
0.0
  0
VERTEX
  5
296
330
28D
100
AcDbEntity
  8
LIVELLO 03
100
AcDbVertex
100
AcDb2dVertex
 10
248.0
 20
-147.0
 30
0.0
  0
VERTEX
  5
297
330
28D
100
AcDbEntity
  8
LIVELLO 03
100
AcDbVertex
100
AcDb2dVertex
 10
238.0
 20
-147.0
 30
0.0
  0
SEQEND
  5
298
330
28D
100
AcDbEntity
  8
LIVELLO 03
  0
LINE
  5
299
330
1F
100
AcDbEntity
  8
LIVELLO 03
100
AcDbLine
 10
314.0
 20
-467.0
 30
0.0
 11
299.0
 21
-467.0
 31
0.0
  0
LINE
  5
29A
330
1F
100
AcDbEntity
  8
LIVELLO 03
100
AcDbLine
 10
314.0
 20
-471.0
 30
0.0
 11
314.0
 21
-467.0
 31
0.0
  0
LINE
  5
29B
330
1F
100
AcDbEntity
  8
LIVELLO 03
100
AcDbLine
 10
329.0
 20
-471.0
 30
0.0
 11
314.0
 21
-471.0
 31
0.0
  0
LINE
  5
29C
330
1F
100
AcDbEntity
  8
LIVELLO 03
100
AcDbLine
 10
329.0
 20
-467.0
 30
0.0
 11
329.0
 21
-471.0
 31
0.0
  0
LINE
  5
29D
330
1F
100
AcDbEntity
  8
LIVELLO 03
100
AcDbLine
 10
344.0
 20
-467.0
 30
0.0
 11
329.0
 21
-467.0
 31
0.0
  0
LINE
  5
29E
330
1F
100
AcDbEntity
  8
LIVELLO 03
100
AcDbLine
 10
344.0
 20
-471.0
 30
0.0
 11
344.0
 21
-467.0
 31
0.0
  0
LINE
  5
29F
330
1F
100
AcDbEntity
  8
LIVELLO 03
100
AcDbLine
 10
359.0
 20
-471.0
 30
0.0
 11
344.0
 21
-471.0
 31
0.0
  0
LINE
  5
2A0
330
1F
100
AcDbEntity
  8
LIVELLO 03
100
AcDbLine
 10
359.0
 20
-467.0
 30
0.0
 11
359.0
 21
-471.0
 31
0.0
  0
LINE
  5
2A1
330
1F
100
AcDbEntity
  8
LIVELLO 03
100
AcDbLine
 10
374.0
 20
-467.0
 30
0.0
 11
359.0
 21
-467.0
 31
0.0
  0
LINE
  5
2A2
330
1F
100
AcDbEntity
  8
LIVELLO 03
100
AcDbLine
 10
374.0
 20
-471.0
 30
0.0
 11
374.0
 21
-467.0
 31
0.0
  0
LINE
  5
2A3
330
1F
100
AcDbEntity
  8
LIVELLO 03
100
AcDbLine
 10
389.0
 20
-471.0
 30
0.0
 11
374.0
 21
-471.0
 31
0.0
  0
LINE
  5
2A4
330
1F
100
AcDbEntity
  8
LIVELLO 03
100
AcDbLine
 10
389.0
 20
-467.0
 30
0.0
 11
389.0
 21
-471.0
 31
0.0
  0
LINE
  5
2A5
330
1F
100
AcDbEntity
  8
LIVELLO 03
100
AcDbLine
 10
404.0
 20
-467.0
 30
0.0
 11
389.0
 21
-467.0
 31
0.0
  0
LINE
  5
2A6
330
1F
100
AcDbEntity
  8
LIVELLO 03
100
AcDbLine
 10
404.0
 20
-471.0
 30
0.0
 11
404.0
 21
-467.0
 31
0.0
  0
LINE
  5
2A7
330
1F
100
AcDbEntity
  8
LIVELLO 03
100
AcDbLine
 10
419.0
 20
-471.0
 30
0.0
 11
404.0
 21
-471.0
 31
0.0
  0
LINE
  5
2A8
330
1F
100
AcDbEntity
  8
LIVELLO 03
100
AcDbLine
 10
419.0
 20
-467.0
 30
0.0
 11
419.0
 21
-471.0
 31
0.0
  0
LINE
  5
2A9
330
1F
100
AcDbEntity
  8
LIVELLO 03
100
AcDbLine
 10
434.0
 20
-467.0
 30
0.0
 11
419.0
 21
-467.0
 31
0.0
  0
LINE
  5
2AA
330
1F
100
AcDbEntity
  8
LIVELLO 03
100
AcDbLine
 10
434.0
 20
-471.0
 30
0.0
 11
434.0
 21
-467.0
 31
0.0
  0
LINE
  5
2AB
330
1F
100
AcDbEntity
  8
LIVELLO 03
100
AcDbLine
 10
449.0
 20
-471.0
 30
0.0
 11
434.0
 21
-471.0
 31
0.0
  0
LINE
  5
2AC
330
1F
100
AcDbEntity
  8
LIVELLO 03
100
AcDbLine
 10
449.0
 20
-467.0
 30
0.0
 11
449.0
 21
-471.0
 31
0.0
  0
LINE
  5
2AD
330
1F
100
AcDbEntity
  8
LIVELLO 03
100
AcDbLine
 10
464.0
 20
-467.0
 30
0.0
 11
449.0
 21
-467.0
 31
0.0
  0
LINE
  5
2AE
330
1F
100
AcDbEntity
  8
LIVELLO 03
100
AcDbLine
 10
464.0
 20
-471.0
 30
0.0
 11
464.0
 21
-467.0
 31
0.0
  0
LINE
  5
2AF
330
1F
100
AcDbEntity
  8
LIVELLO 03
100
AcDbLine
 10
479.0
 20
-471.0
 30
0.0
 11
464.0
 21
-471.0
 31
0.0
  0
LINE
  5
2B0
330
1F
100
AcDbEntity
  8
LIVELLO 03
100
AcDbLine
 10
479.0
 20
-467.0
 30
0.0
 11
479.0
 21
-471.0
 31
0.0
  0
LINE
  5
2B1
330
1F
100
AcDbEntity
  8
LIVELLO 03
100
AcDbLine
 10
164.0
 20
-612.0
 30
0.0
 11
164.0
 21
-602.0
 31
0.0
  0
LINE
  5
2B2
330
1F
100
AcDbEntity
  8
LIVELLO 03
100
AcDbLine
 10
168.0
 20
-612.0
 30
0.0
 11
164.0
 21
-612.0
 31
0.0
  0
LINE
  5
2B3
330
1F
100
AcDbEntity
  8
LIVELLO 03
100
AcDbLine
 10
168.0
 20
-627.0
 30
0.0
 11
168.0
 21
-612.0
 31
0.0
  0
LINE
  5
2B4
330
1F
100
AcDbEntity
  8
LIVELLO 03
100
AcDbLine
 10
164.0
 20
-627.0
 30
0.0
 11
168.0
 21
-627.0
 31
0.0
  0
LINE
  5
2B5
330
1F
100
AcDbEntity
  8
LIVELLO 03
100
AcDbLine
 10
164.0
 20
-642.0
 30
0.0
 11
164.0
 21
-627.0
 31
0.0
  0
LINE
  5
2B6
330
1F
100
AcDbEntity
  8
LIVELLO 03
100
AcDbLine
 10
168.0
 20
-642.0
 30
0.0
 11
164.0
 21
-642.0
 31
0.0
  0
LINE
  5
2B7
330
1F
100
AcDbEntity
  8
LIVELLO 03
100
AcDbLine
 10
168.0
 20
-651.0
 30
0.0
 11
168.0
 21
-642.0
 31
0.0
  0
LINE
  5
2B8
330
1F
100
AcDbEntity
  8
LIVELLO 03
100
AcDbLine
 10
504.0
 20
-651.0
 30
0.0
 11
168.0
 21
-651.0
 31
0.0
  0
LINE
  5
2B9
330
1F
100
AcDbEntity
  8
LIVELLO 03
100
AcDbLine
 10
504.0
 20
-642.0
 30
0.0
 11
504.0
 21
-651.0
 31
0.0
  0
LINE
  5
2BA
330
1F
100
AcDbEntity
  8
LIVELLO 03
100
AcDbLine
 10
508.0
 20
-642.0
 30
0.0
 11
504.0
 21
-642.0
 31
0.0
  0
LINE
  5
2BB
330
1F
100
AcDbEntity
  8
LIVELLO 03
100
AcDbLine
 10
508.0
 20
-627.0
 30
0.0
 11
508.0
 21
-642.0
 31
0.0
  0
LINE
  5
2BC
330
1F
100
AcDbEntity
  8
LIVELLO 03
100
AcDbLine
 10
504.0
 20
-627.0
 30
0.0
 11
508.0
 21
-627.0
 31
0.0
  0
LINE
  5
2BD
330
1F
100
AcDbEntity
  8
LIVELLO 03
100
AcDbLine
 10
504.0
 20
-612.0
 30
0.0
 11
504.0
 21
-627.0
 31
0.0
  0
LINE
  5
2BE
330
1F
100
AcDbEntity
  8
LIVELLO 03
100
AcDbLine
 10
508.0
 20
-612.0
 30
0.0
 11
504.0
 21
-612.0
 31
0.0
  0
LINE
  5
2BF
330
1F
100
AcDbEntity
  8
LIVELLO 03
100
AcDbLine
 10
508.0
 20
-602.0
 30
0.0
 11
508.0
 21
-612.0
 31
0.0
  0
LINE
  5
2C0
330
1F
100
AcDbEntity
  8
LIVELLO 03
100
AcDbLine
 10
494.0
 20
-602.0
 30
0.0
 11
508.0
 21
-602.0
 31
0.0
  0
LINE
  5
2C1
330
1F
100
AcDbEntity
  8
LIVELLO 03
100
AcDbLine
 10
494.0
 20
-606.0
 30
0.0
 11
494.0
 21
-602.0
 31
0.0
  0
LINE
  5
2C2
330
1F
100
AcDbEntity
  8
LIVELLO 03
100
AcDbLine
 10
479.0
 20
-606.0
 30
0.0
 11
494.0
 21
-606.0
 31
0.0
  0
LINE
  5
2C3
330
1F
100
AcDbEntity
  8
LIVELLO 03
100
AcDbLine
 10
479.0
 20
-602.0
 30
0.0
 11
479.0
 21
-606.0
 31
0.0
  0
LINE
  5
2C4
330
1F
100
AcDbEntity
  8
LIVELLO 03
100
AcDbLine
 10
464.0
 20
-602.0
 30
0.0
 11
479.0
 21
-602.0
 31
0.0
  0
LINE
  5
2C5
330
1F
100
AcDbEntity
  8
LIVELLO 03
100
AcDbLine
 10
464.0
 20
-606.0
 30
0.0
 11
464.0
 21
-602.0
 31
0.0
  0
LINE
  5
2C6
330
1F
100
AcDbEntity
  8
LIVELLO 03
100
AcDbLine
 10
449.0
 20
-606.0
 30
0.0
 11
464.0
 21
-606.0
 31
0.0
  0
LINE
  5
2C7
330
1F
100
AcDbEntity
  8
LIVELLO 03
100
AcDbLine
 10
449.0
 20
-602.0
 30
0.0
 11
449.0
 21
-606.0
 31
0.0
  0
LINE
  5
2C8
330
1F
100
AcDbEntity
  8
LIVELLO 03
100
AcDbLine
 10
434.0
 20
-602.0
 30
0.0
 11
449.0
 21
-602.0
 31
0.0
  0
LINE
  5
2C9
330
1F
100
AcDbEntity
  8
LIVELLO 03
100
AcDbLine
 10
434.0
 20
-606.0
 30
0.0
 11
434.0
 21
-602.0
 31
0.0
  0
LINE
  5
2CA
330
1F
100
AcDbEntity
  8
LIVELLO 03
100
AcDbLine
 10
419.0
 20
-606.0
 30
0.0
 11
434.0
 21
-606.0
 31
0.0
  0
LINE
  5
2CB
330
1F
100
AcDbEntity
  8
LIVELLO 03
100
AcDbLine
 10
374.0
 20
-587.0
 30
0.0
 11
374.0
 21
-583.0
 31
0.0
  0
LINE
  5
2CC
330
1F
100
AcDbEntity
  8
LIVELLO 03
100
AcDbLine
 10
359.0
 20
-587.0
 30
0.0
 11
374.0
 21
-587.0
 31
0.0
  0
LINE
  5
2CD
330
1F
100
AcDbEntity
  8
LIVELLO 03
100
AcDbLine
 10
359.0
 20
-583.0
 30
0.0
 11
359.0
 21
-587.0
 31
0.0
  0
LINE
  5
2CE
330
1F
100
AcDbEntity
  8
LIVELLO 03
100
AcDbLine
 10
344.0
 20
-583.0
 30
0.0
 11
359.0
 21
-583.0
 31
0.0
  0
LINE
  5
2CF
330
1F
100
AcDbEntity
  8
LIVELLO 03
100
AcDbLine
 10
344.0
 20
-587.0
 30
0.0
 11
344.0
 21
-583.0
 31
0.0
  0
LINE
  5
2D0
330
1F
100
AcDbEntity
  8
LIVELLO 03
100
AcDbLine
 10
329.0
 20
-587.0
 30
0.0
 11
344.0
 21
-587.0
 31
0.0
  0
LINE
  5
2D1
330
1F
100
AcDbEntity
  8
LIVELLO 03
100
AcDbLine
 10
329.0
 20
-583.0
 30
0.0
 11
329.0
 21
-587.0
 31
0.0
  0
LINE
  5
2D2
330
1F
100
AcDbEntity
  8
LIVELLO 03
100
AcDbLine
 10
314.0
 20
-583.0
 30
0.0
 11
329.0
 21
-583.0
 31
0.0
  0
LINE
  5
2D3
330
1F
100
AcDbEntity
  8
LIVELLO 03
100
AcDbLine
 10
314.0
 20
-587.0
 30
0.0
 11
314.0
 21
-583.0
 31
0.0
  0
LINE
  5
2D4
330
1F
100
AcDbEntity
  8
LIVELLO 03
100
AcDbLine
 10
299.0
 20
-587.0
 30
0.0
 11
314.0
 21
-587.0
 31
0.0
  0
LINE
  5
2D5
330
1F
100
AcDbEntity
  8
LIVELLO 03
100
AcDbLine
 10
299.0
 20
-583.0
 30
0.0
 11
299.0
 21
-587.0
 31
0.0
  0
LINE
  5
2D6
330
1F
100
AcDbEntity
  8
LIVELLO 03
100
AcDbLine
 10
284.0
 20
-583.0
 30
0.0
 11
299.0
 21
-583.0
 31
0.0
  0
LINE
  5
2D7
330
1F
100
AcDbEntity
  8
LIVELLO 03
100
AcDbLine
 10
284.0
 20
-587.0
 30
0.0
 11
284.0
 21
-583.0
 31
0.0
  0
LINE
  5
2D8
330
1F
100
AcDbEntity
  8
LIVELLO 03
100
AcDbLine
 10
269.0
 20
-587.0
 30
0.0
 11
284.0
 21
-587.0
 31
0.0
  0
LINE
  5
2D9
330
1F
100
AcDbEntity
  8
LIVELLO 03
100
AcDbLine
 10
269.0
 20
-583.0
 30
0.0
 11
269.0
 21
-587.0
 31
0.0
  0
LINE
  5
2DA
330
1F
100
AcDbEntity
  8
LIVELLO 03
100
AcDbLine
 10
254.0
 20
-583.0
 30
0.0
 11
269.0
 21
-583.0
 31
0.0
  0
LINE
  5
2DB
330
1F
100
AcDbEntity
  8
LIVELLO 03
100
AcDbLine
 10
254.0
 20
-587.0
 30
0.0
 11
254.0
 21
-583.0
 31
0.0
  0
LINE
  5
2DC
330
1F
100
AcDbEntity
  8
LIVELLO 03
100
AcDbLine
 10
239.0
 20
-587.0
 30
0.0
 11
254.0
 21
-587.0
 31
0.0
  0
LINE
  5
2DD
330
1F
100
AcDbEntity
  8
LIVELLO 03
100
AcDbLine
 10
239.0
 20
-583.0
 30
0.0
 11
239.0
 21
-587.0
 31
0.0
  0
LINE
  5
2DE
330
1F
100
AcDbEntity
  8
LIVELLO 03
100
AcDbLine
 10
224.0
 20
-583.0
 30
0.0
 11
239.0
 21
-583.0
 31
0.0
  0
LINE
  5
2DF
330
1F
100
AcDbEntity
  8
LIVELLO 03
100
AcDbLine
 10
224.0
 20
-587.0
 30
0.0
 11
224.0
 21
-583.0
 31
0.0
  0
LINE
  5
2E0
330
1F
100
AcDbEntity
  8
LIVELLO 03
100
AcDbLine
 10
209.0
 20
-587.0
 30
0.0
 11
224.0
 21
-587.0
 31
0.0
  0
LINE
  5
2E1
330
1F
100
AcDbEntity
  8
LIVELLO 03
100
AcDbLine
 10
209.0
 20
-583.0
 30
0.0
 11
209.0
 21
-587.0
 31
0.0
  0
LINE
  5
2E2
330
1F
100
AcDbEntity
  8
LIVELLO 03
100
AcDbLine
 10
194.0
 20
-583.0
 30
0.0
 11
209.0
 21
-583.0
 31
0.0
  0
LINE
  5
2E3
330
1F
100
AcDbEntity
  8
LIVELLO 03
100
AcDbLine
 10
194.0
 20
-587.0
 30
0.0
 11
194.0
 21
-583.0
 31
0.0
  0
LINE
  5
2E4
330
1F
100
AcDbEntity
  8
LIVELLO 03
100
AcDbLine
 10
179.0
 20
-587.0
 30
0.0
 11
194.0
 21
-587.0
 31
0.0
  0
LINE
  5
2E5
330
1F
100
AcDbEntity
  8
LIVELLO 03
100
AcDbLine
 10
179.0
 20
-583.0
 30
0.0
 11
179.0
 21
-587.0
 31
0.0
  0
LINE
  5
2E6
330
1F
100
AcDbEntity
  8
LIVELLO 03
100
AcDbLine
 10
168.0
 20
-583.0
 30
0.0
 11
179.0
 21
-583.0
 31
0.0
  0
POLYLINE
  5
2E7
330
1F
100
AcDbEntity
  8
LIVELLO 03
100
AcDb2dPolyline
 66
     1
 10
0.0
 20
0.0
 30
0.0
  0
VERTEX
  5
2E8
330
2E7
100
AcDbEntity
  8
LIVELLO 03
100
AcDbVertex
100
AcDb2dVertex
 10
168.0
 20
-538.0
 30
0.0
  0
VERTEX
  5
2E9
330
2E7
100
AcDbEntity
  8
LIVELLO 03
100
AcDbVertex
100
AcDb2dVertex
 10
168.0
 20
-553.0
 30
0.0
  0
VERTEX
  5
2EA
330
2E7
100
AcDbEntity
  8
LIVELLO 03
100
AcDbVertex
100
AcDb2dVertex
 10
164.0
 20
-553.0
 30
0.0
  0
VERTEX
  5
2EB
330
2E7
100
AcDbEntity
  8
LIVELLO 03
100
AcDbVertex
100
AcDb2dVertex
 10
164.0
 20
-568.0
 30
0.0
  0
VERTEX
  5
2EC
330
2E7
100
AcDbEntity
  8
LIVELLO 03
100
AcDbVertex
100
AcDb2dVertex
 10
168.0
 20
-568.0
 30
0.0
  0
VERTEX
  5
2ED
330
2E7
100
AcDbEntity
  8
LIVELLO 03
100
AcDbVertex
100
AcDb2dVertex
 10
168.0
 20
-583.0
 30
0.0
  0
SEQEND
  5
2EE
330
2E7
100
AcDbEntity
  8
LIVELLO 03
  0
POLYLINE
  5
2EF
330
1F
100
AcDbEntity
  8
LIVELLO 03
100
AcDb2dPolyline
 66
     1
 10
0.0
 20
0.0
 30
0.0
  0
VERTEX
  5
2F0
330
2EF
100
AcDbEntity
  8
LIVELLO 03
100
AcDbVertex
100
AcDb2dVertex
 10
164.0
 20
-471.0
 30
0.0
  0
VERTEX
  5
2F1
330
2EF
100
AcDbEntity
  8
LIVELLO 03
100
AcDbVertex
100
AcDb2dVertex
 10
164.0
 20
-478.0
 30
0.0
  0
VERTEX
  5
2F2
330
2EF
100
AcDbEntity
  8
LIVELLO 03
100
AcDbVertex
100
AcDb2dVertex
 10
168.0
 20
-478.0
 30
0.0
  0
VERTEX
  5
2F3
330
2EF
100
AcDbEntity
  8
LIVELLO 03
100
AcDbVertex
100
AcDb2dVertex
 10
168.0
 20
-493.0
 30
0.0
  0
VERTEX
  5
2F4
330
2EF
100
AcDbEntity
  8
LIVELLO 03
100
AcDbVertex
100
AcDb2dVertex
 10
164.0
 20
-493.0
 30
0.0
  0
VERTEX
  5
2F5
330
2EF
100
AcDbEntity
  8
LIVELLO 03
100
AcDbVertex
100
AcDb2dVertex
 10
164.0
 20
-508.0
 30
0.0
  0
VERTEX
  5
2F6
330
2EF
100
AcDbEntity
  8
LIVELLO 03
100
AcDbVertex
100
AcDb2dVertex
 10
168.0
 20
-508.0
 30
0.0
  0
VERTEX
  5
2F7
330
2EF
100
AcDbEntity
  8
LIVELLO 03
100
AcDbVertex
100
AcDb2dVertex
 10
168.0
 20
-523.0
 30
0.0
  0
VERTEX
  5
2F8
330
2EF
100
AcDbEntity
  8
LIVELLO 03
100
AcDbVertex
100
AcDb2dVertex
 10
164.0
 20
-523.0
 30
0.0
  0
VERTEX
  5
2F9
330
2EF
100
AcDbEntity
  8
LIVELLO 03
100
AcDbVertex
100
AcDb2dVertex
 10
164.0
 20
-538.0
 30
0.0
  0
VERTEX
  5
2FA
330
2EF
100
AcDbEntity
  8
LIVELLO 03
100
AcDbVertex
100
AcDb2dVertex
 10
168.0
 20
-538.0
 30
0.0
  0
SEQEND
  5
2FB
330
2EF
100
AcDbEntity
  8
LIVELLO 03
  0
LINE
  5
2FC
330
1F
100
AcDbEntity
  8
LIVELLO 03
100
AcDbLine
 10
179.0
 20
-471.0
 30
0.0
 11
164.0
 21
-471.0
 31
0.0
  0
LINE
  5
2FD
330
1F
100
AcDbEntity
  8
LIVELLO 03
100
AcDbLine
 10
179.0
 20
-467.0
 30
0.0
 11
179.0
 21
-471.0
 31
0.0
  0
LINE
  5
2FE
330
1F
100
AcDbEntity
  8
LIVELLO 03
100
AcDbLine
 10
194.0
 20
-467.0
 30
0.0
 11
179.0
 21
-467.0
 31
0.0
  0
LINE
  5
2FF
330
1F
100
AcDbEntity
  8
LIVELLO 03
100
AcDbLine
 10
194.0
 20
-471.0
 30
0.0
 11
194.0
 21
-467.0
 31
0.0
  0
LINE
  5
300
330
1F
100
AcDbEntity
  8
LIVELLO 03
100
AcDbLine
 10
209.0
 20
-471.0
 30
0.0
 11
194.0
 21
-471.0
 31
0.0
  0
LINE
  5
301
330
1F
100
AcDbEntity
  8
LIVELLO 03
100
AcDbLine
 10
209.0
 20
-467.0
 30
0.0
 11
209.0
 21
-471.0
 31
0.0
  0
LINE
  5
302
330
1F
100
AcDbEntity
  8
LIVELLO 03
100
AcDbLine
 10
284.0
 20
-444.5
 30
0.0
 11
299.0
 21
-444.5
 31
0.0
  0
LINE
  5
303
330
1F
100
AcDbEntity
  8
LIVELLO 03
100
AcDbLine
 10
284.0
 20
-440.5
 30
0.0
 11
284.0
 21
-444.5
 31
0.0
  0
LINE
  5
304
330
1F
100
AcDbEntity
  8
LIVELLO 03
100
AcDbLine
 10
269.0
 20
-440.5
 30
0.0
 11
284.0
 21
-440.5
 31
0.0
  0
LINE
  5
305
330
1F
100
AcDbEntity
  8
LIVELLO 03
100
AcDbLine
 10
269.0
 20
-444.5
 30
0.0
 11
269.0
 21
-440.5
 31
0.0
  0
LINE
  5
306
330
1F
100
AcDbEntity
  8
LIVELLO 03
100
AcDbLine
 10
254.0
 20
-444.5
 30
0.0
 11
269.0
 21
-444.5
 31
0.0
  0
LINE
  5
307
330
1F
100
AcDbEntity
  8
LIVELLO 03
100
AcDbLine
 10
254.0
 20
-440.5
 30
0.0
 11
254.0
 21
-444.5
 31
0.0
  0
LINE
  5
308
330
1F
100
AcDbEntity
  8
LIVELLO 03
100
AcDbLine
 10
239.0
 20
-440.5
 30
0.0
 11
254.0
 21
-440.5
 31
0.0
  0
LINE
  5
309
330
1F
100
AcDbEntity
  8
LIVELLO 03
100
AcDbLine
 10
239.0
 20
-444.5
 30
0.0
 11
239.0
 21
-440.5
 31
0.0
  0
LINE
  5
30A
330
1F
100
AcDbEntity
  8
LIVELLO 03
100
AcDbLine
 10
224.0
 20
-444.5
 30
0.0
 11
239.0
 21
-444.5
 31
0.0
  0
LINE
  5
30B
330
1F
100
AcDbEntity
  8
LIVELLO 03
100
AcDbLine
 10
224.0
 20
-440.5
 30
0.0
 11
224.0
 21
-444.5
 31
0.0
  0
LINE
  5
30C
330
1F
100
AcDbEntity
  8
LIVELLO 03
100
AcDbLine
 10
209.0
 20
-440.5
 30
0.0
 11
224.0
 21
-440.5
 31
0.0
  0
LINE
  5
30D
330
1F
100
AcDbEntity
  8
LIVELLO 03
100
AcDbLine
 10
209.0
 20
-444.5
 30
0.0
 11
209.0
 21
-440.5
 31
0.0
  0
LINE
  5
30E
330
1F
100
AcDbEntity
  8
LIVELLO 03
100
AcDbLine
 10
194.0
 20
-444.5
 30
0.0
 11
209.0
 21
-444.5
 31
0.0
  0
LINE
  5
30F
330
1F
100
AcDbEntity
  8
LIVELLO 03
100
AcDbLine
 10
194.0
 20
-440.5
 30
0.0
 11
194.0
 21
-444.5
 31
0.0
  0
LINE
  5
310
330
1F
100
AcDbEntity
  8
LIVELLO 03
100
AcDbLine
 10
494.0
 20
-467.0
 30
0.0
 11
479.0
 21
-467.0
 31
0.0
  0
LINE
  5
311
330
1F
100
AcDbEntity
  8
LIVELLO 03
100
AcDbLine
 10
494.0
 20
-471.0
 30
0.0
 11
494.0
 21
-467.0
 31
0.0
  0
LINE
  5
312
330
1F
100
AcDbEntity
  8
LIVELLO 03
100
AcDbLine
 10
508.0
 20
-471.0
 30
0.0
 11
494.0
 21
-471.0
 31
0.0
  0
POLYLINE
  5
313
330
1F
100
AcDbEntity
  8
LIVELLO 03
100
AcDb2dPolyline
 66
     1
 10
0.0
 20
0.0
 30
0.0
  0
VERTEX
  5
314
330
313
100
AcDbEntity
  8
LIVELLO 03
100
AcDbVertex
100
AcDb2dVertex
 10
504.0
 20
-538.0
 30
0.0
  0
VERTEX
  5
315
330
313
100
AcDbEntity
  8
LIVELLO 03
100
AcDbVertex
100
AcDb2dVertex
 10
508.0
 20
-538.0
 30
0.0
  0
VERTEX
  5
316
330
313
100
AcDbEntity
  8
LIVELLO 03
100
AcDbVertex
100
AcDb2dVertex
 10
508.0
 20
-523.0
 30
0.0
  0
VERTEX
  5
317
330
313
100
AcDbEntity
  8
LIVELLO 03
100
AcDbVertex
100
AcDb2dVertex
 10
504.0
 20
-523.0
 30
0.0
  0
VERTEX
  5
318
330
313
100
AcDbEntity
  8
LIVELLO 03
100
AcDbVertex
100
AcDb2dVertex
 10
504.0
 20
-508.0
 30
0.0
  0
VERTEX
  5
319
330
313
100
AcDbEntity
  8
LIVELLO 03
100
AcDbVertex
100
AcDb2dVertex
 10
508.0
 20
-508.0
 30
0.0
  0
VERTEX
  5
31A
330
313
100
AcDbEntity
  8
LIVELLO 03
100
AcDbVertex
100
AcDb2dVertex
 10
508.0
 20
-493.0
 30
0.0
  0
VERTEX
  5
31B
330
313
100
AcDbEntity
  8
LIVELLO 03
100
AcDbVertex
100
AcDb2dVertex
 10
504.0
 20
-493.0
 30
0.0
  0
VERTEX
  5
31C
330
313
100
AcDbEntity
  8
LIVELLO 03
100
AcDbVertex
100
AcDb2dVertex
 10
504.0
 20
-478.0
 30
0.0
  0
VERTEX
  5
31D
330
313
100
AcDbEntity
  8
LIVELLO 03
100
AcDbVertex
100
AcDb2dVertex
 10
508.0
 20
-478.0
 30
0.0
  0
VERTEX
  5
31E
330
313
100
AcDbEntity
  8
LIVELLO 03
100
AcDbVertex
100
AcDb2dVertex
 10
508.0
 20
-471.0
 30
0.0
  0
SEQEND
  5
31F
330
313
100
AcDbEntity
  8
LIVELLO 03
  0
POLYLINE
  5
320
330
1F
100
AcDbEntity
  8
LIVELLO 03
100
AcDb2dPolyline
 66
     1
 10
0.0
 20
0.0
 30
0.0
  0
VERTEX
  5
321
330
320
100
AcDbEntity
  8
LIVELLO 03
100
AcDbVertex
100
AcDb2dVertex
 10
504.0
 20
-583.0
 30
0.0
  0
VERTEX
  5
322
330
320
100
AcDbEntity
  8
LIVELLO 03
100
AcDbVertex
100
AcDb2dVertex
 10
504.0
 20
-568.0
 30
0.0
  0
VERTEX
  5
323
330
320
100
AcDbEntity
  8
LIVELLO 03
100
AcDbVertex
100
AcDb2dVertex
 10
508.0
 20
-568.0
 30
0.0
  0
VERTEX
  5
324
330
320
100
AcDbEntity
  8
LIVELLO 03
100
AcDbVertex
100
AcDb2dVertex
 10
508.0
 20
-553.0
 30
0.0
  0
VERTEX
  5
325
330
320
100
AcDbEntity
  8
LIVELLO 03
100
AcDbVertex
100
AcDb2dVertex
 10
504.0
 20
-553.0
 30
0.0
  0
VERTEX
  5
326
330
320
100
AcDbEntity
  8
LIVELLO 03
100
AcDbVertex
100
AcDb2dVertex
 10
504.0
 20
-538.0
 30
0.0
  0
SEQEND
  5
327
330
320
100
AcDbEntity
  8
LIVELLO 03
  0
LINE
  5
328
330
1F
100
AcDbEntity
  8
LIVELLO 03
100
AcDbLine
 10
494.0
 20
-583.0
 30
0.0
 11
504.0
 21
-583.0
 31
0.0
  0
LINE
  5
329
330
1F
100
AcDbEntity
  8
LIVELLO 03
100
AcDbLine
 10
494.0
 20
-587.0
 30
0.0
 11
494.0
 21
-583.0
 31
0.0
  0
LINE
  5
32A
330
1F
100
AcDbEntity
  8
LIVELLO 03
100
AcDbLine
 10
479.0
 20
-587.0
 30
0.0
 11
494.0
 21
-587.0
 31
0.0
  0
LINE
  5
32B
330
1F
100
AcDbEntity
  8
LIVELLO 03
100
AcDbLine
 10
479.0
 20
-583.0
 30
0.0
 11
479.0
 21
-587.0
 31
0.0
  0
LINE
  5
32C
330
1F
100
AcDbEntity
  8
LIVELLO 03
100
AcDbLine
 10
464.0
 20
-583.0
 30
0.0
 11
479.0
 21
-583.0
 31
0.0
  0
LINE
  5
32D
330
1F
100
AcDbEntity
  8
LIVELLO 03
100
AcDbLine
 10
464.0
 20
-587.0
 30
0.0
 11
464.0
 21
-583.0
 31
0.0
  0
LINE
  5
32E
330
1F
100
AcDbEntity
  8
LIVELLO 03
100
AcDbLine
 10
449.0
 20
-587.0
 30
0.0
 11
464.0
 21
-587.0
 31
0.0
  0
LINE
  5
32F
330
1F
100
AcDbEntity
  8
LIVELLO 03
100
AcDbLine
 10
449.0
 20
-583.0
 30
0.0
 11
449.0
 21
-587.0
 31
0.0
  0
LINE
  5
330
330
1F
100
AcDbEntity
  8
LIVELLO 03
100
AcDbLine
 10
434.0
 20
-583.0
 30
0.0
 11
449.0
 21
-583.0
 31
0.0
  0
LINE
  5
331
330
1F
100
AcDbEntity
  8
LIVELLO 03
100
AcDbLine
 10
434.0
 20
-587.0
 30
0.0
 11
434.0
 21
-583.0
 31
0.0
  0
LINE
  5
332
330
1F
100
AcDbEntity
  8
LIVELLO 03
100
AcDbLine
 10
419.0
 20
-587.0
 30
0.0
 11
434.0
 21
-587.0
 31
0.0
  0
LINE
  5
333
330
1F
100
AcDbEntity
  8
LIVELLO 03
100
AcDbLine
 10
419.0
 20
-583.0
 30
0.0
 11
419.0
 21
-587.0
 31
0.0
  0
LINE
  5
334
330
1F
100
AcDbEntity
  8
LIVELLO 03
100
AcDbLine
 10
404.0
 20
-583.0
 30
0.0
 11
419.0
 21
-583.0
 31
0.0
  0
LINE
  5
335
330
1F
100
AcDbEntity
  8
LIVELLO 03
100
AcDbLine
 10
404.0
 20
-587.0
 30
0.0
 11
404.0
 21
-583.0
 31
0.0
  0
LINE
  5
336
330
1F
100
AcDbEntity
  8
LIVELLO 03
100
AcDbLine
 10
389.0
 20
-587.0
 30
0.0
 11
404.0
 21
-587.0
 31
0.0
  0
LINE
  5
337
330
1F
100
AcDbEntity
  8
LIVELLO 03
100
AcDbLine
 10
389.0
 20
-583.0
 30
0.0
 11
389.0
 21
-587.0
 31
0.0
  0
SPLINE
  5
338
330
1F
100
AcDbEntity
  8
LIVELLO 03
100
AcDbSpline
210
0.0
220
0.0
230
1.0
 70
     8
 71
     2
 72
    38
 73
    35
 74
     0
 42
0.0000000001
 43
0.0000000001
 40
0.0
 40
0.0
 40
0.0
 40
15.0
 40
15.0
 40
18.0
 40
18.0
 40
33.0
 40
33.0
 40
36.0
 40
36.0
 40
51.0
 40
51.0
 40
55.0
 40
55.0
 40
70.0
 40
70.0
 40
74.0
 40
74.0
 40
89.0
 40
89.0
 40
93.0
 40
93.0
 40
108.0
 40
108.0
 40
112.0
 40
112.0
 40
127.0
 40
127.0
 40
131.0
 40
131.0
 40
146.0
 40
146.0
 40
150.0
 40
150.0
 40
166.0
 40
166.0
 40
166.0
 10
308.0
 20
-283.0
 30
0.0
 10
308.0
 20
-275.5
 30
0.0
 10
308.0
 20
-268.0
 30
0.0
 10
306.0
 20
-268.0
 30
0.0
 10
304.0
 20
-268.0
 30
0.0
 10
304.0
 20
-260.5
 30
0.0
 10
304.0
 20
-253.0
 30
0.0
 10
306.0
 20
-253.0
 30
0.0
 10
308.0
 20
-253.0
 30
0.0
 10
308.0
 20
-245.5
 30
0.0
 10
308.0
 20
-238.0
 30
0.0
 10
306.0
 20
-238.0
 30
0.0
 10
304.0
 20
-238.0
 30
0.0
 10
304.0
 20
-230.5
 30
0.0
 10
304.0
 20
-223.0
 30
0.0
 10
306.0
 20
-223.0
 30
0.0
 10
308.0
 20
-223.0
 30
0.0
 10
308.0
 20
-215.5
 30
0.0
 10
308.0
 20
-208.0
 30
0.0
 10
306.0
 20
-208.0
 30
0.0
 10
304.0
 20
-208.0
 30
0.0
 10
304.0
 20
-200.5
 30
0.0
 10
304.0
 20
-193.0
 30
0.0
 10
306.0
 20
-193.0
 30
0.0
 10
308.0
 20
-193.0
 30
0.0
 10
308.0
 20
-185.5
 30
0.0
 10
308.0
 20
-178.0
 30
0.0
 10
306.0
 20
-178.0
 30
0.0
 10
304.0
 20
-178.0
 30
0.0
 10
304.0
 20
-170.5
 30
0.0
 10
304.0
 20
-163.0
 30
0.0
 10
306.0
 20
-163.0
 30
0.0
 10
308.0
 20
-163.0
 30
0.0
 10
308.0
 20
-155.0
 30
0.0
 10
308.0
 20
-147.0
 30
0.0
  0
CIRCLE
  5
339
330
1F
100
AcDbEntity
  8
LIVELLO 03
100
AcDbCircle
 10
273.0
 20
-262.0
 30
0.0
 40
10.0
  0
CIRCLE
  5
33A
330
1F
100
AcDbEntity
  8
LIVELLO 03
100
AcDbCircle
 10
389.0
 20
-262.0
 30
0.0
 40
10.0
  0
LINE
  5
33B
330
1F
100
AcDbEntity
  8
LIVELLO 03
100
AcDbLine
 10
374.0
 20
-583.0
 30
0.0
 11
389.0
 21
-583.0
 31
0.0
  0
LINE
  5
33C
330
1F
100
AcDbEntity
  8
LIVELLO 03
100
AcDbLine
 10
434.0
 20
-304.5
 30
0.0
 11
434.0
 21
-308.5
 31
0.0
  0
LINE
  5
33D
330
1F
100
AcDbEntity
  8
LIVELLO 03
100
AcDbLine
 10
449.0
 20
-304.5
 30
0.0
 11
434.0
 21
-304.5
 31
0.0
  0
LINE
  5
33E
330
1F
100
AcDbEntity
  8
LIVELLO 03
100
AcDbLine
 10
449.0
 20
-308.5
 30
0.0
 11
449.0
 21
-304.5
 31
0.0
  0
LINE
  5
33F
330
1F
100
AcDbEntity
  8
LIVELLO 03
100
AcDbLine
 10
464.0
 20
-308.5
 30
0.0
 11
449.0
 21
-308.5
 31
0.0
  0
LINE
  5
340
330
1F
100
AcDbEntity
  8
LIVELLO 03
100
AcDbLine
 10
464.0
 20
-304.5
 30
0.0
 11
464.0
 21
-308.5
 31
0.0
  0
LINE
  5
341
330
1F
100
AcDbEntity
  8
LIVELLO 03
100
AcDbLine
 10
479.0
 20
-304.5
 30
0.0
 11
464.0
 21
-304.5
 31
0.0
  0
LINE
  5
342
330
1F
100
AcDbEntity
  8
LIVELLO 03
100
AcDbLine
 10
479.0
 20
-308.5
 30
0.0
 11
479.0
 21
-304.5
 31
0.0
  0
LINE
  5
343
330
1F
100
AcDbEntity
  8
LIVELLO 03
100
AcDbLine
 10
494.0
 20
-308.5
 30
0.0
 11
479.0
 21
-308.5
 31
0.0
  0
LINE
  5
344
330
1F
100
AcDbEntity
  8
LIVELLO 03
100
AcDbLine
 10
494.0
 20
-304.5
 30
0.0
 11
494.0
 21
-308.5
 31
0.0
  0
LINE
  5
345
330
1F
100
AcDbEntity
  8
LIVELLO 03
100
AcDbLine
 10
504.0
 20
-304.5
 30
0.0
 11
494.0
 21
-304.5
 31
0.0
  0
SPLINE
  5
346
330
1F
100
AcDbEntity
  8
LIVELLO 03
100
AcDbSpline
210
0.0
220
0.0
230
1.0
 70
     8
 71
     2
 72
    38
 73
    35
 74
     0
 42
0.0000000001
 43
0.0000000001
 40
0.0
 40
0.0
 40
0.0
 40
15.0
 40
15.0
 40
18.0
 40
18.0
 40
33.0
 40
33.0
 40
36.0
 40
36.0
 40
51.0
 40
51.0
 40
55.0
 40
55.0
 40
70.0
 40
70.0
 40
74.0
 40
74.0
 40
89.0
 40
89.0
 40
93.0
 40
93.0
 40
108.0
 40
108.0
 40
112.0
 40
112.0
 40
127.0
 40
127.0
 40
131.0
 40
131.0
 40
146.0
 40
146.0
 40
150.0
 40
150.0
 40
166.0
 40
166.0
 40
166.0
 10
504.0
 20
-440.5
 30
0.0
 10
504.0
 20
-433.0
 30
0.0
 10
504.0
 20
-425.5
 30
0.0
 10
506.0
 20
-425.5
 30
0.0
 10
508.0
 20
-425.5
 30
0.0
 10
508.0
 20
-418.0
 30
0.0
 10
508.0
 20
-410.5
 30
0.0
 10
506.0
 20
-410.5
 30
0.0
 10
504.0
 20
-410.5
 30
0.0
 10
504.0
 20
-403.0
 30
0.0
 10
504.0
 20
-395.5
 30
0.0
 10
506.0
 20
-395.5
 30
0.0
 10
508.0
 20
-395.5
 30
0.0
 10
508.0
 20
-388.0
 30
0.0
 10
508.0
 20
-380.5
 30
0.0
 10
506.0
 20
-380.5
 30
0.0
 10
504.0
 20
-380.5
 30
0.0
 10
504.0
 20
-373.0
 30
0.0
 10
504.0
 20
-365.5
 30
0.0
 10
506.0
 20
-365.5
 30
0.0
 10
508.0
 20
-365.5
 30
0.0
 10
508.0
 20
-358.0
 30
0.0
 10
508.0
 20
-350.5
 30
0.0
 10
506.0
 20
-350.5
 30
0.0
 10
504.0
 20
-350.5
 30
0.0
 10
504.0
 20
-343.0
 30
0.0
 10
504.0
 20
-335.5
 30
0.0
 10
506.0
 20
-335.5
 30
0.0
 10
508.0
 20
-335.5
 30
0.0
 10
508.0
 20
-328.0
 30
0.0
 10
508.0
 20
-320.5
 30
0.0
 10
506.0
 20
-320.5
 30
0.0
 10
504.0
 20
-320.5
 30
0.0
 10
504.0
 20
-312.5
 30
0.0
 10
504.0
 20
-304.5
 30
0.0
  0
LINE
  5
347
330
1F
100
AcDbEntity
  8
LIVELLO 03
100
AcDbLine
 10
269.0
 20
-471.0
 30
0.0
 11
254.0
 21
-471.0
 31
0.0
  0
LINE
  5
348
330
1F
100
AcDbEntity
  8
LIVELLO 03
100
AcDbLine
 10
269.0
 20
-467.0
 30
0.0
 11
269.0
 21
-471.0
 31
0.0
  0
LINE
  5
349
330
1F
100
AcDbEntity
  8
LIVELLO 03
100
AcDbLine
 10
284.0
 20
-467.0
 30
0.0
 11
269.0
 21
-467.0
 31
0.0
  0
LINE
  5
34A
330
1F
100
AcDbEntity
  8
LIVELLO 03
100
AcDbLine
 10
284.0
 20
-471.0
 30
0.0
 11
284.0
 21
-467.0
 31
0.0
  0
LINE
  5
34B
330
1F
100
AcDbEntity
  8
LIVELLO 03
100
AcDbLine
 10
299.0
 20
-471.0
 30
0.0
 11
284.0
 21
-471.0
 31
0.0
  0
LINE
  5
34C
330
1F
100
AcDbEntity
  8
LIVELLO 03
100
AcDbLine
 10
299.0
 20
-467.0
 30
0.0
 11
299.0
 21
-471.0
 31
0.0
  0
POLYLINE
  5
34D
330
1F
100
AcDbEntity
  8
LIVELLO 03
100
AcDb2dPolyline
 66
     1
 10
0.0
 20
0.0
 30
0.0
  0
VERTEX
  5
34E
330
34D
100
AcDbEntity
  8
LIVELLO 03
100
AcDbVertex
100
AcDb2dVertex
 10
508.0
 20
-444.5
 30
0.0
  0
VERTEX
  5
34F
330
34D
100
AcDbEntity
  8
LIVELLO 03
100
AcDbVertex
100
AcDb2dVertex
 10
508.0
 20
-440.5
 30
0.0
  0
VERTEX
  5
350
330
34D
100
AcDbEntity
  8
LIVELLO 03
100
AcDbVertex
100
AcDb2dVertex
 10
504.0
 20
-440.5
 30
0.0
  0
SEQEND
  5
351
330
34D
100
AcDbEntity
  8
LIVELLO 03
  0
LINE
  5
352
330
1F
100
AcDbEntity
  8
LIVELLO 03
100
AcDbLine
 10
494.0
 20
-444.5
 30
0.0
 11
508.0
 21
-444.5
 31
0.0
  0
LINE
  5
353
330
1F
100
AcDbEntity
  8
LIVELLO 03
100
AcDbLine
 10
494.0
 20
-440.5
 30
0.0
 11
494.0
 21
-444.5
 31
0.0
  0
LINE
  5
354
330
1F
100
AcDbEntity
  8
LIVELLO 03
100
AcDbLine
 10
479.0
 20
-440.5
 30
0.0
 11
494.0
 21
-440.5
 31
0.0
  0
LINE
  5
355
330
1F
100
AcDbEntity
  8
LIVELLO 03
100
AcDbLine
 10
479.0
 20
-444.5
 30
0.0
 11
479.0
 21
-440.5
 31
0.0
  0
LINE
  5
356
330
1F
100
AcDbEntity
  8
LIVELLO 03
100
AcDbLine
 10
464.0
 20
-444.5
 30
0.0
 11
479.0
 21
-444.5
 31
0.0
  0
LINE
  5
357
330
1F
100
AcDbEntity
  8
LIVELLO 03
100
AcDbLine
 10
464.0
 20
-440.5
 30
0.0
 11
464.0
 21
-444.5
 31
0.0
  0
LINE
  5
358
330
1F
100
AcDbEntity
  8
LIVELLO 03
100
AcDbLine
 10
449.0
 20
-440.5
 30
0.0
 11
464.0
 21
-440.5
 31
0.0
  0
LINE
  5
359
330
1F
100
AcDbEntity
  8
LIVELLO 03
100
AcDbLine
 10
449.0
 20
-444.5
 30
0.0
 11
449.0
 21
-440.5
 31
0.0
  0
LINE
  5
35A
330
1F
100
AcDbEntity
  8
LIVELLO 03
100
AcDbLine
 10
434.0
 20
-444.5
 30
0.0
 11
449.0
 21
-444.5
 31
0.0
  0
LINE
  5
35B
330
1F
100
AcDbEntity
  8
LIVELLO 03
100
AcDbLine
 10
434.0
 20
-440.5
 30
0.0
 11
434.0
 21
-444.5
 31
0.0
  0
LINE
  5
35C
330
1F
100
AcDbEntity
  8
LIVELLO 03
100
AcDbLine
 10
419.0
 20
-440.5
 30
0.0
 11
434.0
 21
-440.5
 31
0.0
  0
LINE
  5
35D
330
1F
100
AcDbEntity
  8
LIVELLO 03
100
AcDbLine
 10
419.0
 20
-444.5
 30
0.0
 11
419.0
 21
-440.5
 31
0.0
  0
LINE
  5
35E
330
1F
100
AcDbEntity
  8
LIVELLO 03
100
AcDbLine
 10
404.0
 20
-444.5
 30
0.0
 11
419.0
 21
-444.5
 31
0.0
  0
LINE
  5
35F
330
1F
100
AcDbEntity
  8
LIVELLO 03
100
AcDbLine
 10
404.0
 20
-440.5
 30
0.0
 11
404.0
 21
-444.5
 31
0.0
  0
LINE
  5
360
330
1F
100
AcDbEntity
  8
LIVELLO 03
100
AcDbLine
 10
389.0
 20
-440.5
 30
0.0
 11
404.0
 21
-440.5
 31
0.0
  0
LINE
  5
361
330
1F
100
AcDbEntity
  8
LIVELLO 03
100
AcDbLine
 10
389.0
 20
-444.5
 30
0.0
 11
389.0
 21
-440.5
 31
0.0
  0
LINE
  5
362
330
1F
100
AcDbEntity
  8
LIVELLO 03
100
AcDbLine
 10
374.0
 20
-444.5
 30
0.0
 11
389.0
 21
-444.5
 31
0.0
  0
LINE
  5
363
330
1F
100
AcDbEntity
  8
LIVELLO 03
100
AcDbLine
 10
374.0
 20
-440.5
 30
0.0
 11
374.0
 21
-444.5
 31
0.0
  0
LINE
  5
364
330
1F
100
AcDbEntity
  8
LIVELLO 03
100
AcDbLine
 10
359.0
 20
-440.5
 30
0.0
 11
374.0
 21
-440.5
 31
0.0
  0
LINE
  5
365
330
1F
100
AcDbEntity
  8
LIVELLO 03
100
AcDbLine
 10
359.0
 20
-444.5
 30
0.0
 11
359.0
 21
-440.5
 31
0.0
  0
LINE
  5
366
330
1F
100
AcDbEntity
  8
LIVELLO 03
100
AcDbLine
 10
344.0
 20
-444.5
 30
0.0
 11
359.0
 21
-444.5
 31
0.0
  0
LINE
  5
367
330
1F
100
AcDbEntity
  8
LIVELLO 03
100
AcDbLine
 10
344.0
 20
-440.5
 30
0.0
 11
344.0
 21
-444.5
 31
0.0
  0
LINE
  5
368
330
1F
100
AcDbEntity
  8
LIVELLO 03
100
AcDbLine
 10
329.0
 20
-440.5
 30
0.0
 11
344.0
 21
-440.5
 31
0.0
  0
LINE
  5
369
330
1F
100
AcDbEntity
  8
LIVELLO 03
100
AcDbLine
 10
329.0
 20
-444.5
 30
0.0
 11
329.0
 21
-440.5
 31
0.0
  0
LINE
  5
36A
330
1F
100
AcDbEntity
  8
LIVELLO 03
100
AcDbLine
 10
314.0
 20
-444.5
 30
0.0
 11
329.0
 21
-444.5
 31
0.0
  0
LINE
  5
36B
330
1F
100
AcDbEntity
  8
LIVELLO 03
100
AcDbLine
 10
314.0
 20
-440.5
 30
0.0
 11
314.0
 21
-444.5
 31
0.0
  0
LINE
  5
36C
330
1F
100
AcDbEntity
  8
LIVELLO 03
100
AcDbLine
 10
299.0
 20
-440.5
 30
0.0
 11
314.0
 21
-440.5
 31
0.0
  0
LINE
  5
36D
330
1F
100
AcDbEntity
  8
LIVELLO 03
100
AcDbLine
 10
299.0
 20
-444.5
 30
0.0
 11
299.0
 21
-440.5
 31
0.0
  0
LINE
  5
36E
330
1F
100
AcDbEntity
  8
LIVELLO 03
100
AcDbLine
 10
-112.0
 20
-651.0
 30
0.0
 11
-112.0
 21
-647.0
 31
0.0
  0
LINE
  5
36F
330
1F
100
AcDbEntity
  8
LIVELLO 03
100
AcDbLine
 10
-112.0
 20
-647.0
 30
0.0
 11
-102.0
 21
-647.0
 31
0.0
  0
LINE
  5
370
330
1F
100
AcDbEntity
  8
LIVELLO 03
100
AcDbLine
 10
-52.0
 20
-606.0
 30
0.0
 11
-62.0
 21
-606.0
 31
0.0
  0
LINE
  5
371
330
1F
100
AcDbEntity
  8
LIVELLO 03
100
AcDbLine
 10
-62.0
 20
-606.0
 30
0.0
 11
-62.0
 21
-610.0
 31
0.0
  0
LINE
  5
372
330
1F
100
AcDbEntity
  8
LIVELLO 03
100
AcDbLine
 10
-62.0
 20
-610.0
 30
0.0
 11
-72.0
 21
-610.0
 31
0.0
  0
LINE
  5
373
330
1F
100
AcDbEntity
  8
LIVELLO 03
100
AcDbLine
 10
-102.0
 20
-647.0
 30
0.0
 11
-102.0
 21
-651.0
 31
0.0
  0
LINE
  5
374
330
1F
100
AcDbEntity
  8
LIVELLO 03
100
AcDbLine
 10
-102.0
 20
-651.0
 30
0.0
 11
-92.0
 21
-651.0
 31
0.0
  0
LINE
  5
375
330
1F
100
AcDbEntity
  8
LIVELLO 03
100
AcDbLine
 10
-92.0
 20
-651.0
 30
0.0
 11
-92.0
 21
-647.0
 31
0.0
  0
LINE
  5
376
330
1F
100
AcDbEntity
  8
LIVELLO 03
100
AcDbLine
 10
-92.0
 20
-647.0
 30
0.0
 11
-82.0
 21
-647.0
 31
0.0
  0
LINE
  5
377
330
1F
100
AcDbEntity
  8
LIVELLO 03
100
AcDbLine
 10
-82.0
 20
-647.0
 30
0.0
 11
-82.0
 21
-651.0
 31
0.0
  0
LINE
  5
378
330
1F
100
AcDbEntity
  8
LIVELLO 03
100
AcDbLine
 10
-82.0
 20
-651.0
 30
0.0
 11
-72.0
 21
-651.0
 31
0.0
  0
LINE
  5
379
330
1F
100
AcDbEntity
  8
LIVELLO 03
100
AcDbLine
 10
-72.0
 20
-651.0
 30
0.0
 11
-72.0
 21
-647.0
 31
0.0
  0
LINE
  5
37A
330
1F
100
AcDbEntity
  8
LIVELLO 03
100
AcDbLine
 10
-72.0
 20
-647.0
 30
0.0
 11
-62.0
 21
-647.0
 31
0.0
  0
LINE
  5
37B
330
1F
100
AcDbEntity
  8
LIVELLO 03
100
AcDbLine
 10
-62.0
 20
-647.0
 30
0.0
 11
-62.0
 21
-651.0
 31
0.0
  0
LINE
  5
37C
330
1F
100
AcDbEntity
  8
LIVELLO 03
100
AcDbLine
 10
-22.0
 20
-443.0
 30
0.0
 11
-22.0
 21
-447.0
 31
0.0
  0
LINE
  5
37D
330
1F
100
AcDbEntity
  8
LIVELLO 03
100
AcDbLine
 10
-22.0
 20
-447.0
 30
0.0
 11
-32.0
 21
-447.0
 31
0.0
  0
LINE
  5
37E
330
1F
100
AcDbEntity
  8
LIVELLO 03
100
AcDbLine
 10
-32.0
 20
-447.0
 30
0.0
 11
-32.0
 21
-443.0
 31
0.0
  0
LINE
  5
37F
330
1F
100
AcDbEntity
  8
LIVELLO 03
100
AcDbLine
 10
-32.0
 20
-443.0
 30
0.0
 11
-42.0
 21
-443.0
 31
0.0
  0
LINE
  5
380
330
1F
100
AcDbEntity
  8
LIVELLO 03
100
AcDbLine
 10
-42.0
 20
-443.0
 30
0.0
 11
-42.0
 21
-447.0
 31
0.0
  0
LINE
  5
381
330
1F
100
AcDbEntity
  8
LIVELLO 03
100
AcDbLine
 10
-42.0
 20
-447.0
 30
0.0
 11
-52.0
 21
-447.0
 31
0.0
  0
LINE
  5
382
330
1F
100
AcDbEntity
  8
LIVELLO 03
100
AcDbLine
 10
-52.0
 20
-447.0
 30
0.0
 11
-52.0
 21
-443.0
 31
0.0
  0
LINE
  5
383
330
1F
100
AcDbEntity
  8
LIVELLO 03
100
AcDbLine
 10
-52.0
 20
-443.0
 30
0.0
 11
-62.0
 21
-443.0
 31
0.0
  0
LINE
  5
384
330
1F
100
AcDbEntity
  8
LIVELLO 03
100
AcDbLine
 10
-62.0
 20
-443.0
 30
0.0
 11
-62.0
 21
-447.0
 31
0.0
  0
LINE
  5
385
330
1F
100
AcDbEntity
  8
LIVELLO 03
100
AcDbLine
 10
-62.0
 20
-447.0
 30
0.0
 11
-72.0
 21
-447.0
 31
0.0
  0
LINE
  5
386
330
1F
100
AcDbEntity
  8
LIVELLO 03
100
AcDbLine
 10
-72.0
 20
-447.0
 30
0.0
 11
-72.0
 21
-443.0
 31
0.0
  0
LINE
  5
387
330
1F
100
AcDbEntity
  8
LIVELLO 03
100
AcDbLine
 10
-72.0
 20
-443.0
 30
0.0
 11
-82.0
 21
-443.0
 31
0.0
  0
LINE
  5
388
330
1F
100
AcDbEntity
  8
LIVELLO 03
100
AcDbLine
 10
-82.0
 20
-443.0
 30
0.0
 11
-82.0
 21
-447.0
 31
0.0
  0
LINE
  5
389
330
1F
100
AcDbEntity
  8
LIVELLO 03
100
AcDbLine
 10
-82.0
 20
-447.0
 30
0.0
 11
-92.0
 21
-447.0
 31
0.0
  0
LINE
  5
38A
330
1F
100
AcDbEntity
  8
LIVELLO 03
100
AcDbLine
 10
-92.0
 20
-447.0
 30
0.0
 11
-92.0
 21
-443.0
 31
0.0
  0
LINE
  5
38B
330
1F
100
AcDbEntity
  8
LIVELLO 03
100
AcDbLine
 10
-92.0
 20
-443.0
 30
0.0
 11
-102.0
 21
-443.0
 31
0.0
  0
LINE
  5
38C
330
1F
100
AcDbEntity
  8
LIVELLO 03
100
AcDbLine
 10
-102.0
 20
-443.0
 30
0.0
 11
-102.0
 21
-447.0
 31
0.0
  0
LINE
  5
38D
330
1F
100
AcDbEntity
  8
LIVELLO 03
100
AcDbLine
 10
-102.0
 20
-447.0
 30
0.0
 11
-112.0
 21
-447.0
 31
0.0
  0
LINE
  5
38E
330
1F
100
AcDbEntity
  8
LIVELLO 03
100
AcDbLine
 10
-112.0
 20
-447.0
 30
0.0
 11
-112.0
 21
-443.0
 31
0.0
  0
LINE
  5
38F
330
1F
100
AcDbEntity
  8
LIVELLO 03
100
AcDbLine
 10
-112.0
 20
-443.0
 30
0.0
 11
-122.0
 21
-443.0
 31
0.0
  0
LINE
  5
390
330
1F
100
AcDbEntity
  8
LIVELLO 03
100
AcDbLine
 10
-122.0
 20
-443.0
 30
0.0
 11
-122.0
 21
-447.0
 31
0.0
  0
LINE
  5
391
330
1F
100
AcDbEntity
  8
LIVELLO 03
100
AcDbLine
 10
-122.0
 20
-447.0
 30
0.0
 11
-132.0
 21
-447.0
 31
0.0
  0
LINE
  5
392
330
1F
100
AcDbEntity
  8
LIVELLO 03
100
AcDbLine
 10
-132.0
 20
-447.0
 30
0.0
 11
-132.0
 21
-443.0
 31
0.0
  0
LINE
  5
393
330
1F
100
AcDbEntity
  8
LIVELLO 03
100
AcDbLine
 10
-132.0
 20
-443.0
 30
0.0
 11
-142.0
 21
-443.0
 31
0.0
  0
LINE
  5
394
330
1F
100
AcDbEntity
  8
LIVELLO 03
100
AcDbLine
 10
-142.0
 20
-443.0
 30
0.0
 11
-142.0
 21
-447.0
 31
0.0
  0
LINE
  5
395
330
1F
100
AcDbEntity
  8
LIVELLO 03
100
AcDbLine
 10
-142.0
 20
-447.0
 30
0.0
 11
-152.0
 21
-447.0
 31
0.0
  0
LINE
  5
396
330
1F
100
AcDbEntity
  8
LIVELLO 03
100
AcDbLine
 10
-152.0
 20
-447.0
 30
0.0
 11
-152.0
 21
-443.0
 31
0.0
  0
LINE
  5
397
330
1F
100
AcDbEntity
  8
LIVELLO 03
100
AcDbLine
 10
-152.0
 20
-443.0
 30
0.0
 11
-162.0
 21
-443.0
 31
0.0
  0
LINE
  5
398
330
1F
100
AcDbEntity
  8
LIVELLO 03
100
AcDbLine
 10
-162.0
 20
-443.0
 30
0.0
 11
-162.0
 21
-447.0
 31
0.0
  0
LINE
  5
399
330
1F
100
AcDbEntity
  8
LIVELLO 03
100
AcDbLine
 10
-162.0
 20
-447.0
 30
0.0
 11
-172.0
 21
-447.0
 31
0.0
  0
LINE
  5
39A
330
1F
100
AcDbEntity
  8
LIVELLO 03
100
AcDbLine
 10
-172.0
 20
-447.0
 30
0.0
 11
-172.0
 21
-443.0
 31
0.0
  0
LINE
  5
39B
330
1F
100
AcDbEntity
  8
LIVELLO 03
100
AcDbLine
 10
-172.0
 20
-443.0
 30
0.0
 11
-182.0
 21
-443.0
 31
0.0
  0
LINE
  5
39C
330
1F
100
AcDbEntity
  8
LIVELLO 03
100
AcDbLine
 10
-182.0
 20
-443.0
 30
0.0
 11
-182.0
 21
-447.0
 31
0.0
  0
LINE
  5
39D
330
1F
100
AcDbEntity
  8
LIVELLO 03
100
AcDbLine
 10
-182.0
 20
-447.0
 30
0.0
 11
-192.0
 21
-447.0
 31
0.0
  0
LINE
  5
39E
330
1F
100
AcDbEntity
  8
LIVELLO 03
100
AcDbLine
 10
-192.0
 20
-447.0
 30
0.0
 11
-192.0
 21
-443.0
 31
0.0
  0
LINE
  5
39F
330
1F
100
AcDbEntity
  8
LIVELLO 03
100
AcDbLine
 10
-192.0
 20
-443.0
 30
0.0
 11
-202.0
 21
-443.0
 31
0.0
  0
POLYLINE
  5
3A0
330
1F
100
AcDbEntity
  8
LIVELLO 03
100
AcDb2dPolyline
 66
     1
 10
0.0
 20
0.0
 30
0.0
  0
VERTEX
  5
3A1
330
3A0
100
AcDbEntity
  8
LIVELLO 03
100
AcDbVertex
100
AcDb2dVertex
 10
-202.0
 20
-443.0
 30
0.0
  0
VERTEX
  5
3A2
330
3A0
100
AcDbEntity
  8
LIVELLO 03
100
AcDbVertex
100
AcDb2dVertex
 10
-208.0
 20
-443.0
 30
0.0
  0
VERTEX
  5
3A3
330
3A0
100
AcDbEntity
  8
LIVELLO 03
100
AcDbVertex
100
AcDb2dVertex
 10
-208.0
 20
-447.0
 30
0.0
  0
SEQEND
  5
3A4
330
3A0
100
AcDbEntity
  8
LIVELLO 03
  0
POLYLINE
  5
3A5
330
1F
100
AcDbEntity
  8
LIVELLO 03
100
AcDb2dPolyline
 66
     1
 10
0.0
 20
0.0
 30
0.0
  0
VERTEX
  5
3A6
330
3A5
100
AcDbEntity
  8
LIVELLO 03
100
AcDbVertex
100
AcDb2dVertex
 10
-208.0
 20
-447.0
 30
0.0
  0
VERTEX
  5
3A7
330
3A5
100
AcDbEntity
  8
LIVELLO 03
100
AcDbVertex
100
AcDb2dVertex
 10
-208.0
 20
-458.0
 30
0.0
  0
VERTEX
  5
3A8
330
3A5
100
AcDbEntity
  8
LIVELLO 03
100
AcDbVertex
100
AcDb2dVertex
 10
-212.0
 20
-458.0
 30
0.0
  0
VERTEX
  5
3A9
330
3A5
100
AcDbEntity
  8
LIVELLO 03
100
AcDbVertex
100
AcDb2dVertex
 10
-212.0
 20
-464.0
 30
0.0
  0
VERTEX
  5
3AA
330
3A5
100
AcDbEntity
  8
LIVELLO 03
100
AcDbVertex
100
AcDb2dVertex
 10
-208.0
 20
-464.0
 30
0.0
  0
VERTEX
  5
3AB
330
3A5
100
AcDbEntity
  8
LIVELLO 03
100
AcDbVertex
100
AcDb2dVertex
 10
-208.0
 20
-469.0
 30
0.0
  0
VERTEX
  5
3AC
330
3A5
100
AcDbEntity
  8
LIVELLO 03
100
AcDbVertex
100
AcDb2dVertex
 10
-212.0
 20
-469.0
 30
0.0
  0
VERTEX
  5
3AD
330
3A5
100
AcDbEntity
  8
LIVELLO 03
100
AcDbVertex
100
AcDb2dVertex
 10
-212.0
 20
-475.0
 30
0.0
  0
VERTEX
  5
3AE
330
3A5
100
AcDbEntity
  8
LIVELLO 03
100
AcDbVertex
100
AcDb2dVertex
 10
-208.0
 20
-475.0
 30
0.0
  0
VERTEX
  5
3AF
330
3A5
100
AcDbEntity
  8
LIVELLO 03
100
AcDbVertex
100
AcDb2dVertex
 10
-208.0
 20
-484.0
 30
0.0
  0
SEQEND
  5
3B0
330
3A5
100
AcDbEntity
  8
LIVELLO 03
  0
POLYLINE
  5
3B1
330
1F
100
AcDbEntity
  8
LIVELLO 03
100
AcDb2dPolyline
 66
     1
 10
0.0
 20
0.0
 30
0.0
  0
VERTEX
  5
3B2
330
3B1
100
AcDbEntity
  8
LIVELLO 03
100
AcDbVertex
100
AcDb2dVertex
 10
-208.0
 20
-484.0
 30
0.0
  0
VERTEX
  5
3B3
330
3B1
100
AcDbEntity
  8
LIVELLO 03
100
AcDbVertex
100
AcDb2dVertex
 10
-208.0
 20
-488.0
 30
0.0
  0
VERTEX
  5
3B4
330
3B1
100
AcDbEntity
  8
LIVELLO 03
100
AcDbVertex
100
AcDb2dVertex
 10
-202.0
 20
-488.0
 30
0.0
  0
SEQEND
  5
3B5
330
3B1
100
AcDbEntity
  8
LIVELLO 03
  0
LINE
  5
3B6
330
1F
100
AcDbEntity
  8
LIVELLO 03
100
AcDbLine
 10
-202.0
 20
-488.0
 30
0.0
 11
-192.0
 21
-488.0
 31
0.0
  0
LINE
  5
3B7
330
1F
100
AcDbEntity
  8
LIVELLO 03
100
AcDbLine
 10
-192.0
 20
-488.0
 30
0.0
 11
-192.0
 21
-484.0
 31
0.0
  0
LINE
  5
3B8
330
1F
100
AcDbEntity
  8
LIVELLO 03
100
AcDbLine
 10
-192.0
 20
-484.0
 30
0.0
 11
-182.0
 21
-484.0
 31
0.0
  0
LINE
  5
3B9
330
1F
100
AcDbEntity
  8
LIVELLO 03
100
AcDbLine
 10
-182.0
 20
-484.0
 30
0.0
 11
-182.0
 21
-488.0
 31
0.0
  0
LINE
  5
3BA
330
1F
100
AcDbEntity
  8
LIVELLO 03
100
AcDbLine
 10
-182.0
 20
-488.0
 30
0.0
 11
-172.0
 21
-488.0
 31
0.0
  0
LINE
  5
3BB
330
1F
100
AcDbEntity
  8
LIVELLO 03
100
AcDbLine
 10
-172.0
 20
-488.0
 30
0.0
 11
-172.0
 21
-484.0
 31
0.0
  0
LINE
  5
3BC
330
1F
100
AcDbEntity
  8
LIVELLO 03
100
AcDbLine
 10
-172.0
 20
-484.0
 30
0.0
 11
-162.0
 21
-484.0
 31
0.0
  0
LINE
  5
3BD
330
1F
100
AcDbEntity
  8
LIVELLO 03
100
AcDbLine
 10
-162.0
 20
-484.0
 30
0.0
 11
-162.0
 21
-488.0
 31
0.0
  0
LINE
  5
3BE
330
1F
100
AcDbEntity
  8
LIVELLO 03
100
AcDbLine
 10
-162.0
 20
-488.0
 30
0.0
 11
-152.0
 21
-488.0
 31
0.0
  0
LINE
  5
3BF
330
1F
100
AcDbEntity
  8
LIVELLO 03
100
AcDbLine
 10
-152.0
 20
-488.0
 30
0.0
 11
-152.0
 21
-484.0
 31
0.0
  0
LINE
  5
3C0
330
1F
100
AcDbEntity
  8
LIVELLO 03
100
AcDbLine
 10
-152.0
 20
-484.0
 30
0.0
 11
-142.0
 21
-484.0
 31
0.0
  0
LINE
  5
3C1
330
1F
100
AcDbEntity
  8
LIVELLO 03
100
AcDbLine
 10
38.0
 20
-508.0
 30
0.0
 11
48.0
 21
-508.0
 31
0.0
  0
LINE
  5
3C2
330
1F
100
AcDbEntity
  8
LIVELLO 03
100
AcDbLine
 10
48.0
 20
-508.0
 30
0.0
 11
48.0
 21
-504.0
 31
0.0
  0
LINE
  5
3C3
330
1F
100
AcDbEntity
  8
LIVELLO 03
100
AcDbLine
 10
48.0
 20
-504.0
 30
0.0
 11
58.0
 21
-504.0
 31
0.0
  0
LINE
  5
3C4
330
1F
100
AcDbEntity
  8
LIVELLO 03
100
AcDbLine
 10
58.0
 20
-504.0
 30
0.0
 11
58.0
 21
-508.0
 31
0.0
  0
LINE
  5
3C5
330
1F
100
AcDbEntity
  8
LIVELLO 03
100
AcDbLine
 10
58.0
 20
-508.0
 30
0.0
 11
68.0
 21
-508.0
 31
0.0
  0
LINE
  5
3C6
330
1F
100
AcDbEntity
  8
LIVELLO 03
100
AcDbLine
 10
68.0
 20
-508.0
 30
0.0
 11
68.0
 21
-504.0
 31
0.0
  0
LINE
  5
3C7
330
1F
100
AcDbEntity
  8
LIVELLO 03
100
AcDbLine
 10
68.0
 20
-504.0
 30
0.0
 11
78.0
 21
-504.0
 31
0.0
  0
LINE
  5
3C8
330
1F
100
AcDbEntity
  8
LIVELLO 03
100
AcDbLine
 10
78.0
 20
-504.0
 30
0.0
 11
78.0
 21
-508.0
 31
0.0
  0
LINE
  5
3C9
330
1F
100
AcDbEntity
  8
LIVELLO 03
100
AcDbLine
 10
78.0
 20
-508.0
 30
0.0
 11
88.0
 21
-508.0
 31
0.0
  0
LINE
  5
3CA
330
1F
100
AcDbEntity
  8
LIVELLO 03
100
AcDbLine
 10
88.0
 20
-508.0
 30
0.0
 11
88.0
 21
-504.0
 31
0.0
  0
LINE
  5
3CB
330
1F
100
AcDbEntity
  8
LIVELLO 03
100
AcDbLine
 10
88.0
 20
-504.0
 30
0.0
 11
98.0
 21
-504.0
 31
0.0
  0
LINE
  5
3CC
330
1F
100
AcDbEntity
  8
LIVELLO 03
100
AcDbLine
 10
98.0
 20
-504.0
 30
0.0
 11
98.0
 21
-508.0
 31
0.0
  0
LINE
  5
3CD
330
1F
100
AcDbEntity
  8
LIVELLO 03
100
AcDbLine
 10
98.0
 20
-508.0
 30
0.0
 11
108.0
 21
-508.0
 31
0.0
  0
LINE
  5
3CE
330
1F
100
AcDbEntity
  8
LIVELLO 03
100
AcDbLine
 10
108.0
 20
-508.0
 30
0.0
 11
108.0
 21
-504.0
 31
0.0
  0
LINE
  5
3CF
330
1F
100
AcDbEntity
  8
LIVELLO 03
100
AcDbLine
 10
108.0
 20
-504.0
 30
0.0
 11
118.0
 21
-504.0
 31
0.0
  0
LINE
  5
3D0
330
1F
100
AcDbEntity
  8
LIVELLO 03
100
AcDbLine
 10
118.0
 20
-504.0
 30
0.0
 11
120.0
 21
-504.0
 31
0.0
  0
LINE
  5
3D1
330
1F
100
AcDbEntity
  8
LIVELLO 03
100
AcDbLine
 10
120.0
 20
-504.0
 30
0.0
 11
120.0
 21
-508.0
 31
0.0
  0
LINE
  5
3D2
330
1F
100
AcDbEntity
  8
LIVELLO 03
100
AcDbLine
 10
120.0
 20
-508.0
 30
0.0
 11
124.0
 21
-508.0
 31
0.0
  0
LINE
  5
3D3
330
1F
100
AcDbEntity
  8
LIVELLO 03
100
AcDbLine
 10
124.0
 20
-508.0
 30
0.0
 11
124.0
 21
-514.0
 31
0.0
  0
LINE
  5
3D4
330
1F
100
AcDbEntity
  8
LIVELLO 03
100
AcDbLine
 10
124.0
 20
-514.0
 30
0.0
 11
120.0
 21
-514.0
 31
0.0
  0
LINE
  5
3D5
330
1F
100
AcDbEntity
  8
LIVELLO 03
100
AcDbLine
 10
120.0
 20
-514.0
 30
0.0
 11
120.0
 21
-524.0
 31
0.0
  0
LINE
  5
3D6
330
1F
100
AcDbEntity
  8
LIVELLO 03
100
AcDbLine
 10
120.0
 20
-524.0
 30
0.0
 11
124.0
 21
-524.0
 31
0.0
  0
POLYLINE
  5
3D7
330
1F
100
AcDbEntity
  8
LIVELLO 03
100
AcDb2dPolyline
 66
     1
 10
0.0
 20
0.0
 30
0.0
  0
VERTEX
  5
3D8
330
3D7
100
AcDbEntity
  8
LIVELLO 03
100
AcDbVertex
100
AcDb2dVertex
 10
120.0
 20
-447.0
 30
0.0
  0
VERTEX
  5
3D9
330
3D7
100
AcDbEntity
  8
LIVELLO 03
100
AcDbVertex
100
AcDb2dVertex
 10
118.0
 20
-447.0
 30
0.0
  0
SEQEND
  5
3DA
330
3D7
100
AcDbEntity
  8
LIVELLO 03
  0
LINE
  5
3DB
330
1F
100
AcDbEntity
  8
LIVELLO 03
100
AcDbLine
 10
118.0
 20
-447.0
 30
0.0
 11
108.0
 21
-447.0
 31
0.0
  0
LINE
  5
3DC
330
1F
100
AcDbEntity
  8
LIVELLO 03
100
AcDbLine
 10
108.0
 20
-447.0
 30
0.0
 11
108.0
 21
-443.0
 31
0.0
  0
LINE
  5
3DD
330
1F
100
AcDbEntity
  8
LIVELLO 03
100
AcDbLine
 10
108.0
 20
-443.0
 30
0.0
 11
98.0
 21
-443.0
 31
0.0
  0
LINE
  5
3DE
330
1F
100
AcDbEntity
  8
LIVELLO 03
100
AcDbLine
 10
98.0
 20
-443.0
 30
0.0
 11
98.0
 21
-447.0
 31
0.0
  0
LINE
  5
3DF
330
1F
100
AcDbEntity
  8
LIVELLO 03
100
AcDbLine
 10
98.0
 20
-447.0
 30
0.0
 11
88.0
 21
-447.0
 31
0.0
  0
LINE
  5
3E0
330
1F
100
AcDbEntity
  8
LIVELLO 03
100
AcDbLine
 10
88.0
 20
-447.0
 30
0.0
 11
88.0
 21
-443.0
 31
0.0
  0
LINE
  5
3E1
330
1F
100
AcDbEntity
  8
LIVELLO 03
100
AcDbLine
 10
88.0
 20
-443.0
 30
0.0
 11
78.0
 21
-443.0
 31
0.0
  0
LINE
  5
3E2
330
1F
100
AcDbEntity
  8
LIVELLO 03
100
AcDbLine
 10
78.0
 20
-443.0
 30
0.0
 11
78.0
 21
-447.0
 31
0.0
  0
LINE
  5
3E3
330
1F
100
AcDbEntity
  8
LIVELLO 03
100
AcDbLine
 10
78.0
 20
-447.0
 30
0.0
 11
68.0
 21
-447.0
 31
0.0
  0
LINE
  5
3E4
330
1F
100
AcDbEntity
  8
LIVELLO 03
100
AcDbLine
 10
68.0
 20
-447.0
 30
0.0
 11
68.0
 21
-443.0
 31
0.0
  0
LINE
  5
3E5
330
1F
100
AcDbEntity
  8
LIVELLO 03
100
AcDbLine
 10
68.0
 20
-443.0
 30
0.0
 11
58.0
 21
-443.0
 31
0.0
  0
LINE
  5
3E6
330
1F
100
AcDbEntity
  8
LIVELLO 03
100
AcDbLine
 10
58.0
 20
-443.0
 30
0.0
 11
58.0
 21
-447.0
 31
0.0
  0
LINE
  5
3E7
330
1F
100
AcDbEntity
  8
LIVELLO 03
100
AcDbLine
 10
58.0
 20
-447.0
 30
0.0
 11
48.0
 21
-447.0
 31
0.0
  0
LINE
  5
3E8
330
1F
100
AcDbEntity
  8
LIVELLO 03
100
AcDbLine
 10
48.0
 20
-447.0
 30
0.0
 11
48.0
 21
-443.0
 31
0.0
  0
LINE
  5
3E9
330
1F
100
AcDbEntity
  8
LIVELLO 03
100
AcDbLine
 10
48.0
 20
-443.0
 30
0.0
 11
38.0
 21
-443.0
 31
0.0
  0
LINE
  5
3EA
330
1F
100
AcDbEntity
  8
LIVELLO 03
100
AcDbLine
 10
38.0
 20
-443.0
 30
0.0
 11
38.0
 21
-447.0
 31
0.0
  0
LINE
  5
3EB
330
1F
100
AcDbEntity
  8
LIVELLO 03
100
AcDbLine
 10
38.0
 20
-447.0
 30
0.0
 11
28.0
 21
-447.0
 31
0.0
  0
LINE
  5
3EC
330
1F
100
AcDbEntity
  8
LIVELLO 03
100
AcDbLine
 10
28.0
 20
-447.0
 30
0.0
 11
28.0
 21
-443.0
 31
0.0
  0
LINE
  5
3ED
330
1F
100
AcDbEntity
  8
LIVELLO 03
100
AcDbLine
 10
28.0
 20
-443.0
 30
0.0
 11
18.0
 21
-443.0
 31
0.0
  0
LINE
  5
3EE
330
1F
100
AcDbEntity
  8
LIVELLO 03
100
AcDbLine
 10
18.0
 20
-443.0
 30
0.0
 11
18.0
 21
-447.0
 31
0.0
  0
LINE
  5
3EF
330
1F
100
AcDbEntity
  8
LIVELLO 03
100
AcDbLine
 10
18.0
 20
-447.0
 30
0.0
 11
8.0
 21
-447.0
 31
0.0
  0
LINE
  5
3F0
330
1F
100
AcDbEntity
  8
LIVELLO 03
100
AcDbLine
 10
8.0
 20
-447.0
 30
0.0
 11
8.0
 21
-443.0
 31
0.0
  0
LINE
  5
3F1
330
1F
100
AcDbEntity
  8
LIVELLO 03
100
AcDbLine
 10
8.0
 20
-443.0
 30
0.0
 11
-2.0
 21
-443.0
 31
0.0
  0
LINE
  5
3F2
330
1F
100
AcDbEntity
  8
LIVELLO 03
100
AcDbLine
 10
-2.0
 20
-443.0
 30
0.0
 11
-2.0
 21
-447.0
 31
0.0
  0
LINE
  5
3F3
330
1F
100
AcDbEntity
  8
LIVELLO 03
100
AcDbLine
 10
-2.0
 20
-447.0
 30
0.0
 11
-12.0
 21
-447.0
 31
0.0
  0
LINE
  5
3F4
330
1F
100
AcDbEntity
  8
LIVELLO 03
100
AcDbLine
 10
-12.0
 20
-447.0
 30
0.0
 11
-12.0
 21
-443.0
 31
0.0
  0
LINE
  5
3F5
330
1F
100
AcDbEntity
  8
LIVELLO 03
100
AcDbLine
 10
-12.0
 20
-443.0
 30
0.0
 11
-22.0
 21
-443.0
 31
0.0
  0
LINE
  5
3F6
330
1F
100
AcDbEntity
  8
LIVELLO 03
100
AcDbLine
 10
-208.0
 20
-504.0
 30
0.0
 11
-208.0
 21
-508.0
 31
0.0
  0
LINE
  5
3F7
330
1F
100
AcDbEntity
  8
LIVELLO 03
100
AcDbLine
 10
-208.0
 20
-508.0
 30
0.0
 11
-202.0
 21
-508.0
 31
0.0
  0
LINE
  5
3F8
330
1F
100
AcDbEntity
  8
LIVELLO 03
100
AcDbLine
 10
-202.0
 20
-508.0
 30
0.0
 11
-192.0
 21
-508.0
 31
0.0
  0
LINE
  5
3F9
330
1F
100
AcDbEntity
  8
LIVELLO 03
100
AcDbLine
 10
-192.0
 20
-508.0
 30
0.0
 11
-192.0
 21
-504.0
 31
0.0
  0
LINE
  5
3FA
330
1F
100
AcDbEntity
  8
LIVELLO 03
100
AcDbLine
 10
-192.0
 20
-504.0
 30
0.0
 11
-182.0
 21
-504.0
 31
0.0
  0
LINE
  5
3FB
330
1F
100
AcDbEntity
  8
LIVELLO 03
100
AcDbLine
 10
-182.0
 20
-504.0
 30
0.0
 11
-182.0
 21
-508.0
 31
0.0
  0
LINE
  5
3FC
330
1F
100
AcDbEntity
  8
LIVELLO 03
100
AcDbLine
 10
-182.0
 20
-508.0
 30
0.0
 11
-172.0
 21
-508.0
 31
0.0
  0
LINE
  5
3FD
330
1F
100
AcDbEntity
  8
LIVELLO 03
100
AcDbLine
 10
-172.0
 20
-508.0
 30
0.0
 11
-172.0
 21
-504.0
 31
0.0
  0
LINE
  5
3FE
330
1F
100
AcDbEntity
  8
LIVELLO 03
100
AcDbLine
 10
-172.0
 20
-504.0
 30
0.0
 11
-162.0
 21
-504.0
 31
0.0
  0
LINE
  5
3FF
330
1F
100
AcDbEntity
  8
LIVELLO 03
100
AcDbLine
 10
-162.0
 20
-504.0
 30
0.0
 11
-162.0
 21
-508.0
 31
0.0
  0
LINE
  5
400
330
1F
100
AcDbEntity
  8
LIVELLO 03
100
AcDbLine
 10
-162.0
 20
-508.0
 30
0.0
 11
-152.0
 21
-508.0
 31
0.0
  0
LINE
  5
401
330
1F
100
AcDbEntity
  8
LIVELLO 03
100
AcDbLine
 10
-152.0
 20
-508.0
 30
0.0
 11
-152.0
 21
-504.0
 31
0.0
  0
LINE
  5
402
330
1F
100
AcDbEntity
  8
LIVELLO 03
100
AcDbLine
 10
-152.0
 20
-504.0
 30
0.0
 11
-142.0
 21
-504.0
 31
0.0
  0
LINE
  5
403
330
1F
100
AcDbEntity
  8
LIVELLO 03
100
AcDbLine
 10
-142.0
 20
-504.0
 30
0.0
 11
-142.0
 21
-508.0
 31
0.0
  0
LINE
  5
404
330
1F
100
AcDbEntity
  8
LIVELLO 03
100
AcDbLine
 10
-142.0
 20
-508.0
 30
0.0
 11
-132.0
 21
-508.0
 31
0.0
  0
LINE
  5
405
330
1F
100
AcDbEntity
  8
LIVELLO 03
100
AcDbLine
 10
-132.0
 20
-508.0
 30
0.0
 11
-132.0
 21
-504.0
 31
0.0
  0
LINE
  5
406
330
1F
100
AcDbEntity
  8
LIVELLO 03
100
AcDbLine
 10
-132.0
 20
-504.0
 30
0.0
 11
-122.0
 21
-504.0
 31
0.0
  0
LINE
  5
407
330
1F
100
AcDbEntity
  8
LIVELLO 03
100
AcDbLine
 10
-122.0
 20
-504.0
 30
0.0
 11
-122.0
 21
-508.0
 31
0.0
  0
LINE
  5
408
330
1F
100
AcDbEntity
  8
LIVELLO 03
100
AcDbLine
 10
-122.0
 20
-508.0
 30
0.0
 11
-112.0
 21
-508.0
 31
0.0
  0
LINE
  5
409
330
1F
100
AcDbEntity
  8
LIVELLO 03
100
AcDbLine
 10
-112.0
 20
-508.0
 30
0.0
 11
-112.0
 21
-504.0
 31
0.0
  0
LINE
  5
40A
330
1F
100
AcDbEntity
  8
LIVELLO 03
100
AcDbLine
 10
-112.0
 20
-504.0
 30
0.0
 11
-102.0
 21
-504.0
 31
0.0
  0
LINE
  5
40B
330
1F
100
AcDbEntity
  8
LIVELLO 03
100
AcDbLine
 10
-102.0
 20
-504.0
 30
0.0
 11
-102.0
 21
-508.0
 31
0.0
  0
LINE
  5
40C
330
1F
100
AcDbEntity
  8
LIVELLO 03
100
AcDbLine
 10
-102.0
 20
-508.0
 30
0.0
 11
-92.0
 21
-508.0
 31
0.0
  0
LINE
  5
40D
330
1F
100
AcDbEntity
  8
LIVELLO 03
100
AcDbLine
 10
-92.0
 20
-508.0
 30
0.0
 11
-92.0
 21
-504.0
 31
0.0
  0
LINE
  5
40E
330
1F
100
AcDbEntity
  8
LIVELLO 03
100
AcDbLine
 10
-92.0
 20
-504.0
 30
0.0
 11
-82.0
 21
-504.0
 31
0.0
  0
LINE
  5
40F
330
1F
100
AcDbEntity
  8
LIVELLO 03
100
AcDbLine
 10
-82.0
 20
-504.0
 30
0.0
 11
-82.0
 21
-508.0
 31
0.0
  0
LINE
  5
410
330
1F
100
AcDbEntity
  8
LIVELLO 03
100
AcDbLine
 10
-82.0
 20
-508.0
 30
0.0
 11
-72.0
 21
-508.0
 31
0.0
  0
LINE
  5
411
330
1F
100
AcDbEntity
  8
LIVELLO 03
100
AcDbLine
 10
-72.0
 20
-508.0
 30
0.0
 11
-72.0
 21
-504.0
 31
0.0
  0
LINE
  5
412
330
1F
100
AcDbEntity
  8
LIVELLO 03
100
AcDbLine
 10
-72.0
 20
-504.0
 30
0.0
 11
-62.0
 21
-504.0
 31
0.0
  0
LINE
  5
413
330
1F
100
AcDbEntity
  8
LIVELLO 03
100
AcDbLine
 10
-62.0
 20
-504.0
 30
0.0
 11
-62.0
 21
-508.0
 31
0.0
  0
LINE
  5
414
330
1F
100
AcDbEntity
  8
LIVELLO 03
100
AcDbLine
 10
-62.0
 20
-508.0
 30
0.0
 11
-52.0
 21
-508.0
 31
0.0
  0
LINE
  5
415
330
1F
100
AcDbEntity
  8
LIVELLO 03
100
AcDbLine
 10
-52.0
 20
-508.0
 30
0.0
 11
-52.0
 21
-504.0
 31
0.0
  0
LINE
  5
416
330
1F
100
AcDbEntity
  8
LIVELLO 03
100
AcDbLine
 10
-52.0
 20
-504.0
 30
0.0
 11
-42.0
 21
-504.0
 31
0.0
  0
LINE
  5
417
330
1F
100
AcDbEntity
  8
LIVELLO 03
100
AcDbLine
 10
-42.0
 20
-504.0
 30
0.0
 11
-42.0
 21
-508.0
 31
0.0
  0
LINE
  5
418
330
1F
100
AcDbEntity
  8
LIVELLO 03
100
AcDbLine
 10
-42.0
 20
-508.0
 30
0.0
 11
-32.0
 21
-508.0
 31
0.0
  0
LINE
  5
419
330
1F
100
AcDbEntity
  8
LIVELLO 03
100
AcDbLine
 10
-32.0
 20
-508.0
 30
0.0
 11
-32.0
 21
-504.0
 31
0.0
  0
LINE
  5
41A
330
1F
100
AcDbEntity
  8
LIVELLO 03
100
AcDbLine
 10
-32.0
 20
-504.0
 30
0.0
 11
-22.0
 21
-504.0
 31
0.0
  0
LINE
  5
41B
330
1F
100
AcDbEntity
  8
LIVELLO 03
100
AcDbLine
 10
-22.0
 20
-504.0
 30
0.0
 11
-22.0
 21
-508.0
 31
0.0
  0
LINE
  5
41C
330
1F
100
AcDbEntity
  8
LIVELLO 03
100
AcDbLine
 10
-22.0
 20
-508.0
 30
0.0
 11
-12.0
 21
-508.0
 31
0.0
  0
LINE
  5
41D
330
1F
100
AcDbEntity
  8
LIVELLO 03
100
AcDbLine
 10
-12.0
 20
-508.0
 30
0.0
 11
-12.0
 21
-504.0
 31
0.0
  0
LINE
  5
41E
330
1F
100
AcDbEntity
  8
LIVELLO 03
100
AcDbLine
 10
-12.0
 20
-504.0
 30
0.0
 11
-2.0
 21
-504.0
 31
0.0
  0
LINE
  5
41F
330
1F
100
AcDbEntity
  8
LIVELLO 03
100
AcDbLine
 10
-2.0
 20
-504.0
 30
0.0
 11
-2.0
 21
-508.0
 31
0.0
  0
LINE
  5
420
330
1F
100
AcDbEntity
  8
LIVELLO 03
100
AcDbLine
 10
-2.0
 20
-508.0
 30
0.0
 11
8.0
 21
-508.0
 31
0.0
  0
LINE
  5
421
330
1F
100
AcDbEntity
  8
LIVELLO 03
100
AcDbLine
 10
8.0
 20
-508.0
 30
0.0
 11
8.0
 21
-504.0
 31
0.0
  0
LINE
  5
422
330
1F
100
AcDbEntity
  8
LIVELLO 03
100
AcDbLine
 10
8.0
 20
-504.0
 30
0.0
 11
18.0
 21
-504.0
 31
0.0
  0
LINE
  5
423
330
1F
100
AcDbEntity
  8
LIVELLO 03
100
AcDbLine
 10
18.0
 20
-504.0
 30
0.0
 11
18.0
 21
-508.0
 31
0.0
  0
LINE
  5
424
330
1F
100
AcDbEntity
  8
LIVELLO 03
100
AcDbLine
 10
18.0
 20
-508.0
 30
0.0
 11
28.0
 21
-508.0
 31
0.0
  0
LINE
  5
425
330
1F
100
AcDbEntity
  8
LIVELLO 03
100
AcDbLine
 10
28.0
 20
-508.0
 30
0.0
 11
28.0
 21
-504.0
 31
0.0
  0
LINE
  5
426
330
1F
100
AcDbEntity
  8
LIVELLO 03
100
AcDbLine
 10
28.0
 20
-504.0
 30
0.0
 11
38.0
 21
-504.0
 31
0.0
  0
LINE
  5
427
330
1F
100
AcDbEntity
  8
LIVELLO 03
100
AcDbLine
 10
38.0
 20
-504.0
 30
0.0
 11
38.0
 21
-508.0
 31
0.0
  0
LINE
  5
428
330
1F
100
AcDbEntity
  8
LIVELLO 03
100
AcDbLine
 10
-12.0
 20
-542.0
 30
0.0
 11
-22.0
 21
-542.0
 31
0.0
  0
LINE
  5
429
330
1F
100
AcDbEntity
  8
LIVELLO 03
100
AcDbLine
 10
-22.0
 20
-542.0
 30
0.0
 11
-22.0
 21
-546.0
 31
0.0
  0
LINE
  5
42A
330
1F
100
AcDbEntity
  8
LIVELLO 03
100
AcDbLine
 10
-22.0
 20
-546.0
 30
0.0
 11
-32.0
 21
-546.0
 31
0.0
  0
LINE
  5
42B
330
1F
100
AcDbEntity
  8
LIVELLO 03
100
AcDbLine
 10
-32.0
 20
-546.0
 30
0.0
 11
-32.0
 21
-542.0
 31
0.0
  0
LINE
  5
42C
330
1F
100
AcDbEntity
  8
LIVELLO 03
100
AcDbLine
 10
-32.0
 20
-542.0
 30
0.0
 11
-42.0
 21
-542.0
 31
0.0
  0
LINE
  5
42D
330
1F
100
AcDbEntity
  8
LIVELLO 03
100
AcDbLine
 10
-42.0
 20
-542.0
 30
0.0
 11
-42.0
 21
-546.0
 31
0.0
  0
LINE
  5
42E
330
1F
100
AcDbEntity
  8
LIVELLO 03
100
AcDbLine
 10
-42.0
 20
-546.0
 30
0.0
 11
-52.0
 21
-546.0
 31
0.0
  0
LINE
  5
42F
330
1F
100
AcDbEntity
  8
LIVELLO 03
100
AcDbLine
 10
-52.0
 20
-546.0
 30
0.0
 11
-52.0
 21
-542.0
 31
0.0
  0
LINE
  5
430
330
1F
100
AcDbEntity
  8
LIVELLO 03
100
AcDbLine
 10
-52.0
 20
-542.0
 30
0.0
 11
-62.0
 21
-542.0
 31
0.0
  0
LINE
  5
431
330
1F
100
AcDbEntity
  8
LIVELLO 03
100
AcDbLine
 10
-62.0
 20
-542.0
 30
0.0
 11
-62.0
 21
-546.0
 31
0.0
  0
LINE
  5
432
330
1F
100
AcDbEntity
  8
LIVELLO 03
100
AcDbLine
 10
-62.0
 20
-546.0
 30
0.0
 11
-72.0
 21
-546.0
 31
0.0
  0
LINE
  5
433
330
1F
100
AcDbEntity
  8
LIVELLO 03
100
AcDbLine
 10
-72.0
 20
-546.0
 30
0.0
 11
-72.0
 21
-542.0
 31
0.0
  0
LINE
  5
434
330
1F
100
AcDbEntity
  8
LIVELLO 03
100
AcDbLine
 10
-72.0
 20
-542.0
 30
0.0
 11
-82.0
 21
-542.0
 31
0.0
  0
LINE
  5
435
330
1F
100
AcDbEntity
  8
LIVELLO 03
100
AcDbLine
 10
-82.0
 20
-542.0
 30
0.0
 11
-82.0
 21
-546.0
 31
0.0
  0
LINE
  5
436
330
1F
100
AcDbEntity
  8
LIVELLO 03
100
AcDbLine
 10
-82.0
 20
-546.0
 30
0.0
 11
-92.0
 21
-546.0
 31
0.0
  0
LINE
  5
437
330
1F
100
AcDbEntity
  8
LIVELLO 03
100
AcDbLine
 10
-92.0
 20
-546.0
 30
0.0
 11
-92.0
 21
-542.0
 31
0.0
  0
LINE
  5
438
330
1F
100
AcDbEntity
  8
LIVELLO 03
100
AcDbLine
 10
-92.0
 20
-542.0
 30
0.0
 11
-102.0
 21
-542.0
 31
0.0
  0
LINE
  5
439
330
1F
100
AcDbEntity
  8
LIVELLO 03
100
AcDbLine
 10
-102.0
 20
-542.0
 30
0.0
 11
-102.0
 21
-546.0
 31
0.0
  0
LINE
  5
43A
330
1F
100
AcDbEntity
  8
LIVELLO 03
100
AcDbLine
 10
-102.0
 20
-546.0
 30
0.0
 11
-112.0
 21
-546.0
 31
0.0
  0
LINE
  5
43B
330
1F
100
AcDbEntity
  8
LIVELLO 03
100
AcDbLine
 10
-112.0
 20
-546.0
 30
0.0
 11
-112.0
 21
-542.0
 31
0.0
  0
LINE
  5
43C
330
1F
100
AcDbEntity
  8
LIVELLO 03
100
AcDbLine
 10
-112.0
 20
-542.0
 30
0.0
 11
-122.0
 21
-542.0
 31
0.0
  0
LINE
  5
43D
330
1F
100
AcDbEntity
  8
LIVELLO 03
100
AcDbLine
 10
-122.0
 20
-542.0
 30
0.0
 11
-122.0
 21
-546.0
 31
0.0
  0
LINE
  5
43E
330
1F
100
AcDbEntity
  8
LIVELLO 03
100
AcDbLine
 10
-122.0
 20
-546.0
 30
0.0
 11
-132.0
 21
-546.0
 31
0.0
  0
LINE
  5
43F
330
1F
100
AcDbEntity
  8
LIVELLO 03
100
AcDbLine
 10
-132.0
 20
-546.0
 30
0.0
 11
-132.0
 21
-542.0
 31
0.0
  0
LINE
  5
440
330
1F
100
AcDbEntity
  8
LIVELLO 03
100
AcDbLine
 10
-132.0
 20
-542.0
 30
0.0
 11
-142.0
 21
-542.0
 31
0.0
  0
LINE
  5
441
330
1F
100
AcDbEntity
  8
LIVELLO 03
100
AcDbLine
 10
-142.0
 20
-542.0
 30
0.0
 11
-142.0
 21
-546.0
 31
0.0
  0
LINE
  5
442
330
1F
100
AcDbEntity
  8
LIVELLO 03
100
AcDbLine
 10
-142.0
 20
-546.0
 30
0.0
 11
-152.0
 21
-546.0
 31
0.0
  0
LINE
  5
443
330
1F
100
AcDbEntity
  8
LIVELLO 03
100
AcDbLine
 10
-152.0
 20
-546.0
 30
0.0
 11
-152.0
 21
-542.0
 31
0.0
  0
LINE
  5
444
330
1F
100
AcDbEntity
  8
LIVELLO 03
100
AcDbLine
 10
-152.0
 20
-542.0
 30
0.0
 11
-162.0
 21
-542.0
 31
0.0
  0
LINE
  5
445
330
1F
100
AcDbEntity
  8
LIVELLO 03
100
AcDbLine
 10
-162.0
 20
-542.0
 30
0.0
 11
-162.0
 21
-546.0
 31
0.0
  0
LINE
  5
446
330
1F
100
AcDbEntity
  8
LIVELLO 03
100
AcDbLine
 10
-162.0
 20
-546.0
 30
0.0
 11
-172.0
 21
-546.0
 31
0.0
  0
LINE
  5
447
330
1F
100
AcDbEntity
  8
LIVELLO 03
100
AcDbLine
 10
-172.0
 20
-546.0
 30
0.0
 11
-172.0
 21
-542.0
 31
0.0
  0
LINE
  5
448
330
1F
100
AcDbEntity
  8
LIVELLO 03
100
AcDbLine
 10
-172.0
 20
-542.0
 30
0.0
 11
-182.0
 21
-542.0
 31
0.0
  0
LINE
  5
449
330
1F
100
AcDbEntity
  8
LIVELLO 03
100
AcDbLine
 10
-182.0
 20
-542.0
 30
0.0
 11
-182.0
 21
-546.0
 31
0.0
  0
LINE
  5
44A
330
1F
100
AcDbEntity
  8
LIVELLO 03
100
AcDbLine
 10
-182.0
 20
-546.0
 30
0.0
 11
-192.0
 21
-546.0
 31
0.0
  0
LINE
  5
44B
330
1F
100
AcDbEntity
  8
LIVELLO 03
100
AcDbLine
 10
-192.0
 20
-546.0
 30
0.0
 11
-192.0
 21
-542.0
 31
0.0
  0
LINE
  5
44C
330
1F
100
AcDbEntity
  8
LIVELLO 03
100
AcDbLine
 10
-192.0
 20
-542.0
 30
0.0
 11
-202.0
 21
-542.0
 31
0.0
  0
LINE
  5
44D
330
1F
100
AcDbEntity
  8
LIVELLO 03
100
AcDbLine
 10
-202.0
 20
-542.0
 30
0.0
 11
-202.0
 21
-546.0
 31
0.0
  0
LINE
  5
44E
330
1F
100
AcDbEntity
  8
LIVELLO 03
100
AcDbLine
 10
-202.0
 20
-546.0
 30
0.0
 11
-212.0
 21
-546.0
 31
0.0
  0
LINE
  5
44F
330
1F
100
AcDbEntity
  8
LIVELLO 03
100
AcDbLine
 10
-212.0
 20
-546.0
 30
0.0
 11
-212.0
 21
-544.0
 31
0.0
  0
LINE
  5
450
330
1F
100
AcDbEntity
  8
LIVELLO 03
100
AcDbLine
 10
-212.0
 20
-544.0
 30
0.0
 11
-212.0
 21
-542.0
 31
0.0
  0
LINE
  5
451
330
1F
100
AcDbEntity
  8
LIVELLO 03
100
AcDbLine
 10
-212.0
 20
-542.0
 30
0.0
 11
-208.0
 21
-542.0
 31
0.0
  0
LINE
  5
452
330
1F
100
AcDbEntity
  8
LIVELLO 03
100
AcDbLine
 10
-208.0
 20
-542.0
 30
0.0
 11
-208.0
 21
-534.0
 31
0.0
  0
LINE
  5
453
330
1F
100
AcDbEntity
  8
LIVELLO 03
100
AcDbLine
 10
-208.0
 20
-534.0
 30
0.0
 11
-212.0
 21
-534.0
 31
0.0
  0
LINE
  5
454
330
1F
100
AcDbEntity
  8
LIVELLO 03
100
AcDbLine
 10
-212.0
 20
-534.0
 30
0.0
 11
-212.0
 21
-524.0
 31
0.0
  0
LINE
  5
455
330
1F
100
AcDbEntity
  8
LIVELLO 03
100
AcDbLine
 10
-212.0
 20
-524.0
 30
0.0
 11
-208.0
 21
-524.0
 31
0.0
  0
LINE
  5
456
330
1F
100
AcDbEntity
  8
LIVELLO 03
100
AcDbLine
 10
-208.0
 20
-524.0
 30
0.0
 11
-208.0
 21
-514.0
 31
0.0
  0
LINE
  5
457
330
1F
100
AcDbEntity
  8
LIVELLO 03
100
AcDbLine
 10
-208.0
 20
-514.0
 30
0.0
 11
-212.0
 21
-514.0
 31
0.0
  0
LINE
  5
458
330
1F
100
AcDbEntity
  8
LIVELLO 03
100
AcDbLine
 10
-212.0
 20
-514.0
 30
0.0
 11
-212.0
 21
-504.0
 31
0.0
  0
LINE
  5
459
330
1F
100
AcDbEntity
  8
LIVELLO 03
100
AcDbLine
 10
-212.0
 20
-504.0
 30
0.0
 11
-208.0
 21
-504.0
 31
0.0
  0
LINE
  5
45A
330
1F
100
AcDbEntity
  8
LIVELLO 03
100
AcDbLine
 10
108.0
 20
-488.0
 30
0.0
 11
108.0
 21
-484.0
 31
0.0
  0
LINE
  5
45B
330
1F
100
AcDbEntity
  8
LIVELLO 03
100
AcDbLine
 10
108.0
 20
-484.0
 30
0.0
 11
118.0
 21
-484.0
 31
0.0
  0
POLYLINE
  5
45C
330
1F
100
AcDbEntity
  8
LIVELLO 03
100
AcDb2dPolyline
 66
     1
 10
0.0
 20
0.0
 30
0.0
  0
VERTEX
  5
45D
330
45C
100
AcDbEntity
  8
LIVELLO 03
100
AcDbVertex
100
AcDb2dVertex
 10
118.0
 20
-484.0
 30
0.0
  0
VERTEX
  5
45E
330
45C
100
AcDbEntity
  8
LIVELLO 03
100
AcDbVertex
100
AcDb2dVertex
 10
120.0
 20
-484.0
 30
0.0
  0
SEQEND
  5
45F
330
45C
100
AcDbEntity
  8
LIVELLO 03
  0
POLYLINE
  5
460
330
1F
100
AcDbEntity
  8
LIVELLO 03
100
AcDb2dPolyline
 66
     1
 10
0.0
 20
0.0
 30
0.0
  0
VERTEX
  5
461
330
460
100
AcDbEntity
  8
LIVELLO 03
100
AcDbVertex
100
AcDb2dVertex
 10
120.0
 20
-484.0
 30
0.0
  0
VERTEX
  5
462
330
460
100
AcDbEntity
  8
LIVELLO 03
100
AcDbVertex
100
AcDb2dVertex
 10
120.0
 20
-478.0
 30
0.0
  0
VERTEX
  5
463
330
460
100
AcDbEntity
  8
LIVELLO 03
100
AcDbVertex
100
AcDb2dVertex
 10
124.0
 20
-478.0
 30
0.0
  0
VERTEX
  5
464
330
460
100
AcDbEntity
  8
LIVELLO 03
100
AcDbVertex
100
AcDb2dVertex
 10
124.0
 20
-468.0
 30
0.0
  0
VERTEX
  5
465
330
460
100
AcDbEntity
  8
LIVELLO 03
100
AcDbVertex
100
AcDb2dVertex
 10
120.0
 20
-468.0
 30
0.0
  0
VERTEX
  5
466
330
460
100
AcDbEntity
  8
LIVELLO 03
100
AcDbVertex
100
AcDb2dVertex
 10
120.0
 20
-458.0
 30
0.0
  0
VERTEX
  5
467
330
460
100
AcDbEntity
  8
LIVELLO 03
100
AcDbVertex
100
AcDb2dVertex
 10
124.0
 20
-458.0
 30
0.0
  0
VERTEX
  5
468
330
460
100
AcDbEntity
  8
LIVELLO 03
100
AcDbVertex
100
AcDb2dVertex
 10
124.0
 20
-451.0
 30
0.0
  0
VERTEX
  5
469
330
460
100
AcDbEntity
  8
LIVELLO 03
100
AcDbVertex
100
AcDb2dVertex
 10
120.0
 20
-451.0
 30
0.0
  0
VERTEX
  5
46A
330
460
100
AcDbEntity
  8
LIVELLO 03
100
AcDbVertex
100
AcDb2dVertex
 10
120.0
 20
-447.0
 30
0.0
  0
SEQEND
  5
46B
330
460
100
AcDbEntity
  8
LIVELLO 03
  0
LINE
  5
46C
330
1F
100
AcDbEntity
  8
LIVELLO 03
100
AcDbLine
 10
-72.0
 20
-555.0
 30
0.0
 11
-72.0
 21
-551.0
 31
0.0
  0
LINE
  5
46D
330
1F
100
AcDbEntity
  8
LIVELLO 03
100
AcDbLine
 10
-72.0
 20
-551.0
 30
0.0
 11
-62.0
 21
-551.0
 31
0.0
  0
LINE
  5
46E
330
1F
100
AcDbEntity
  8
LIVELLO 03
100
AcDbLine
 10
-62.0
 20
-551.0
 30
0.0
 11
-62.0
 21
-555.0
 31
0.0
  0
LINE
  5
46F
330
1F
100
AcDbEntity
  8
LIVELLO 03
100
AcDbLine
 10
-62.0
 20
-555.0
 30
0.0
 11
-52.0
 21
-555.0
 31
0.0
  0
LINE
  5
470
330
1F
100
AcDbEntity
  8
LIVELLO 03
100
AcDbLine
 10
-52.0
 20
-555.0
 30
0.0
 11
-52.0
 21
-551.0
 31
0.0
  0
LINE
  5
471
330
1F
100
AcDbEntity
  8
LIVELLO 03
100
AcDbLine
 10
-52.0
 20
-551.0
 30
0.0
 11
-42.0
 21
-551.0
 31
0.0
  0
LINE
  5
472
330
1F
100
AcDbEntity
  8
LIVELLO 03
100
AcDbLine
 10
-42.0
 20
-551.0
 30
0.0
 11
-42.0
 21
-555.0
 31
0.0
  0
LINE
  5
473
330
1F
100
AcDbEntity
  8
LIVELLO 03
100
AcDbLine
 10
-42.0
 20
-555.0
 30
0.0
 11
-32.0
 21
-555.0
 31
0.0
  0
LINE
  5
474
330
1F
100
AcDbEntity
  8
LIVELLO 03
100
AcDbLine
 10
-32.0
 20
-555.0
 30
0.0
 11
-32.0
 21
-551.0
 31
0.0
  0
LINE
  5
475
330
1F
100
AcDbEntity
  8
LIVELLO 03
100
AcDbLine
 10
-32.0
 20
-551.0
 30
0.0
 11
-22.0
 21
-551.0
 31
0.0
  0
LINE
  5
476
330
1F
100
AcDbEntity
  8
LIVELLO 03
100
AcDbLine
 10
-22.0
 20
-551.0
 30
0.0
 11
-22.0
 21
-555.0
 31
0.0
  0
LINE
  5
477
330
1F
100
AcDbEntity
  8
LIVELLO 03
100
AcDbLine
 10
-22.0
 20
-555.0
 30
0.0
 11
-12.0
 21
-555.0
 31
0.0
  0
LINE
  5
478
330
1F
100
AcDbEntity
  8
LIVELLO 03
100
AcDbLine
 10
-12.0
 20
-555.0
 30
0.0
 11
-12.0
 21
-551.0
 31
0.0
  0
LINE
  5
479
330
1F
100
AcDbEntity
  8
LIVELLO 03
100
AcDbLine
 10
-12.0
 20
-551.0
 30
0.0
 11
-2.0
 21
-551.0
 31
0.0
  0
LINE
  5
47A
330
1F
100
AcDbEntity
  8
LIVELLO 03
100
AcDbLine
 10
-2.0
 20
-551.0
 30
0.0
 11
-2.0
 21
-555.0
 31
0.0
  0
LINE
  5
47B
330
1F
100
AcDbEntity
  8
LIVELLO 03
100
AcDbLine
 10
-2.0
 20
-555.0
 30
0.0
 11
8.0
 21
-555.0
 31
0.0
  0
LINE
  5
47C
330
1F
100
AcDbEntity
  8
LIVELLO 03
100
AcDbLine
 10
8.0
 20
-555.0
 30
0.0
 11
8.0
 21
-551.0
 31
0.0
  0
LINE
  5
47D
330
1F
100
AcDbEntity
  8
LIVELLO 03
100
AcDbLine
 10
8.0
 20
-551.0
 30
0.0
 11
18.0
 21
-551.0
 31
0.0
  0
LINE
  5
47E
330
1F
100
AcDbEntity
  8
LIVELLO 03
100
AcDbLine
 10
18.0
 20
-551.0
 30
0.0
 11
18.0
 21
-555.0
 31
0.0
  0
LINE
  5
47F
330
1F
100
AcDbEntity
  8
LIVELLO 03
100
AcDbLine
 10
18.0
 20
-555.0
 30
0.0
 11
28.0
 21
-555.0
 31
0.0
  0
LINE
  5
480
330
1F
100
AcDbEntity
  8
LIVELLO 03
100
AcDbLine
 10
28.0
 20
-555.0
 30
0.0
 11
28.0
 21
-551.0
 31
0.0
  0
LINE
  5
481
330
1F
100
AcDbEntity
  8
LIVELLO 03
100
AcDbLine
 10
28.0
 20
-551.0
 30
0.0
 11
38.0
 21
-551.0
 31
0.0
  0
LINE
  5
482
330
1F
100
AcDbEntity
  8
LIVELLO 03
100
AcDbLine
 10
38.0
 20
-551.0
 30
0.0
 11
38.0
 21
-555.0
 31
0.0
  0
LINE
  5
483
330
1F
100
AcDbEntity
  8
LIVELLO 03
100
AcDbLine
 10
38.0
 20
-555.0
 30
0.0
 11
48.0
 21
-555.0
 31
0.0
  0
LINE
  5
484
330
1F
100
AcDbEntity
  8
LIVELLO 03
100
AcDbLine
 10
48.0
 20
-555.0
 30
0.0
 11
48.0
 21
-551.0
 31
0.0
  0
LINE
  5
485
330
1F
100
AcDbEntity
  8
LIVELLO 03
100
AcDbLine
 10
48.0
 20
-551.0
 30
0.0
 11
58.0
 21
-551.0
 31
0.0
  0
LINE
  5
486
330
1F
100
AcDbEntity
  8
LIVELLO 03
100
AcDbLine
 10
58.0
 20
-551.0
 30
0.0
 11
58.0
 21
-555.0
 31
0.0
  0
LINE
  5
487
330
1F
100
AcDbEntity
  8
LIVELLO 03
100
AcDbLine
 10
58.0
 20
-555.0
 30
0.0
 11
68.0
 21
-555.0
 31
0.0
  0
LINE
  5
488
330
1F
100
AcDbEntity
  8
LIVELLO 03
100
AcDbLine
 10
68.0
 20
-555.0
 30
0.0
 11
68.0
 21
-551.0
 31
0.0
  0
LINE
  5
489
330
1F
100
AcDbEntity
  8
LIVELLO 03
100
AcDbLine
 10
68.0
 20
-551.0
 30
0.0
 11
78.0
 21
-551.0
 31
0.0
  0
LINE
  5
48A
330
1F
100
AcDbEntity
  8
LIVELLO 03
100
AcDbLine
 10
78.0
 20
-551.0
 30
0.0
 11
78.0
 21
-555.0
 31
0.0
  0
LINE
  5
48B
330
1F
100
AcDbEntity
  8
LIVELLO 03
100
AcDbLine
 10
78.0
 20
-555.0
 30
0.0
 11
88.0
 21
-555.0
 31
0.0
  0
LINE
  5
48C
330
1F
100
AcDbEntity
  8
LIVELLO 03
100
AcDbLine
 10
88.0
 20
-555.0
 30
0.0
 11
88.0
 21
-551.0
 31
0.0
  0
LINE
  5
48D
330
1F
100
AcDbEntity
  8
LIVELLO 03
100
AcDbLine
 10
88.0
 20
-551.0
 30
0.0
 11
98.0
 21
-551.0
 31
0.0
  0
LINE
  5
48E
330
1F
100
AcDbEntity
  8
LIVELLO 03
100
AcDbLine
 10
98.0
 20
-551.0
 30
0.0
 11
98.0
 21
-555.0
 31
0.0
  0
LINE
  5
48F
330
1F
100
AcDbEntity
  8
LIVELLO 03
100
AcDbLine
 10
98.0
 20
-555.0
 30
0.0
 11
108.0
 21
-555.0
 31
0.0
  0
LINE
  5
490
330
1F
100
AcDbEntity
  8
LIVELLO 03
100
AcDbLine
 10
108.0
 20
-555.0
 30
0.0
 11
108.0
 21
-551.0
 31
0.0
  0
LINE
  5
491
330
1F
100
AcDbEntity
  8
LIVELLO 03
100
AcDbLine
 10
108.0
 20
-551.0
 30
0.0
 11
118.0
 21
-551.0
 31
0.0
  0
LINE
  5
492
330
1F
100
AcDbEntity
  8
LIVELLO 03
100
AcDbLine
 10
118.0
 20
-551.0
 30
0.0
 11
120.0
 21
-551.0
 31
0.0
  0
POLYLINE
  5
493
330
1F
100
AcDbEntity
  8
LIVELLO 03
100
AcDb2dPolyline
 66
     1
 10
0.0
 20
0.0
 30
0.0
  0
VERTEX
  5
494
330
493
100
AcDbEntity
  8
LIVELLO 03
100
AcDbVertex
100
AcDb2dVertex
 10
120.0
 20
-551.0
 30
0.0
  0
VERTEX
  5
495
330
493
100
AcDbEntity
  8
LIVELLO 03
100
AcDbVertex
100
AcDb2dVertex
 10
120.0
 20
-555.0
 30
0.0
  0
SEQEND
  5
496
330
493
100
AcDbEntity
  8
LIVELLO 03
  0
POLYLINE
  5
497
330
1F
100
AcDbEntity
  8
LIVELLO 03
100
AcDb2dPolyline
 66
     1
 10
0.0
 20
0.0
 30
0.0
  0
VERTEX
  5
498
330
497
100
AcDbEntity
  8
LIVELLO 03
100
AcDbVertex
100
AcDb2dVertex
 10
124.0
 20
-524.0
 30
0.0
  0
VERTEX
  5
499
330
497
100
AcDbEntity
  8
LIVELLO 03
100
AcDbVertex
100
AcDb2dVertex
 10
124.0
 20
-529.0
 30
0.0
  0
SEQEND
  5
49A
330
497
100
AcDbEntity
  8
LIVELLO 03
  0
LINE
  5
49B
330
1F
100
AcDbEntity
  8
LIVELLO 03
100
AcDbLine
 10
124.0
 20
-529.0
 30
0.0
 11
120.0
 21
-529.0
 31
0.0
  0
LINE
  5
49C
330
1F
100
AcDbEntity
  8
LIVELLO 03
100
AcDbLine
 10
120.0
 20
-529.0
 30
0.0
 11
120.0
 21
-535.0
 31
0.0
  0
LINE
  5
49D
330
1F
100
AcDbEntity
  8
LIVELLO 03
100
AcDbLine
 10
120.0
 20
-535.0
 30
0.0
 11
124.0
 21
-535.0
 31
0.0
  0
LINE
  5
49E
330
1F
100
AcDbEntity
  8
LIVELLO 03
100
AcDbLine
 10
124.0
 20
-535.0
 30
0.0
 11
124.0
 21
-542.0
 31
0.0
  0
LINE
  5
49F
330
1F
100
AcDbEntity
  8
LIVELLO 03
100
AcDbLine
 10
124.0
 20
-542.0
 30
0.0
 11
120.0
 21
-542.0
 31
0.0
  0
LINE
  5
4A0
330
1F
100
AcDbEntity
  8
LIVELLO 03
100
AcDbLine
 10
120.0
 20
-542.0
 30
0.0
 11
120.0
 21
-546.0
 31
0.0
  0
LINE
  5
4A1
330
1F
100
AcDbEntity
  8
LIVELLO 03
100
AcDbLine
 10
120.0
 20
-546.0
 30
0.0
 11
118.0
 21
-546.0
 31
0.0
  0
LINE
  5
4A2
330
1F
100
AcDbEntity
  8
LIVELLO 03
100
AcDbLine
 10
118.0
 20
-546.0
 30
0.0
 11
108.0
 21
-546.0
 31
0.0
  0
LINE
  5
4A3
330
1F
100
AcDbEntity
  8
LIVELLO 03
100
AcDbLine
 10
108.0
 20
-546.0
 30
0.0
 11
108.0
 21
-542.0
 31
0.0
  0
LINE
  5
4A4
330
1F
100
AcDbEntity
  8
LIVELLO 03
100
AcDbLine
 10
-142.0
 20
-593.0
 30
0.0
 11
-152.0
 21
-593.0
 31
0.0
  0
LINE
  5
4A5
330
1F
100
AcDbEntity
  8
LIVELLO 03
100
AcDbLine
 10
-152.0
 20
-593.0
 30
0.0
 11
-152.0
 21
-589.0
 31
0.0
  0
LINE
  5
4A6
330
1F
100
AcDbEntity
  8
LIVELLO 03
100
AcDbLine
 10
-152.0
 20
-589.0
 30
0.0
 11
-162.0
 21
-589.0
 31
0.0
  0
LINE
  5
4A7
330
1F
100
AcDbEntity
  8
LIVELLO 03
100
AcDbLine
 10
-162.0
 20
-589.0
 30
0.0
 11
-162.0
 21
-593.0
 31
0.0
  0
LINE
  5
4A8
330
1F
100
AcDbEntity
  8
LIVELLO 03
100
AcDbLine
 10
-162.0
 20
-593.0
 30
0.0
 11
-172.0
 21
-593.0
 31
0.0
  0
LINE
  5
4A9
330
1F
100
AcDbEntity
  8
LIVELLO 03
100
AcDbLine
 10
-172.0
 20
-593.0
 30
0.0
 11
-172.0
 21
-589.0
 31
0.0
  0
LINE
  5
4AA
330
1F
100
AcDbEntity
  8
LIVELLO 03
100
AcDbLine
 10
-172.0
 20
-589.0
 30
0.0
 11
-182.0
 21
-589.0
 31
0.0
  0
LINE
  5
4AB
330
1F
100
AcDbEntity
  8
LIVELLO 03
100
AcDbLine
 10
-182.0
 20
-589.0
 30
0.0
 11
-182.0
 21
-593.0
 31
0.0
  0
LINE
  5
4AC
330
1F
100
AcDbEntity
  8
LIVELLO 03
100
AcDbLine
 10
-182.0
 20
-593.0
 30
0.0
 11
-192.0
 21
-593.0
 31
0.0
  0
LINE
  5
4AD
330
1F
100
AcDbEntity
  8
LIVELLO 03
100
AcDbLine
 10
-192.0
 20
-593.0
 30
0.0
 11
-192.0
 21
-589.0
 31
0.0
  0
LINE
  5
4AE
330
1F
100
AcDbEntity
  8
LIVELLO 03
100
AcDbLine
 10
-192.0
 20
-589.0
 30
0.0
 11
-202.0
 21
-589.0
 31
0.0
  0
LINE
  5
4AF
330
1F
100
AcDbEntity
  8
LIVELLO 03
100
AcDbLine
 10
-202.0
 20
-589.0
 30
0.0
 11
-202.0
 21
-593.0
 31
0.0
  0
LINE
  5
4B0
330
1F
100
AcDbEntity
  8
LIVELLO 03
100
AcDbLine
 10
-202.0
 20
-593.0
 30
0.0
 11
-212.0
 21
-593.0
 31
0.0
  0
LINE
  5
4B1
330
1F
100
AcDbEntity
  8
LIVELLO 03
100
AcDbLine
 10
-212.0
 20
-593.0
 30
0.0
 11
-212.0
 21
-589.0
 31
0.0
  0
LINE
  5
4B2
330
1F
100
AcDbEntity
  8
LIVELLO 03
100
AcDbLine
 10
-212.0
 20
-589.0
 30
0.0
 11
-208.0
 21
-589.0
 31
0.0
  0
LINE
  5
4B3
330
1F
100
AcDbEntity
  8
LIVELLO 03
100
AcDbLine
 10
-208.0
 20
-589.0
 30
0.0
 11
-208.0
 21
-581.0
 31
0.0
  0
LINE
  5
4B4
330
1F
100
AcDbEntity
  8
LIVELLO 03
100
AcDbLine
 10
-208.0
 20
-581.0
 30
0.0
 11
-212.0
 21
-581.0
 31
0.0
  0
LINE
  5
4B5
330
1F
100
AcDbEntity
  8
LIVELLO 03
100
AcDbLine
 10
-212.0
 20
-581.0
 30
0.0
 11
-212.0
 21
-571.0
 31
0.0
  0
LINE
  5
4B6
330
1F
100
AcDbEntity
  8
LIVELLO 03
100
AcDbLine
 10
-212.0
 20
-571.0
 30
0.0
 11
-208.0
 21
-571.0
 31
0.0
  0
LINE
  5
4B7
330
1F
100
AcDbEntity
  8
LIVELLO 03
100
AcDbLine
 10
-208.0
 20
-571.0
 30
0.0
 11
-208.0
 21
-561.0
 31
0.0
  0
LINE
  5
4B8
330
1F
100
AcDbEntity
  8
LIVELLO 03
100
AcDbLine
 10
-208.0
 20
-561.0
 30
0.0
 11
-212.0
 21
-561.0
 31
0.0
  0
LINE
  5
4B9
330
1F
100
AcDbEntity
  8
LIVELLO 03
100
AcDbLine
 10
-212.0
 20
-561.0
 30
0.0
 11
-212.0
 21
-551.0
 31
0.0
  0
LINE
  5
4BA
330
1F
100
AcDbEntity
  8
LIVELLO 03
100
AcDbLine
 10
-212.0
 20
-551.0
 30
0.0
 11
-208.0
 21
-551.0
 31
0.0
  0
LINE
  5
4BB
330
1F
100
AcDbEntity
  8
LIVELLO 03
100
AcDbLine
 10
-208.0
 20
-551.0
 30
0.0
 11
-208.0
 21
-555.0
 31
0.0
  0
LINE
  5
4BC
330
1F
100
AcDbEntity
  8
LIVELLO 03
100
AcDbLine
 10
-208.0
 20
-555.0
 30
0.0
 11
-202.0
 21
-555.0
 31
0.0
  0
LINE
  5
4BD
330
1F
100
AcDbEntity
  8
LIVELLO 03
100
AcDbLine
 10
-202.0
 20
-555.0
 30
0.0
 11
-192.0
 21
-555.0
 31
0.0
  0
LINE
  5
4BE
330
1F
100
AcDbEntity
  8
LIVELLO 03
100
AcDbLine
 10
-192.0
 20
-555.0
 30
0.0
 11
-192.0
 21
-551.0
 31
0.0
  0
LINE
  5
4BF
330
1F
100
AcDbEntity
  8
LIVELLO 03
100
AcDbLine
 10
-192.0
 20
-551.0
 30
0.0
 11
-182.0
 21
-551.0
 31
0.0
  0
LINE
  5
4C0
330
1F
100
AcDbEntity
  8
LIVELLO 03
100
AcDbLine
 10
-182.0
 20
-551.0
 30
0.0
 11
-182.0
 21
-555.0
 31
0.0
  0
LINE
  5
4C1
330
1F
100
AcDbEntity
  8
LIVELLO 03
100
AcDbLine
 10
-182.0
 20
-555.0
 30
0.0
 11
-172.0
 21
-555.0
 31
0.0
  0
LINE
  5
4C2
330
1F
100
AcDbEntity
  8
LIVELLO 03
100
AcDbLine
 10
-172.0
 20
-555.0
 30
0.0
 11
-172.0
 21
-551.0
 31
0.0
  0
LINE
  5
4C3
330
1F
100
AcDbEntity
  8
LIVELLO 03
100
AcDbLine
 10
-172.0
 20
-551.0
 30
0.0
 11
-162.0
 21
-551.0
 31
0.0
  0
LINE
  5
4C4
330
1F
100
AcDbEntity
  8
LIVELLO 03
100
AcDbLine
 10
-162.0
 20
-551.0
 30
0.0
 11
-162.0
 21
-555.0
 31
0.0
  0
LINE
  5
4C5
330
1F
100
AcDbEntity
  8
LIVELLO 03
100
AcDbLine
 10
-162.0
 20
-555.0
 30
0.0
 11
-152.0
 21
-555.0
 31
0.0
  0
LINE
  5
4C6
330
1F
100
AcDbEntity
  8
LIVELLO 03
100
AcDbLine
 10
-152.0
 20
-555.0
 30
0.0
 11
-152.0
 21
-551.0
 31
0.0
  0
LINE
  5
4C7
330
1F
100
AcDbEntity
  8
LIVELLO 03
100
AcDbLine
 10
-152.0
 20
-551.0
 30
0.0
 11
-142.0
 21
-551.0
 31
0.0
  0
LINE
  5
4C8
330
1F
100
AcDbEntity
  8
LIVELLO 03
100
AcDbLine
 10
-142.0
 20
-551.0
 30
0.0
 11
-142.0
 21
-555.0
 31
0.0
  0
LINE
  5
4C9
330
1F
100
AcDbEntity
  8
LIVELLO 03
100
AcDbLine
 10
-142.0
 20
-555.0
 30
0.0
 11
-132.0
 21
-555.0
 31
0.0
  0
LINE
  5
4CA
330
1F
100
AcDbEntity
  8
LIVELLO 03
100
AcDbLine
 10
-132.0
 20
-555.0
 30
0.0
 11
-132.0
 21
-551.0
 31
0.0
  0
LINE
  5
4CB
330
1F
100
AcDbEntity
  8
LIVELLO 03
100
AcDbLine
 10
-132.0
 20
-551.0
 30
0.0
 11
-122.0
 21
-551.0
 31
0.0
  0
LINE
  5
4CC
330
1F
100
AcDbEntity
  8
LIVELLO 03
100
AcDbLine
 10
-122.0
 20
-551.0
 30
0.0
 11
-122.0
 21
-555.0
 31
0.0
  0
LINE
  5
4CD
330
1F
100
AcDbEntity
  8
LIVELLO 03
100
AcDbLine
 10
-122.0
 20
-555.0
 30
0.0
 11
-112.0
 21
-555.0
 31
0.0
  0
LINE
  5
4CE
330
1F
100
AcDbEntity
  8
LIVELLO 03
100
AcDbLine
 10
-112.0
 20
-555.0
 30
0.0
 11
-112.0
 21
-551.0
 31
0.0
  0
LINE
  5
4CF
330
1F
100
AcDbEntity
  8
LIVELLO 03
100
AcDbLine
 10
-112.0
 20
-551.0
 30
0.0
 11
-102.0
 21
-551.0
 31
0.0
  0
LINE
  5
4D0
330
1F
100
AcDbEntity
  8
LIVELLO 03
100
AcDbLine
 10
-102.0
 20
-551.0
 30
0.0
 11
-102.0
 21
-555.0
 31
0.0
  0
LINE
  5
4D1
330
1F
100
AcDbEntity
  8
LIVELLO 03
100
AcDbLine
 10
-102.0
 20
-555.0
 30
0.0
 11
-92.0
 21
-555.0
 31
0.0
  0
LINE
  5
4D2
330
1F
100
AcDbEntity
  8
LIVELLO 03
100
AcDbLine
 10
-92.0
 20
-555.0
 30
0.0
 11
-92.0
 21
-551.0
 31
0.0
  0
LINE
  5
4D3
330
1F
100
AcDbEntity
  8
LIVELLO 03
100
AcDbLine
 10
-92.0
 20
-551.0
 30
0.0
 11
-82.0
 21
-551.0
 31
0.0
  0
LINE
  5
4D4
330
1F
100
AcDbEntity
  8
LIVELLO 03
100
AcDbLine
 10
-82.0
 20
-551.0
 30
0.0
 11
-82.0
 21
-555.0
 31
0.0
  0
LINE
  5
4D5
330
1F
100
AcDbEntity
  8
LIVELLO 03
100
AcDbLine
 10
-82.0
 20
-555.0
 30
0.0
 11
-72.0
 21
-555.0
 31
0.0
  0
LINE
  5
4D6
330
1F
100
AcDbEntity
  8
LIVELLO 03
100
AcDbLine
 10
108.0
 20
-589.0
 30
0.0
 11
98.0
 21
-589.0
 31
0.0
  0
LINE
  5
4D7
330
1F
100
AcDbEntity
  8
LIVELLO 03
100
AcDbLine
 10
98.0
 20
-589.0
 30
0.0
 11
98.0
 21
-593.0
 31
0.0
  0
LINE
  5
4D8
330
1F
100
AcDbEntity
  8
LIVELLO 03
100
AcDbLine
 10
98.0
 20
-593.0
 30
0.0
 11
88.0
 21
-593.0
 31
0.0
  0
LINE
  5
4D9
330
1F
100
AcDbEntity
  8
LIVELLO 03
100
AcDbLine
 10
88.0
 20
-593.0
 30
0.0
 11
88.0
 21
-589.0
 31
0.0
  0
LINE
  5
4DA
330
1F
100
AcDbEntity
  8
LIVELLO 03
100
AcDbLine
 10
88.0
 20
-589.0
 30
0.0
 11
78.0
 21
-589.0
 31
0.0
  0
LINE
  5
4DB
330
1F
100
AcDbEntity
  8
LIVELLO 03
100
AcDbLine
 10
78.0
 20
-589.0
 30
0.0
 11
78.0
 21
-593.0
 31
0.0
  0
LINE
  5
4DC
330
1F
100
AcDbEntity
  8
LIVELLO 03
100
AcDbLine
 10
78.0
 20
-593.0
 30
0.0
 11
68.0
 21
-593.0
 31
0.0
  0
LINE
  5
4DD
330
1F
100
AcDbEntity
  8
LIVELLO 03
100
AcDbLine
 10
68.0
 20
-593.0
 30
0.0
 11
68.0
 21
-589.0
 31
0.0
  0
LINE
  5
4DE
330
1F
100
AcDbEntity
  8
LIVELLO 03
100
AcDbLine
 10
68.0
 20
-589.0
 30
0.0
 11
58.0
 21
-589.0
 31
0.0
  0
LINE
  5
4DF
330
1F
100
AcDbEntity
  8
LIVELLO 03
100
AcDbLine
 10
58.0
 20
-589.0
 30
0.0
 11
58.0
 21
-593.0
 31
0.0
  0
LINE
  5
4E0
330
1F
100
AcDbEntity
  8
LIVELLO 03
100
AcDbLine
 10
58.0
 20
-593.0
 30
0.0
 11
48.0
 21
-593.0
 31
0.0
  0
LINE
  5
4E1
330
1F
100
AcDbEntity
  8
LIVELLO 03
100
AcDbLine
 10
48.0
 20
-593.0
 30
0.0
 11
48.0
 21
-589.0
 31
0.0
  0
LINE
  5
4E2
330
1F
100
AcDbEntity
  8
LIVELLO 03
100
AcDbLine
 10
48.0
 20
-589.0
 30
0.0
 11
38.0
 21
-589.0
 31
0.0
  0
LINE
  5
4E3
330
1F
100
AcDbEntity
  8
LIVELLO 03
100
AcDbLine
 10
38.0
 20
-589.0
 30
0.0
 11
38.0
 21
-593.0
 31
0.0
  0
LINE
  5
4E4
330
1F
100
AcDbEntity
  8
LIVELLO 03
100
AcDbLine
 10
38.0
 20
-593.0
 30
0.0
 11
28.0
 21
-593.0
 31
0.0
  0
LINE
  5
4E5
330
1F
100
AcDbEntity
  8
LIVELLO 03
100
AcDbLine
 10
28.0
 20
-593.0
 30
0.0
 11
28.0
 21
-589.0
 31
0.0
  0
LINE
  5
4E6
330
1F
100
AcDbEntity
  8
LIVELLO 03
100
AcDbLine
 10
28.0
 20
-589.0
 30
0.0
 11
18.0
 21
-589.0
 31
0.0
  0
LINE
  5
4E7
330
1F
100
AcDbEntity
  8
LIVELLO 03
100
AcDbLine
 10
18.0
 20
-589.0
 30
0.0
 11
18.0
 21
-593.0
 31
0.0
  0
LINE
  5
4E8
330
1F
100
AcDbEntity
  8
LIVELLO 03
100
AcDbLine
 10
18.0
 20
-593.0
 30
0.0
 11
8.0
 21
-593.0
 31
0.0
  0
LINE
  5
4E9
330
1F
100
AcDbEntity
  8
LIVELLO 03
100
AcDbLine
 10
8.0
 20
-593.0
 30
0.0
 11
8.0
 21
-589.0
 31
0.0
  0
LINE
  5
4EA
330
1F
100
AcDbEntity
  8
LIVELLO 03
100
AcDbLine
 10
8.0
 20
-589.0
 30
0.0
 11
-2.0
 21
-589.0
 31
0.0
  0
LINE
  5
4EB
330
1F
100
AcDbEntity
  8
LIVELLO 03
100
AcDbLine
 10
-2.0
 20
-589.0
 30
0.0
 11
-2.0
 21
-593.0
 31
0.0
  0
LINE
  5
4EC
330
1F
100
AcDbEntity
  8
LIVELLO 03
100
AcDbLine
 10
-2.0
 20
-593.0
 30
0.0
 11
-12.0
 21
-593.0
 31
0.0
  0
LINE
  5
4ED
330
1F
100
AcDbEntity
  8
LIVELLO 03
100
AcDbLine
 10
-12.0
 20
-593.0
 30
0.0
 11
-12.0
 21
-589.0
 31
0.0
  0
LINE
  5
4EE
330
1F
100
AcDbEntity
  8
LIVELLO 03
100
AcDbLine
 10
-12.0
 20
-589.0
 30
0.0
 11
-22.0
 21
-589.0
 31
0.0
  0
LINE
  5
4EF
330
1F
100
AcDbEntity
  8
LIVELLO 03
100
AcDbLine
 10
-22.0
 20
-589.0
 30
0.0
 11
-22.0
 21
-593.0
 31
0.0
  0
LINE
  5
4F0
330
1F
100
AcDbEntity
  8
LIVELLO 03
100
AcDbLine
 10
-22.0
 20
-593.0
 30
0.0
 11
-32.0
 21
-593.0
 31
0.0
  0
LINE
  5
4F1
330
1F
100
AcDbEntity
  8
LIVELLO 03
100
AcDbLine
 10
-32.0
 20
-593.0
 30
0.0
 11
-32.0
 21
-589.0
 31
0.0
  0
LINE
  5
4F2
330
1F
100
AcDbEntity
  8
LIVELLO 03
100
AcDbLine
 10
-32.0
 20
-589.0
 30
0.0
 11
-42.0
 21
-589.0
 31
0.0
  0
LINE
  5
4F3
330
1F
100
AcDbEntity
  8
LIVELLO 03
100
AcDbLine
 10
-42.0
 20
-589.0
 30
0.0
 11
-42.0
 21
-593.0
 31
0.0
  0
LINE
  5
4F4
330
1F
100
AcDbEntity
  8
LIVELLO 03
100
AcDbLine
 10
-42.0
 20
-593.0
 30
0.0
 11
-52.0
 21
-593.0
 31
0.0
  0
LINE
  5
4F5
330
1F
100
AcDbEntity
  8
LIVELLO 03
100
AcDbLine
 10
-52.0
 20
-593.0
 30
0.0
 11
-52.0
 21
-589.0
 31
0.0
  0
LINE
  5
4F6
330
1F
100
AcDbEntity
  8
LIVELLO 03
100
AcDbLine
 10
-52.0
 20
-589.0
 30
0.0
 11
-62.0
 21
-589.0
 31
0.0
  0
LINE
  5
4F7
330
1F
100
AcDbEntity
  8
LIVELLO 03
100
AcDbLine
 10
-62.0
 20
-589.0
 30
0.0
 11
-62.0
 21
-593.0
 31
0.0
  0
LINE
  5
4F8
330
1F
100
AcDbEntity
  8
LIVELLO 03
100
AcDbLine
 10
-62.0
 20
-593.0
 30
0.0
 11
-72.0
 21
-593.0
 31
0.0
  0
LINE
  5
4F9
330
1F
100
AcDbEntity
  8
LIVELLO 03
100
AcDbLine
 10
-72.0
 20
-593.0
 30
0.0
 11
-72.0
 21
-589.0
 31
0.0
  0
LINE
  5
4FA
330
1F
100
AcDbEntity
  8
LIVELLO 03
100
AcDbLine
 10
-72.0
 20
-589.0
 30
0.0
 11
-82.0
 21
-589.0
 31
0.0
  0
LINE
  5
4FB
330
1F
100
AcDbEntity
  8
LIVELLO 03
100
AcDbLine
 10
-82.0
 20
-589.0
 30
0.0
 11
-82.0
 21
-593.0
 31
0.0
  0
LINE
  5
4FC
330
1F
100
AcDbEntity
  8
LIVELLO 03
100
AcDbLine
 10
-82.0
 20
-593.0
 30
0.0
 11
-92.0
 21
-593.0
 31
0.0
  0
LINE
  5
4FD
330
1F
100
AcDbEntity
  8
LIVELLO 03
100
AcDbLine
 10
-92.0
 20
-593.0
 30
0.0
 11
-92.0
 21
-589.0
 31
0.0
  0
LINE
  5
4FE
330
1F
100
AcDbEntity
  8
LIVELLO 03
100
AcDbLine
 10
-92.0
 20
-589.0
 30
0.0
 11
-102.0
 21
-589.0
 31
0.0
  0
LINE
  5
4FF
330
1F
100
AcDbEntity
  8
LIVELLO 03
100
AcDbLine
 10
-102.0
 20
-589.0
 30
0.0
 11
-102.0
 21
-593.0
 31
0.0
  0
LINE
  5
500
330
1F
100
AcDbEntity
  8
LIVELLO 03
100
AcDbLine
 10
-102.0
 20
-593.0
 30
0.0
 11
-112.0
 21
-593.0
 31
0.0
  0
LINE
  5
501
330
1F
100
AcDbEntity
  8
LIVELLO 03
100
AcDbLine
 10
-112.0
 20
-593.0
 30
0.0
 11
-112.0
 21
-589.0
 31
0.0
  0
LINE
  5
502
330
1F
100
AcDbEntity
  8
LIVELLO 03
100
AcDbLine
 10
-112.0
 20
-589.0
 30
0.0
 11
-122.0
 21
-589.0
 31
0.0
  0
LINE
  5
503
330
1F
100
AcDbEntity
  8
LIVELLO 03
100
AcDbLine
 10
-122.0
 20
-589.0
 30
0.0
 11
-122.0
 21
-593.0
 31
0.0
  0
LINE
  5
504
330
1F
100
AcDbEntity
  8
LIVELLO 03
100
AcDbLine
 10
-122.0
 20
-593.0
 30
0.0
 11
-132.0
 21
-593.0
 31
0.0
  0
LINE
  5
505
330
1F
100
AcDbEntity
  8
LIVELLO 03
100
AcDbLine
 10
-132.0
 20
-593.0
 30
0.0
 11
-132.0
 21
-589.0
 31
0.0
  0
LINE
  5
506
330
1F
100
AcDbEntity
  8
LIVELLO 03
100
AcDbLine
 10
-132.0
 20
-589.0
 30
0.0
 11
-142.0
 21
-589.0
 31
0.0
  0
LINE
  5
507
330
1F
100
AcDbEntity
  8
LIVELLO 03
100
AcDbLine
 10
-142.0
 20
-589.0
 30
0.0
 11
-142.0
 21
-593.0
 31
0.0
  0
LINE
  5
508
330
1F
100
AcDbEntity
  8
LIVELLO 03
100
AcDbLine
 10
-82.0
 20
-610.0
 30
0.0
 11
-92.0
 21
-610.0
 31
0.0
  0
LINE
  5
509
330
1F
100
AcDbEntity
  8
LIVELLO 03
100
AcDbLine
 10
-92.0
 20
-610.0
 30
0.0
 11
-92.0
 21
-606.0
 31
0.0
  0
LINE
  5
50A
330
1F
100
AcDbEntity
  8
LIVELLO 03
100
AcDbLine
 10
-92.0
 20
-606.0
 30
0.0
 11
-102.0
 21
-606.0
 31
0.0
  0
LINE
  5
50B
330
1F
100
AcDbEntity
  8
LIVELLO 03
100
AcDbLine
 10
-102.0
 20
-606.0
 30
0.0
 11
-102.0
 21
-610.0
 31
0.0
  0
LINE
  5
50C
330
1F
100
AcDbEntity
  8
LIVELLO 03
100
AcDbLine
 10
-102.0
 20
-610.0
 30
0.0
 11
-112.0
 21
-610.0
 31
0.0
  0
LINE
  5
50D
330
1F
100
AcDbEntity
  8
LIVELLO 03
100
AcDbLine
 10
-112.0
 20
-610.0
 30
0.0
 11
-112.0
 21
-606.0
 31
0.0
  0
LINE
  5
50E
330
1F
100
AcDbEntity
  8
LIVELLO 03
100
AcDbLine
 10
-112.0
 20
-606.0
 30
0.0
 11
-122.0
 21
-606.0
 31
0.0
  0
LINE
  5
50F
330
1F
100
AcDbEntity
  8
LIVELLO 03
100
AcDbLine
 10
-122.0
 20
-606.0
 30
0.0
 11
-122.0
 21
-610.0
 31
0.0
  0
LINE
  5
510
330
1F
100
AcDbEntity
  8
LIVELLO 03
100
AcDbLine
 10
-122.0
 20
-610.0
 30
0.0
 11
-132.0
 21
-610.0
 31
0.0
  0
LINE
  5
511
330
1F
100
AcDbEntity
  8
LIVELLO 03
100
AcDbLine
 10
48.0
 20
-542.0
 30
0.0
 11
38.0
 21
-542.0
 31
0.0
  0
LINE
  5
512
330
1F
100
AcDbEntity
  8
LIVELLO 03
100
AcDbLine
 10
38.0
 20
-542.0
 30
0.0
 11
38.0
 21
-546.0
 31
0.0
  0
LINE
  5
513
330
1F
100
AcDbEntity
  8
LIVELLO 03
100
AcDbLine
 10
38.0
 20
-546.0
 30
0.0
 11
28.0
 21
-546.0
 31
0.0
  0
LINE
  5
514
330
1F
100
AcDbEntity
  8
LIVELLO 03
100
AcDbLine
 10
28.0
 20
-546.0
 30
0.0
 11
28.0
 21
-542.0
 31
0.0
  0
LINE
  5
515
330
1F
100
AcDbEntity
  8
LIVELLO 03
100
AcDbLine
 10
28.0
 20
-542.0
 30
0.0
 11
18.0
 21
-542.0
 31
0.0
  0
LINE
  5
516
330
1F
100
AcDbEntity
  8
LIVELLO 03
100
AcDbLine
 10
18.0
 20
-542.0
 30
0.0
 11
18.0
 21
-546.0
 31
0.0
  0
LINE
  5
517
330
1F
100
AcDbEntity
  8
LIVELLO 03
100
AcDbLine
 10
18.0
 20
-546.0
 30
0.0
 11
8.0
 21
-546.0
 31
0.0
  0
LINE
  5
518
330
1F
100
AcDbEntity
  8
LIVELLO 03
100
AcDbLine
 10
8.0
 20
-546.0
 30
0.0
 11
8.0
 21
-542.0
 31
0.0
  0
LINE
  5
519
330
1F
100
AcDbEntity
  8
LIVELLO 03
100
AcDbLine
 10
8.0
 20
-542.0
 30
0.0
 11
-2.0
 21
-542.0
 31
0.0
  0
LINE
  5
51A
330
1F
100
AcDbEntity
  8
LIVELLO 03
100
AcDbLine
 10
-2.0
 20
-542.0
 30
0.0
 11
-2.0
 21
-546.0
 31
0.0
  0
LINE
  5
51B
330
1F
100
AcDbEntity
  8
LIVELLO 03
100
AcDbLine
 10
-2.0
 20
-546.0
 30
0.0
 11
-12.0
 21
-546.0
 31
0.0
  0
LINE
  5
51C
330
1F
100
AcDbEntity
  8
LIVELLO 03
100
AcDbLine
 10
-12.0
 20
-546.0
 30
0.0
 11
-12.0
 21
-542.0
 31
0.0
  0
LINE
  5
51D
330
1F
100
AcDbEntity
  8
LIVELLO 03
100
AcDbLine
 10
-132.0
 20
-610.0
 30
0.0
 11
-132.0
 21
-606.0
 31
0.0
  0
LINE
  5
51E
330
1F
100
AcDbEntity
  8
LIVELLO 03
100
AcDbLine
 10
-132.0
 20
-606.0
 30
0.0
 11
-142.0
 21
-606.0
 31
0.0
  0
LINE
  5
51F
330
1F
100
AcDbEntity
  8
LIVELLO 03
100
AcDbLine
 10
-142.0
 20
-606.0
 30
0.0
 11
-142.0
 21
-610.0
 31
0.0
  0
LINE
  5
520
330
1F
100
AcDbEntity
  8
LIVELLO 03
100
AcDbLine
 10
-142.0
 20
-610.0
 30
0.0
 11
-152.0
 21
-610.0
 31
0.0
  0
LINE
  5
521
330
1F
100
AcDbEntity
  8
LIVELLO 03
100
AcDbLine
 10
-152.0
 20
-610.0
 30
0.0
 11
-152.0
 21
-606.0
 31
0.0
  0
LINE
  5
522
330
1F
100
AcDbEntity
  8
LIVELLO 03
100
AcDbLine
 10
-152.0
 20
-606.0
 30
0.0
 11
-162.0
 21
-606.0
 31
0.0
  0
LINE
  5
523
330
1F
100
AcDbEntity
  8
LIVELLO 03
100
AcDbLine
 10
-162.0
 20
-606.0
 30
0.0
 11
-162.0
 21
-610.0
 31
0.0
  0
LINE
  5
524
330
1F
100
AcDbEntity
  8
LIVELLO 03
100
AcDbLine
 10
-162.0
 20
-610.0
 30
0.0
 11
-172.0
 21
-610.0
 31
0.0
  0
LINE
  5
525
330
1F
100
AcDbEntity
  8
LIVELLO 03
100
AcDbLine
 10
-172.0
 20
-610.0
 30
0.0
 11
-172.0
 21
-606.0
 31
0.0
  0
LINE
  5
526
330
1F
100
AcDbEntity
  8
LIVELLO 03
100
AcDbLine
 10
-172.0
 20
-606.0
 30
0.0
 11
-182.0
 21
-606.0
 31
0.0
  0
LINE
  5
527
330
1F
100
AcDbEntity
  8
LIVELLO 03
100
AcDbLine
 10
-182.0
 20
-606.0
 30
0.0
 11
-182.0
 21
-610.0
 31
0.0
  0
LINE
  5
528
330
1F
100
AcDbEntity
  8
LIVELLO 03
100
AcDbLine
 10
-182.0
 20
-610.0
 30
0.0
 11
-192.0
 21
-610.0
 31
0.0
  0
LINE
  5
529
330
1F
100
AcDbEntity
  8
LIVELLO 03
100
AcDbLine
 10
-192.0
 20
-610.0
 30
0.0
 11
-192.0
 21
-606.0
 31
0.0
  0
LINE
  5
52A
330
1F
100
AcDbEntity
  8
LIVELLO 03
100
AcDbLine
 10
-192.0
 20
-606.0
 30
0.0
 11
-202.0
 21
-606.0
 31
0.0
  0
LINE
  5
52B
330
1F
100
AcDbEntity
  8
LIVELLO 03
100
AcDbLine
 10
-202.0
 20
-606.0
 30
0.0
 11
-202.0
 21
-610.0
 31
0.0
  0
LINE
  5
52C
330
1F
100
AcDbEntity
  8
LIVELLO 03
100
AcDbLine
 10
-202.0
 20
-610.0
 30
0.0
 11
-212.0
 21
-610.0
 31
0.0
  0
SPLINE
  5
52D
330
1F
100
AcDbEntity
  8
LIVELLO 03
100
AcDbSpline
210
0.0
220
0.0
230
1.0
 70
     8
 71
     2
 72
    22
 73
    19
 74
     0
 42
0.0000000001
 43
0.0000000001
 40
0.0
 40
0.0
 40
0.0
 40
8.5
 40
8.5
 40
11.5
 40
11.5
 40
18.5
 40
18.5
 40
21.5
 40
21.5
 40
31.5
 40
31.5
 40
34.5
 40
34.5
 40
41.5
 40
41.5
 40
44.5
 40
44.5
 40
49.0
 40
49.0
 40
49.0
 10
-212.0
 20
-610.0
 30
0.0
 10
-212.0
 20
-614.25
 30
0.0
 10
-212.0
 20
-618.5
 30
0.0
 10
-210.0
 20
-618.5
 30
0.0
 10
-208.0
 20
-618.5
 30
0.0
 10
-208.0
 20
-622.0
 30
0.0
 10
-208.0
 20
-625.5
 30
0.0
 10
-210.0
 20
-625.5
 30
0.0
 10
-212.0
 20
-625.5
 30
0.0
 10
-212.0
 20
-630.5
 30
0.0
 10
-212.0
 20
-635.5
 30
0.0
 10
-210.0
 20
-635.5
 30
0.0
 10
-208.0
 20
-635.5
 30
0.0
 10
-208.0
 20
-639.0
 30
0.0
 10
-208.0
 20
-642.5
 30
0.0
 10
-210.0
 20
-642.5
 30
0.0
 10
-212.0
 20
-642.5
 30
0.0
 10
-212.0
 20
-644.75
 30
0.0
 10
-212.0
 20
-647.0
 30
0.0
  0
POLYLINE
  5
52E
330
1F
100
AcDbEntity
  8
LIVELLO 03
100
AcDb2dPolyline
 66
     1
 10
0.0
 20
0.0
 30
0.0
  0
VERTEX
  5
52F
330
52E
100
AcDbEntity
  8
LIVELLO 03
100
AcDbVertex
100
AcDb2dVertex
 10
120.0
 20
-555.0
 30
0.0
  0
VERTEX
  5
530
330
52E
100
AcDbEntity
  8
LIVELLO 03
100
AcDbVertex
100
AcDb2dVertex
 10
124.0
 20
-555.0
 30
0.0
  0
VERTEX
  5
531
330
52E
100
AcDbEntity
  8
LIVELLO 03
100
AcDbVertex
100
AcDb2dVertex
 10
124.0
 20
-561.0
 30
0.0
  0
VERTEX
  5
532
330
52E
100
AcDbEntity
  8
LIVELLO 03
100
AcDbVertex
100
AcDb2dVertex
 10
120.0
 20
-561.0
 30
0.0
  0
VERTEX
  5
533
330
52E
100
AcDbEntity
  8
LIVELLO 03
100
AcDbVertex
100
AcDb2dVertex
 10
120.0
 20
-571.0
 30
0.0
  0
VERTEX
  5
534
330
52E
100
AcDbEntity
  8
LIVELLO 03
100
AcDbVertex
100
AcDb2dVertex
 10
124.0
 20
-571.0
 30
0.0
  0
VERTEX
  5
535
330
52E
100
AcDbEntity
  8
LIVELLO 03
100
AcDbVertex
100
AcDb2dVertex
 10
124.0
 20
-576.0
 30
0.0
  0
SEQEND
  5
536
330
52E
100
AcDbEntity
  8
LIVELLO 03
  0
LINE
  5
537
330
1F
100
AcDbEntity
  8
LIVELLO 03
100
AcDbLine
 10
124.0
 20
-576.0
 30
0.0
 11
120.0
 21
-576.0
 31
0.0
  0
LINE
  5
538
330
1F
100
AcDbEntity
  8
LIVELLO 03
100
AcDbLine
 10
120.0
 20
-576.0
 30
0.0
 11
120.0
 21
-582.0
 31
0.0
  0
LINE
  5
539
330
1F
100
AcDbEntity
  8
LIVELLO 03
100
AcDbLine
 10
120.0
 20
-582.0
 30
0.0
 11
124.0
 21
-582.0
 31
0.0
  0
LINE
  5
53A
330
1F
100
AcDbEntity
  8
LIVELLO 03
100
AcDbLine
 10
124.0
 20
-582.0
 30
0.0
 11
124.0
 21
-589.0
 31
0.0
  0
LINE
  5
53B
330
1F
100
AcDbEntity
  8
LIVELLO 03
100
AcDbLine
 10
124.0
 20
-589.0
 30
0.0
 11
120.0
 21
-589.0
 31
0.0
  0
LINE
  5
53C
330
1F
100
AcDbEntity
  8
LIVELLO 03
100
AcDbLine
 10
120.0
 20
-589.0
 30
0.0
 11
120.0
 21
-593.0
 31
0.0
  0
LINE
  5
53D
330
1F
100
AcDbEntity
  8
LIVELLO 03
100
AcDbLine
 10
120.0
 20
-593.0
 30
0.0
 11
118.0
 21
-593.0
 31
0.0
  0
LINE
  5
53E
330
1F
100
AcDbEntity
  8
LIVELLO 03
100
AcDbLine
 10
118.0
 20
-593.0
 30
0.0
 11
108.0
 21
-593.0
 31
0.0
  0
LINE
  5
53F
330
1F
100
AcDbEntity
  8
LIVELLO 03
100
AcDbLine
 10
108.0
 20
-593.0
 30
0.0
 11
108.0
 21
-589.0
 31
0.0
  0
CIRCLE
  5
540
330
1F
100
AcDbEntity
  8
LIVELLO 03
100
AcDbCircle
 10
-176.0
 20
-531.0
 30
0.0
 40
2.0
  0
CIRCLE
  5
541
330
1F
100
AcDbEntity
  8
LIVELLO 03
100
AcDbCircle
 10
-152.0
 20
-531.0
 30
0.0
 40
2.0
  0
CIRCLE
  5
542
330
1F
100
AcDbEntity
  8
LIVELLO 03
100
AcDbCircle
 10
-128.0
 20
-531.0
 30
0.0
 40
2.0
  0
CIRCLE
  5
543
330
1F
100
AcDbEntity
  8
LIVELLO 03
100
AcDbCircle
 10
-104.0
 20
-531.0
 30
0.0
 40
2.0
  0
CIRCLE
  5
544
330
1F
100
AcDbEntity
  8
LIVELLO 03
100
AcDbCircle
 10
-80.0
 20
-531.0
 30
0.0
 40
2.0
  0
CIRCLE
  5
545
330
1F
100
AcDbEntity
  8
LIVELLO 03
100
AcDbCircle
 10
-56.0
 20
-531.0
 30
0.0
 40
2.0
  0
CIRCLE
  5
546
330
1F
100
AcDbEntity
  8
LIVELLO 03
100
AcDbCircle
 10
-32.0
 20
-531.0
 30
0.0
 40
2.0
  0
CIRCLE
  5
547
330
1F
100
AcDbEntity
  8
LIVELLO 03
100
AcDbCircle
 10
-8.0
 20
-531.0
 30
0.0
 40
2.0
  0
CIRCLE
  5
548
330
1F
100
AcDbEntity
  8
LIVELLO 03
100
AcDbCircle
 10
16.0
 20
-531.0
 30
0.0
 40
2.0
  0
CIRCLE
  5
549
330
1F
100
AcDbEntity
  8
LIVELLO 03
100
AcDbCircle
 10
40.0
 20
-531.0
 30
0.0
 40
2.0
  0
CIRCLE
  5
54A
330
1F
100
AcDbEntity
  8
LIVELLO 03
100
AcDbCircle
 10
64.0
 20
-531.0
 30
0.0
 40
2.0
  0
CIRCLE
  5
54B
330
1F
100
AcDbEntity
  8
LIVELLO 03
100
AcDbCircle
 10
88.0
 20
-531.0
 30
0.0
 40
2.0
  0
LINE
  5
54C
330
1F
100
AcDbEntity
  8
LIVELLO 03
100
AcDbLine
 10
-212.0
 20
-647.0
 30
0.0
 11
-202.0
 21
-647.0
 31
0.0
  0
LINE
  5
54D
330
1F
100
AcDbEntity
  8
LIVELLO 03
100
AcDbLine
 10
-202.0
 20
-647.0
 30
0.0
 11
-202.0
 21
-651.0
 31
0.0
  0
LINE
  5
54E
330
1F
100
AcDbEntity
  8
LIVELLO 03
100
AcDbLine
 10
-202.0
 20
-651.0
 30
0.0
 11
-192.0
 21
-651.0
 31
0.0
  0
LINE
  5
54F
330
1F
100
AcDbEntity
  8
LIVELLO 03
100
AcDbLine
 10
-192.0
 20
-651.0
 30
0.0
 11
-192.0
 21
-647.0
 31
0.0
  0
LINE
  5
550
330
1F
100
AcDbEntity
  8
LIVELLO 03
100
AcDbLine
 10
-192.0
 20
-647.0
 30
0.0
 11
-182.0
 21
-647.0
 31
0.0
  0
LINE
  5
551
330
1F
100
AcDbEntity
  8
LIVELLO 03
100
AcDbLine
 10
-42.0
 20
-606.0
 30
0.0
 11
-42.0
 21
-610.0
 31
0.0
  0
LINE
  5
552
330
1F
100
AcDbEntity
  8
LIVELLO 03
100
AcDbLine
 10
-42.0
 20
-610.0
 30
0.0
 11
-52.0
 21
-610.0
 31
0.0
  0
LINE
  5
553
330
1F
100
AcDbEntity
  8
LIVELLO 03
100
AcDbLine
 10
-52.0
 20
-610.0
 30
0.0
 11
-52.0
 21
-606.0
 31
0.0
  0
LINE
  5
554
330
1F
100
AcDbEntity
  8
LIVELLO 03
100
AcDbLine
 10
-182.0
 20
-647.0
 30
0.0
 11
-182.0
 21
-651.0
 31
0.0
  0
LINE
  5
555
330
1F
100
AcDbEntity
  8
LIVELLO 03
100
AcDbLine
 10
-182.0
 20
-651.0
 30
0.0
 11
-172.0
 21
-651.0
 31
0.0
  0
LINE
  5
556
330
1F
100
AcDbEntity
  8
LIVELLO 03
100
AcDbLine
 10
-172.0
 20
-651.0
 30
0.0
 11
-172.0
 21
-647.0
 31
0.0
  0
LINE
  5
557
330
1F
100
AcDbEntity
  8
LIVELLO 03
100
AcDbLine
 10
-172.0
 20
-647.0
 30
0.0
 11
-162.0
 21
-647.0
 31
0.0
  0
LINE
  5
558
330
1F
100
AcDbEntity
  8
LIVELLO 03
100
AcDbLine
 10
-162.0
 20
-647.0
 30
0.0
 11
-162.0
 21
-651.0
 31
0.0
  0
LINE
  5
559
330
1F
100
AcDbEntity
  8
LIVELLO 03
100
AcDbLine
 10
-32.0
 20
-647.0
 30
0.0
 11
-22.0
 21
-647.0
 31
0.0
  0
LINE
  5
55A
330
1F
100
AcDbEntity
  8
LIVELLO 03
100
AcDbLine
 10
-22.0
 20
-647.0
 30
0.0
 11
-22.0
 21
-651.0
 31
0.0
  0
LINE
  5
55B
330
1F
100
AcDbEntity
  8
LIVELLO 03
100
AcDbLine
 10
-22.0
 20
-651.0
 30
0.0
 11
-12.0
 21
-651.0
 31
0.0
  0
LINE
  5
55C
330
1F
100
AcDbEntity
  8
LIVELLO 03
100
AcDbLine
 10
-12.0
 20
-651.0
 30
0.0
 11
-12.0
 21
-647.0
 31
0.0
  0
LINE
  5
55D
330
1F
100
AcDbEntity
  8
LIVELLO 03
100
AcDbLine
 10
-12.0
 20
-647.0
 30
0.0
 11
-2.0
 21
-647.0
 31
0.0
  0
LINE
  5
55E
330
1F
100
AcDbEntity
  8
LIVELLO 03
100
AcDbLine
 10
-2.0
 20
-647.0
 30
0.0
 11
-2.0
 21
-651.0
 31
0.0
  0
LINE
  5
55F
330
1F
100
AcDbEntity
  8
LIVELLO 03
100
AcDbLine
 10
-142.0
 20
-484.0
 30
0.0
 11
-142.0
 21
-488.0
 31
0.0
  0
LINE
  5
560
330
1F
100
AcDbEntity
  8
LIVELLO 03
100
AcDbLine
 10
-142.0
 20
-488.0
 30
0.0
 11
-132.0
 21
-488.0
 31
0.0
  0
LINE
  5
561
330
1F
100
AcDbEntity
  8
LIVELLO 03
100
AcDbLine
 10
-132.0
 20
-488.0
 30
0.0
 11
-132.0
 21
-484.0
 31
0.0
  0
LINE
  5
562
330
1F
100
AcDbEntity
  8
LIVELLO 03
100
AcDbLine
 10
-132.0
 20
-484.0
 30
0.0
 11
-122.0
 21
-484.0
 31
0.0
  0
LINE
  5
563
330
1F
100
AcDbEntity
  8
LIVELLO 03
100
AcDbLine
 10
-122.0
 20
-484.0
 30
0.0
 11
-122.0
 21
-488.0
 31
0.0
  0
LINE
  5
564
330
1F
100
AcDbEntity
  8
LIVELLO 03
100
AcDbLine
 10
-122.0
 20
-488.0
 30
0.0
 11
-112.0
 21
-488.0
 31
0.0
  0
LINE
  5
565
330
1F
100
AcDbEntity
  8
LIVELLO 03
100
AcDbLine
 10
-112.0
 20
-488.0
 30
0.0
 11
-112.0
 21
-484.0
 31
0.0
  0
LINE
  5
566
330
1F
100
AcDbEntity
  8
LIVELLO 03
100
AcDbLine
 10
-112.0
 20
-484.0
 30
0.0
 11
-102.0
 21
-484.0
 31
0.0
  0
LINE
  5
567
330
1F
100
AcDbEntity
  8
LIVELLO 03
100
AcDbLine
 10
-102.0
 20
-484.0
 30
0.0
 11
-102.0
 21
-488.0
 31
0.0
  0
LINE
  5
568
330
1F
100
AcDbEntity
  8
LIVELLO 03
100
AcDbLine
 10
-102.0
 20
-488.0
 30
0.0
 11
-92.0
 21
-488.0
 31
0.0
  0
LINE
  5
569
330
1F
100
AcDbEntity
  8
LIVELLO 03
100
AcDbLine
 10
-92.0
 20
-488.0
 30
0.0
 11
-92.0
 21
-484.0
 31
0.0
  0
LINE
  5
56A
330
1F
100
AcDbEntity
  8
LIVELLO 03
100
AcDbLine
 10
-92.0
 20
-484.0
 30
0.0
 11
-82.0
 21
-484.0
 31
0.0
  0
LINE
  5
56B
330
1F
100
AcDbEntity
  8
LIVELLO 03
100
AcDbLine
 10
-82.0
 20
-484.0
 30
0.0
 11
-82.0
 21
-488.0
 31
0.0
  0
LINE
  5
56C
330
1F
100
AcDbEntity
  8
LIVELLO 03
100
AcDbLine
 10
-82.0
 20
-488.0
 30
0.0
 11
-72.0
 21
-488.0
 31
0.0
  0
LINE
  5
56D
330
1F
100
AcDbEntity
  8
LIVELLO 03
100
AcDbLine
 10
-72.0
 20
-488.0
 30
0.0
 11
-72.0
 21
-484.0
 31
0.0
  0
LINE
  5
56E
330
1F
100
AcDbEntity
  8
LIVELLO 03
100
AcDbLine
 10
-72.0
 20
-484.0
 30
0.0
 11
-62.0
 21
-484.0
 31
0.0
  0
LINE
  5
56F
330
1F
100
AcDbEntity
  8
LIVELLO 03
100
AcDbLine
 10
-62.0
 20
-484.0
 30
0.0
 11
-62.0
 21
-488.0
 31
0.0
  0
LINE
  5
570
330
1F
100
AcDbEntity
  8
LIVELLO 03
100
AcDbLine
 10
-62.0
 20
-488.0
 30
0.0
 11
-52.0
 21
-488.0
 31
0.0
  0
LINE
  5
571
330
1F
100
AcDbEntity
  8
LIVELLO 03
100
AcDbLine
 10
-52.0
 20
-488.0
 30
0.0
 11
-52.0
 21
-484.0
 31
0.0
  0
LINE
  5
572
330
1F
100
AcDbEntity
  8
LIVELLO 03
100
AcDbLine
 10
-52.0
 20
-484.0
 30
0.0
 11
-42.0
 21
-484.0
 31
0.0
  0
LINE
  5
573
330
1F
100
AcDbEntity
  8
LIVELLO 03
100
AcDbLine
 10
-42.0
 20
-484.0
 30
0.0
 11
-42.0
 21
-488.0
 31
0.0
  0
LINE
  5
574
330
1F
100
AcDbEntity
  8
LIVELLO 03
100
AcDbLine
 10
-42.0
 20
-488.0
 30
0.0
 11
-32.0
 21
-488.0
 31
0.0
  0
LINE
  5
575
330
1F
100
AcDbEntity
  8
LIVELLO 03
100
AcDbLine
 10
-32.0
 20
-488.0
 30
0.0
 11
-32.0
 21
-484.0
 31
0.0
  0
LINE
  5
576
330
1F
100
AcDbEntity
  8
LIVELLO 03
100
AcDbLine
 10
-32.0
 20
-484.0
 30
0.0
 11
-22.0
 21
-484.0
 31
0.0
  0
LINE
  5
577
330
1F
100
AcDbEntity
  8
LIVELLO 03
100
AcDbLine
 10
-22.0
 20
-484.0
 30
0.0
 11
-22.0
 21
-488.0
 31
0.0
  0
LINE
  5
578
330
1F
100
AcDbEntity
  8
LIVELLO 03
100
AcDbLine
 10
-22.0
 20
-488.0
 30
0.0
 11
-12.0
 21
-488.0
 31
0.0
  0
LINE
  5
579
330
1F
100
AcDbEntity
  8
LIVELLO 03
100
AcDbLine
 10
-12.0
 20
-488.0
 30
0.0
 11
-12.0
 21
-484.0
 31
0.0
  0
LINE
  5
57A
330
1F
100
AcDbEntity
  8
LIVELLO 03
100
AcDbLine
 10
-12.0
 20
-484.0
 30
0.0
 11
-2.0
 21
-484.0
 31
0.0
  0
LINE
  5
57B
330
1F
100
AcDbEntity
  8
LIVELLO 03
100
AcDbLine
 10
-2.0
 20
-484.0
 30
0.0
 11
-2.0
 21
-488.0
 31
0.0
  0
LINE
  5
57C
330
1F
100
AcDbEntity
  8
LIVELLO 03
100
AcDbLine
 10
-2.0
 20
-488.0
 30
0.0
 11
8.0
 21
-488.0
 31
0.0
  0
LINE
  5
57D
330
1F
100
AcDbEntity
  8
LIVELLO 03
100
AcDbLine
 10
8.0
 20
-488.0
 30
0.0
 11
8.0
 21
-484.0
 31
0.0
  0
LINE
  5
57E
330
1F
100
AcDbEntity
  8
LIVELLO 03
100
AcDbLine
 10
8.0
 20
-484.0
 30
0.0
 11
18.0
 21
-484.0
 31
0.0
  0
LINE
  5
57F
330
1F
100
AcDbEntity
  8
LIVELLO 03
100
AcDbLine
 10
18.0
 20
-484.0
 30
0.0
 11
18.0
 21
-488.0
 31
0.0
  0
LINE
  5
580
330
1F
100
AcDbEntity
  8
LIVELLO 03
100
AcDbLine
 10
18.0
 20
-488.0
 30
0.0
 11
28.0
 21
-488.0
 31
0.0
  0
LINE
  5
581
330
1F
100
AcDbEntity
  8
LIVELLO 03
100
AcDbLine
 10
28.0
 20
-488.0
 30
0.0
 11
28.0
 21
-484.0
 31
0.0
  0
LINE
  5
582
330
1F
100
AcDbEntity
  8
LIVELLO 03
100
AcDbLine
 10
28.0
 20
-484.0
 30
0.0
 11
38.0
 21
-484.0
 31
0.0
  0
LINE
  5
583
330
1F
100
AcDbEntity
  8
LIVELLO 03
100
AcDbLine
 10
38.0
 20
-484.0
 30
0.0
 11
38.0
 21
-488.0
 31
0.0
  0
LINE
  5
584
330
1F
100
AcDbEntity
  8
LIVELLO 03
100
AcDbLine
 10
38.0
 20
-488.0
 30
0.0
 11
48.0
 21
-488.0
 31
0.0
  0
LINE
  5
585
330
1F
100
AcDbEntity
  8
LIVELLO 03
100
AcDbLine
 10
48.0
 20
-488.0
 30
0.0
 11
48.0
 21
-484.0
 31
0.0
  0
LINE
  5
586
330
1F
100
AcDbEntity
  8
LIVELLO 03
100
AcDbLine
 10
48.0
 20
-484.0
 30
0.0
 11
58.0
 21
-484.0
 31
0.0
  0
LINE
  5
587
330
1F
100
AcDbEntity
  8
LIVELLO 03
100
AcDbLine
 10
58.0
 20
-484.0
 30
0.0
 11
58.0
 21
-488.0
 31
0.0
  0
LINE
  5
588
330
1F
100
AcDbEntity
  8
LIVELLO 03
100
AcDbLine
 10
58.0
 20
-488.0
 30
0.0
 11
68.0
 21
-488.0
 31
0.0
  0
LINE
  5
589
330
1F
100
AcDbEntity
  8
LIVELLO 03
100
AcDbLine
 10
68.0
 20
-488.0
 30
0.0
 11
68.0
 21
-484.0
 31
0.0
  0
LINE
  5
58A
330
1F
100
AcDbEntity
  8
LIVELLO 03
100
AcDbLine
 10
68.0
 20
-484.0
 30
0.0
 11
78.0
 21
-484.0
 31
0.0
  0
LINE
  5
58B
330
1F
100
AcDbEntity
  8
LIVELLO 03
100
AcDbLine
 10
78.0
 20
-484.0
 30
0.0
 11
78.0
 21
-488.0
 31
0.0
  0
LINE
  5
58C
330
1F
100
AcDbEntity
  8
LIVELLO 03
100
AcDbLine
 10
78.0
 20
-488.0
 30
0.0
 11
88.0
 21
-488.0
 31
0.0
  0
LINE
  5
58D
330
1F
100
AcDbEntity
  8
LIVELLO 03
100
AcDbLine
 10
88.0
 20
-488.0
 30
0.0
 11
88.0
 21
-484.0
 31
0.0
  0
LINE
  5
58E
330
1F
100
AcDbEntity
  8
LIVELLO 03
100
AcDbLine
 10
88.0
 20
-484.0
 30
0.0
 11
98.0
 21
-484.0
 31
0.0
  0
LINE
  5
58F
330
1F
100
AcDbEntity
  8
LIVELLO 03
100
AcDbLine
 10
98.0
 20
-484.0
 30
0.0
 11
98.0
 21
-488.0
 31
0.0
  0
LINE
  5
590
330
1F
100
AcDbEntity
  8
LIVELLO 03
100
AcDbLine
 10
98.0
 20
-488.0
 30
0.0
 11
108.0
 21
-488.0
 31
0.0
  0
LINE
  5
591
330
1F
100
AcDbEntity
  8
LIVELLO 03
100
AcDbLine
 10
108.0
 20
-542.0
 30
0.0
 11
98.0
 21
-542.0
 31
0.0
  0
LINE
  5
592
330
1F
100
AcDbEntity
  8
LIVELLO 03
100
AcDbLine
 10
98.0
 20
-542.0
 30
0.0
 11
98.0
 21
-546.0
 31
0.0
  0
LINE
  5
593
330
1F
100
AcDbEntity
  8
LIVELLO 03
100
AcDbLine
 10
98.0
 20
-546.0
 30
0.0
 11
88.0
 21
-546.0
 31
0.0
  0
LINE
  5
594
330
1F
100
AcDbEntity
  8
LIVELLO 03
100
AcDbLine
 10
88.0
 20
-546.0
 30
0.0
 11
88.0
 21
-542.0
 31
0.0
  0
LINE
  5
595
330
1F
100
AcDbEntity
  8
LIVELLO 03
100
AcDbLine
 10
88.0
 20
-542.0
 30
0.0
 11
78.0
 21
-542.0
 31
0.0
  0
LINE
  5
596
330
1F
100
AcDbEntity
  8
LIVELLO 03
100
AcDbLine
 10
78.0
 20
-542.0
 30
0.0
 11
78.0
 21
-546.0
 31
0.0
  0
LINE
  5
597
330
1F
100
AcDbEntity
  8
LIVELLO 03
100
AcDbLine
 10
78.0
 20
-546.0
 30
0.0
 11
68.0
 21
-546.0
 31
0.0
  0
LINE
  5
598
330
1F
100
AcDbEntity
  8
LIVELLO 03
100
AcDbLine
 10
68.0
 20
-546.0
 30
0.0
 11
68.0
 21
-542.0
 31
0.0
  0
LINE
  5
599
330
1F
100
AcDbEntity
  8
LIVELLO 03
100
AcDbLine
 10
68.0
 20
-542.0
 30
0.0
 11
58.0
 21
-542.0
 31
0.0
  0
LINE
  5
59A
330
1F
100
AcDbEntity
  8
LIVELLO 03
100
AcDbLine
 10
58.0
 20
-542.0
 30
0.0
 11
58.0
 21
-546.0
 31
0.0
  0
LINE
  5
59B
330
1F
100
AcDbEntity
  8
LIVELLO 03
100
AcDbLine
 10
58.0
 20
-546.0
 30
0.0
 11
48.0
 21
-546.0
 31
0.0
  0
LINE
  5
59C
330
1F
100
AcDbEntity
  8
LIVELLO 03
100
AcDbLine
 10
48.0
 20
-546.0
 30
0.0
 11
48.0
 21
-542.0
 31
0.0
  0
LINE
  5
59D
330
1F
100
AcDbEntity
  8
LIVELLO 03
100
AcDbLine
 10
58.0
 20
-647.0
 30
0.0
 11
58.0
 21
-651.0
 31
0.0
  0
LINE
  5
59E
330
1F
100
AcDbEntity
  8
LIVELLO 03
100
AcDbLine
 10
58.0
 20
-651.0
 30
0.0
 11
68.0
 21
-651.0
 31
0.0
  0
LINE
  5
59F
330
1F
100
AcDbEntity
  8
LIVELLO 03
100
AcDbLine
 10
68.0
 20
-651.0
 30
0.0
 11
68.0
 21
-647.0
 31
0.0
  0
LINE
  5
5A0
330
1F
100
AcDbEntity
  8
LIVELLO 03
100
AcDbLine
 10
68.0
 20
-647.0
 30
0.0
 11
78.0
 21
-647.0
 31
0.0
  0
LINE
  5
5A1
330
1F
100
AcDbEntity
  8
LIVELLO 03
100
AcDbLine
 10
78.0
 20
-647.0
 30
0.0
 11
78.0
 21
-651.0
 31
0.0
  0
LINE
  5
5A2
330
1F
100
AcDbEntity
  8
LIVELLO 03
100
AcDbLine
 10
78.0
 20
-651.0
 30
0.0
 11
88.0
 21
-651.0
 31
0.0
  0
LINE
  5
5A3
330
1F
100
AcDbEntity
  8
LIVELLO 03
100
AcDbLine
 10
88.0
 20
-651.0
 30
0.0
 11
88.0
 21
-647.0
 31
0.0
  0
LINE
  5
5A4
330
1F
100
AcDbEntity
  8
LIVELLO 03
100
AcDbLine
 10
88.0
 20
-647.0
 30
0.0
 11
98.0
 21
-647.0
 31
0.0
  0
LINE
  5
5A5
330
1F
100
AcDbEntity
  8
LIVELLO 03
100
AcDbLine
 10
98.0
 20
-647.0
 30
0.0
 11
98.0
 21
-651.0
 31
0.0
  0
LINE
  5
5A6
330
1F
100
AcDbEntity
  8
LIVELLO 03
100
AcDbLine
 10
98.0
 20
-651.0
 30
0.0
 11
108.0
 21
-651.0
 31
0.0
  0
LINE
  5
5A7
330
1F
100
AcDbEntity
  8
LIVELLO 03
100
AcDbLine
 10
108.0
 20
-651.0
 30
0.0
 11
108.0
 21
-647.0
 31
0.0
  0
LINE
  5
5A8
330
1F
100
AcDbEntity
  8
LIVELLO 03
100
AcDbLine
 10
108.0
 20
-647.0
 30
0.0
 11
118.0
 21
-647.0
 31
0.0
  0
POLYLINE
  5
5A9
330
1F
100
AcDbEntity
  8
LIVELLO 03
100
AcDb2dPolyline
 66
     1
 10
0.0
 20
0.0
 30
0.0
  0
VERTEX
  5
5AA
330
5A9
100
AcDbEntity
  8
LIVELLO 03
100
AcDbVertex
100
AcDb2dVertex
 10
118.0
 20
-647.0
 30
0.0
  0
VERTEX
  5
5AB
330
5A9
100
AcDbEntity
  8
LIVELLO 03
100
AcDbVertex
100
AcDb2dVertex
 10
120.0
 20
-647.0
 30
0.0
  0
VERTEX
  5
5AC
330
5A9
100
AcDbEntity
  8
LIVELLO 03
100
AcDbVertex
100
AcDb2dVertex
 10
120.0
 20
-651.0
 30
0.0
  0
VERTEX
  5
5AD
330
5A9
100
AcDbEntity
  8
LIVELLO 03
100
AcDbVertex
100
AcDb2dVertex
 10
124.0
 20
-651.0
 30
0.0
  0
SEQEND
  5
5AE
330
5A9
100
AcDbEntity
  8
LIVELLO 03
  0
POLYLINE
  5
5AF
330
1F
100
AcDbEntity
  8
LIVELLO 03
100
AcDb2dPolyline
 66
     1
 10
0.0
 20
0.0
 30
0.0
  0
VERTEX
  5
5B0
330
5AF
100
AcDbEntity
  8
LIVELLO 03
100
AcDbVertex
100
AcDb2dVertex
 10
124.0
 20
-651.0
 30
0.0
  0
VERTEX
  5
5B1
330
5AF
100
AcDbEntity
  8
LIVELLO 03
100
AcDbVertex
100
AcDb2dVertex
 10
124.0
 20
-644.0
 30
0.0
  0
VERTEX
  5
5B2
330
5AF
100
AcDbEntity
  8
LIVELLO 03
100
AcDbVertex
100
AcDb2dVertex
 10
120.0
 20
-644.0
 30
0.0
  0
VERTEX
  5
5B3
330
5AF
100
AcDbEntity
  8
LIVELLO 03
100
AcDbVertex
100
AcDb2dVertex
 10
120.0
 20
-642.0
 30
0.0
  0
VERTEX
  5
5B4
330
5AF
100
AcDbEntity
  8
LIVELLO 03
100
AcDbVertex
100
AcDb2dVertex
 10
120.0
 20
-636.0
 30
0.0
  0
VERTEX
  5
5B5
330
5AF
100
AcDbEntity
  8
LIVELLO 03
100
AcDbVertex
100
AcDb2dVertex
 10
124.0
 20
-636.0
 30
0.0
  0
VERTEX
  5
5B6
330
5AF
100
AcDbEntity
  8
LIVELLO 03
100
AcDbVertex
100
AcDb2dVertex
 10
124.0
 20
-626.0
 30
0.0
  0
VERTEX
  5
5B7
330
5AF
100
AcDbEntity
  8
LIVELLO 03
100
AcDbVertex
100
AcDb2dVertex
 10
120.0
 20
-626.0
 30
0.0
  0
VERTEX
  5
5B8
330
5AF
100
AcDbEntity
  8
LIVELLO 03
100
AcDbVertex
100
AcDb2dVertex
 10
120.0
 20
-616.0
 30
0.0
  0
VERTEX
  5
5B9
330
5AF
100
AcDbEntity
  8
LIVELLO 03
100
AcDbVertex
100
AcDb2dVertex
 10
124.0
 20
-616.0
 30
0.0
  0
VERTEX
  5
5BA
330
5AF
100
AcDbEntity
  8
LIVELLO 03
100
AcDbVertex
100
AcDb2dVertex
 10
124.0
 20
-606.0
 30
0.0
  0
SEQEND
  5
5BB
330
5AF
100
AcDbEntity
  8
LIVELLO 03
  0
POLYLINE
  5
5BC
330
1F
100
AcDbEntity
  8
LIVELLO 03
100
AcDb2dPolyline
 66
     1
 10
0.0
 20
0.0
 30
0.0
  0
VERTEX
  5
5BD
330
5BC
100
AcDbEntity
  8
LIVELLO 03
100
AcDbVertex
100
AcDb2dVertex
 10
124.0
 20
-606.0
 30
0.0
  0
VERTEX
  5
5BE
330
5BC
100
AcDbEntity
  8
LIVELLO 03
100
AcDbVertex
100
AcDb2dVertex
 10
120.0
 20
-606.0
 30
0.0
  0
VERTEX
  5
5BF
330
5BC
100
AcDbEntity
  8
LIVELLO 03
100
AcDbVertex
100
AcDb2dVertex
 10
120.0
 20
-610.0
 30
0.0
  0
VERTEX
  5
5C0
330
5BC
100
AcDbEntity
  8
LIVELLO 03
100
AcDbVertex
100
AcDb2dVertex
 10
118.0
 20
-610.0
 30
0.0
  0
SEQEND
  5
5C1
330
5BC
100
AcDbEntity
  8
LIVELLO 03
  0
LINE
  5
5C2
330
1F
100
AcDbEntity
  8
LIVELLO 03
100
AcDbLine
 10
118.0
 20
-610.0
 30
0.0
 11
108.0
 21
-610.0
 31
0.0
  0
LINE
  5
5C3
330
1F
100
AcDbEntity
  8
LIVELLO 03
100
AcDbLine
 10
108.0
 20
-610.0
 30
0.0
 11
108.0
 21
-606.0
 31
0.0
  0
LINE
  5
5C4
330
1F
100
AcDbEntity
  8
LIVELLO 03
100
AcDbLine
 10
108.0
 20
-606.0
 30
0.0
 11
98.0
 21
-606.0
 31
0.0
  0
LINE
  5
5C5
330
1F
100
AcDbEntity
  8
LIVELLO 03
100
AcDbLine
 10
98.0
 20
-606.0
 30
0.0
 11
98.0
 21
-610.0
 31
0.0
  0
LINE
  5
5C6
330
1F
100
AcDbEntity
  8
LIVELLO 03
100
AcDbLine
 10
98.0
 20
-610.0
 30
0.0
 11
88.0
 21
-610.0
 31
0.0
  0
LINE
  5
5C7
330
1F
100
AcDbEntity
  8
LIVELLO 03
100
AcDbLine
 10
88.0
 20
-610.0
 30
0.0
 11
88.0
 21
-606.0
 31
0.0
  0
LINE
  5
5C8
330
1F
100
AcDbEntity
  8
LIVELLO 03
100
AcDbLine
 10
88.0
 20
-606.0
 30
0.0
 11
78.0
 21
-606.0
 31
0.0
  0
LINE
  5
5C9
330
1F
100
AcDbEntity
  8
LIVELLO 03
100
AcDbLine
 10
78.0
 20
-606.0
 30
0.0
 11
78.0
 21
-610.0
 31
0.0
  0
LINE
  5
5CA
330
1F
100
AcDbEntity
  8
LIVELLO 03
100
AcDbLine
 10
78.0
 20
-610.0
 30
0.0
 11
68.0
 21
-610.0
 31
0.0
  0
LINE
  5
5CB
330
1F
100
AcDbEntity
  8
LIVELLO 03
100
AcDbLine
 10
68.0
 20
-610.0
 30
0.0
 11
68.0
 21
-606.0
 31
0.0
  0
LINE
  5
5CC
330
1F
100
AcDbEntity
  8
LIVELLO 03
100
AcDbLine
 10
68.0
 20
-606.0
 30
0.0
 11
58.0
 21
-606.0
 31
0.0
  0
LINE
  5
5CD
330
1F
100
AcDbEntity
  8
LIVELLO 03
100
AcDbLine
 10
58.0
 20
-606.0
 30
0.0
 11
58.0
 21
-610.0
 31
0.0
  0
LINE
  5
5CE
330
1F
100
AcDbEntity
  8
LIVELLO 03
100
AcDbLine
 10
58.0
 20
-610.0
 30
0.0
 11
48.0
 21
-610.0
 31
0.0
  0
LINE
  5
5CF
330
1F
100
AcDbEntity
  8
LIVELLO 03
100
AcDbLine
 10
48.0
 20
-610.0
 30
0.0
 11
48.0
 21
-606.0
 31
0.0
  0
LINE
  5
5D0
330
1F
100
AcDbEntity
  8
LIVELLO 03
100
AcDbLine
 10
48.0
 20
-606.0
 30
0.0
 11
38.0
 21
-606.0
 31
0.0
  0
LINE
  5
5D1
330
1F
100
AcDbEntity
  8
LIVELLO 03
100
AcDbLine
 10
38.0
 20
-606.0
 30
0.0
 11
38.0
 21
-610.0
 31
0.0
  0
LINE
  5
5D2
330
1F
100
AcDbEntity
  8
LIVELLO 03
100
AcDbLine
 10
38.0
 20
-610.0
 30
0.0
 11
28.0
 21
-610.0
 31
0.0
  0
LINE
  5
5D3
330
1F
100
AcDbEntity
  8
LIVELLO 03
100
AcDbLine
 10
28.0
 20
-610.0
 30
0.0
 11
28.0
 21
-606.0
 31
0.0
  0
LINE
  5
5D4
330
1F
100
AcDbEntity
  8
LIVELLO 03
100
AcDbLine
 10
28.0
 20
-606.0
 30
0.0
 11
18.0
 21
-606.0
 31
0.0
  0
LINE
  5
5D5
330
1F
100
AcDbEntity
  8
LIVELLO 03
100
AcDbLine
 10
18.0
 20
-606.0
 30
0.0
 11
18.0
 21
-610.0
 31
0.0
  0
LINE
  5
5D6
330
1F
100
AcDbEntity
  8
LIVELLO 03
100
AcDbLine
 10
18.0
 20
-610.0
 30
0.0
 11
8.0
 21
-610.0
 31
0.0
  0
LINE
  5
5D7
330
1F
100
AcDbEntity
  8
LIVELLO 03
100
AcDbLine
 10
-12.0
 20
-610.0
 30
0.0
 11
-12.0
 21
-606.0
 31
0.0
  0
LINE
  5
5D8
330
1F
100
AcDbEntity
  8
LIVELLO 03
100
AcDbLine
 10
-152.0
 20
-651.0
 30
0.0
 11
-152.0
 21
-647.0
 31
0.0
  0
LINE
  5
5D9
330
1F
100
AcDbEntity
  8
LIVELLO 03
100
AcDbLine
 10
-142.0
 20
-647.0
 30
0.0
 11
-142.0
 21
-651.0
 31
0.0
  0
LINE
  5
5DA
330
1F
100
AcDbEntity
  8
LIVELLO 03
100
AcDbLine
 10
-132.0
 20
-651.0
 30
0.0
 11
-132.0
 21
-647.0
 31
0.0
  0
LINE
  5
5DB
330
1F
100
AcDbEntity
  8
LIVELLO 03
100
AcDbLine
 10
-132.0
 20
-647.0
 30
0.0
 11
-122.0
 21
-647.0
 31
0.0
  0
LINE
  5
5DC
330
1F
100
AcDbEntity
  8
LIVELLO 03
100
AcDbLine
 10
-122.0
 20
-647.0
 30
0.0
 11
-122.0
 21
-651.0
 31
0.0
  0
LINE
  5
5DD
330
1F
100
AcDbEntity
  8
LIVELLO 03
100
AcDbLine
 10
-122.0
 20
-651.0
 30
0.0
 11
-112.0
 21
-651.0
 31
0.0
  0
LINE
  5
5DE
330
1F
100
AcDbEntity
  8
LIVELLO 03
100
AcDbLine
 10
-162.0
 20
-651.0
 30
0.0
 11
-152.0
 21
-651.0
 31
0.0
  0
LINE
  5
5DF
330
1F
100
AcDbEntity
  8
LIVELLO 03
100
AcDbLine
 10
-152.0
 20
-647.0
 30
0.0
 11
-142.0
 21
-647.0
 31
0.0
  0
LINE
  5
5E0
330
1F
100
AcDbEntity
  8
LIVELLO 03
100
AcDbLine
 10
-142.0
 20
-651.0
 30
0.0
 11
-132.0
 21
-651.0
 31
0.0
  0
LINE
  5
5E1
330
1F
100
AcDbEntity
  8
LIVELLO 03
100
AcDbLine
 10
-52.0
 20
-647.0
 30
0.0
 11
-42.0
 21
-647.0
 31
0.0
  0
LINE
  5
5E2
330
1F
100
AcDbEntity
  8
LIVELLO 03
100
AcDbLine
 10
-42.0
 20
-651.0
 30
0.0
 11
-32.0
 21
-651.0
 31
0.0
  0
LINE
  5
5E3
330
1F
100
AcDbEntity
  8
LIVELLO 03
100
AcDbLine
 10
-32.0
 20
-651.0
 30
0.0
 11
-32.0
 21
-647.0
 31
0.0
  0
LINE
  5
5E4
330
1F
100
AcDbEntity
  8
LIVELLO 03
100
AcDbLine
 10
-42.0
 20
-647.0
 30
0.0
 11
-42.0
 21
-651.0
 31
0.0
  0
LINE
  5
5E5
330
1F
100
AcDbEntity
  8
LIVELLO 03
100
AcDbLine
 10
-12.0
 20
-606.0
 30
0.0
 11
-22.0
 21
-606.0
 31
0.0
  0
LINE
  5
5E6
330
1F
100
AcDbEntity
  8
LIVELLO 03
100
AcDbLine
 10
-22.0
 20
-610.0
 30
0.0
 11
-32.0
 21
-610.0
 31
0.0
  0
LINE
  5
5E7
330
1F
100
AcDbEntity
  8
LIVELLO 03
100
AcDbLine
 10
-32.0
 20
-606.0
 30
0.0
 11
-42.0
 21
-606.0
 31
0.0
  0
LINE
  5
5E8
330
1F
100
AcDbEntity
  8
LIVELLO 03
100
AcDbLine
 10
-22.0
 20
-606.0
 30
0.0
 11
-22.0
 21
-610.0
 31
0.0
  0
LINE
  5
5E9
330
1F
100
AcDbEntity
  8
LIVELLO 03
100
AcDbLine
 10
-32.0
 20
-610.0
 30
0.0
 11
-32.0
 21
-606.0
 31
0.0
  0
LINE
  5
5EA
330
1F
100
AcDbEntity
  8
LIVELLO 03
100
AcDbLine
 10
-2.0
 20
-610.0
 30
0.0
 11
-12.0
 21
-610.0
 31
0.0
  0
LINE
  5
5EB
330
1F
100
AcDbEntity
  8
LIVELLO 03
100
AcDbLine
 10
8.0
 20
-610.0
 30
0.0
 11
8.0
 21
-606.0
 31
0.0
  0
LINE
  5
5EC
330
1F
100
AcDbEntity
  8
LIVELLO 03
100
AcDbLine
 10
8.0
 20
-606.0
 30
0.0
 11
-2.0
 21
-606.0
 31
0.0
  0
LINE
  5
5ED
330
1F
100
AcDbEntity
  8
LIVELLO 03
100
AcDbLine
 10
-2.0
 20
-606.0
 30
0.0
 11
-2.0
 21
-610.0
 31
0.0
  0
LINE
  5
5EE
330
1F
100
AcDbEntity
  8
LIVELLO 03
100
AcDbLine
 10
28.0
 20
-651.0
 30
0.0
 11
28.0
 21
-647.0
 31
0.0
  0
LINE
  5
5EF
330
1F
100
AcDbEntity
  8
LIVELLO 03
100
AcDbLine
 10
28.0
 20
-647.0
 30
0.0
 11
38.0
 21
-647.0
 31
0.0
  0
LINE
  5
5F0
330
1F
100
AcDbEntity
  8
LIVELLO 03
100
AcDbLine
 10
38.0
 20
-647.0
 30
0.0
 11
38.0
 21
-651.0
 31
0.0
  0
LINE
  5
5F1
330
1F
100
AcDbEntity
  8
LIVELLO 03
100
AcDbLine
 10
38.0
 20
-651.0
 30
0.0
 11
48.0
 21
-651.0
 31
0.0
  0
LINE
  5
5F2
330
1F
100
AcDbEntity
  8
LIVELLO 03
100
AcDbLine
 10
48.0
 20
-651.0
 30
0.0
 11
48.0
 21
-647.0
 31
0.0
  0
LINE
  5
5F3
330
1F
100
AcDbEntity
  8
LIVELLO 03
100
AcDbLine
 10
48.0
 20
-647.0
 30
0.0
 11
58.0
 21
-647.0
 31
0.0
  0
LINE
  5
5F4
330
1F
100
AcDbEntity
  8
LIVELLO 03
100
AcDbLine
 10
-72.0
 20
-610.0
 30
0.0
 11
-72.0
 21
-606.0
 31
0.0
  0
LINE
  5
5F5
330
1F
100
AcDbEntity
  8
LIVELLO 03
100
AcDbLine
 10
-72.0
 20
-606.0
 30
0.0
 11
-82.0
 21
-606.0
 31
0.0
  0
LINE
  5
5F6
330
1F
100
AcDbEntity
  8
LIVELLO 03
100
AcDbLine
 10
-82.0
 20
-606.0
 30
0.0
 11
-82.0
 21
-610.0
 31
0.0
  0
LINE
  5
5F7
330
1F
100
AcDbEntity
  8
LIVELLO 03
100
AcDbLine
 10
-2.0
 20
-651.0
 30
0.0
 11
8.0
 21
-651.0
 31
0.0
  0
LINE
  5
5F8
330
1F
100
AcDbEntity
  8
LIVELLO 03
100
AcDbLine
 10
8.0
 20
-651.0
 30
0.0
 11
8.0
 21
-647.0
 31
0.0
  0
LINE
  5
5F9
330
1F
100
AcDbEntity
  8
LIVELLO 03
100
AcDbLine
 10
8.0
 20
-647.0
 30
0.0
 11
18.0
 21
-647.0
 31
0.0
  0
LINE
  5
5FA
330
1F
100
AcDbEntity
  8
LIVELLO 03
100
AcDbLine
 10
18.0
 20
-647.0
 30
0.0
 11
18.0
 21
-651.0
 31
0.0
  0
LINE
  5
5FB
330
1F
100
AcDbEntity
  8
LIVELLO 03
100
AcDbLine
 10
18.0
 20
-651.0
 30
0.0
 11
28.0
 21
-651.0
 31
0.0
  0
LINE
  5
5FC
330
1F
100
AcDbEntity
  8
LIVELLO 03
100
AcDbLine
 10
-62.0
 20
-651.0
 30
0.0
 11
-52.0
 21
-651.0
 31
0.0
  0
LINE
  5
5FD
330
1F
100
AcDbEntity
  8
LIVELLO 03
100
AcDbLine
 10
-52.0
 20
-651.0
 30
0.0
 11
-52.0
 21
-647.0
 31
0.0
  0
POLYLINE
  5
5FE
330
1F
100
AcDbEntity
  8
LIVELLO 03
100
AcDb2dPolyline
 66
     1
 10
0.0
 20
0.0
 30
0.0
  0
VERTEX
  5
5FF
330
5FE
100
AcDbEntity
  8
LIVELLO 03
100
AcDbVertex
100
AcDb2dVertex
 10
-176.0
 20
-269.5
 30
0.0
  0
VERTEX
  5
600
330
5FE
100
AcDbEntity
  8
LIVELLO 03
100
AcDbVertex
100
AcDb2dVertex
 10
-111.0
 20
-269.5
 30
0.0
  0
VERTEX
  5
601
330
5FE
100
AcDbEntity
  8
LIVELLO 03
100
AcDbVertex
100
AcDb2dVertex
 10
-111.0
 20
-239.5
 30
0.0
  0
VERTEX
  5
602
330
5FE
100
AcDbEntity
  8
LIVELLO 03
100
AcDbVertex
100
AcDb2dVertex
 10
-176.0
 20
-239.5
 30
0.0
  0
VERTEX
  5
603
330
5FE
100
AcDbEntity
  8
LIVELLO 03
100
AcDbVertex
100
AcDb2dVertex
 10
-176.0
 20
-269.5
 30
0.0
  0
SEQEND
  5
604
330
5FE
100
AcDbEntity
  8
LIVELLO 03
  0
CIRCLE
  5
605
330
1F
100
AcDbEntity
  8
LIVELLO 03
100
AcDbCircle
 10
-86.0
 20
-248.0
 30
0.0
 40
5.0
  0
CIRCLE
  5
606
330
1F
100
AcDbEntity
  8
LIVELLO 03
100
AcDbCircle
 10
-86.0
 20
-262.0
 30
0.0
 40
5.0
  0
LINE
  5
607
330
1F
100
AcDbEntity
  8
LIVELLO 03
100
AcDbLine
 10
120.0
 20
-280.0
 30
0.0
 11
120.0
 21
-286.0
 31
0.0
  0
LINE
  5
608
330
1F
100
AcDbEntity
  8
LIVELLO 03
100
AcDbLine
 10
124.0
 20
-280.0
 30
0.0
 11
120.0
 21
-280.0
 31
0.0
  0
LINE
  5
609
330
1F
100
AcDbEntity
  8
LIVELLO 03
100
AcDbLine
 10
124.0
 20
-265.0
 30
0.0
 11
124.0
 21
-280.0
 31
0.0
  0
LINE
  5
60A
330
1F
100
AcDbEntity
  8
LIVELLO 03
100
AcDbLine
 10
120.0
 20
-265.0
 30
0.0
 11
124.0
 21
-265.0
 31
0.0
  0
LINE
  5
60B
330
1F
100
AcDbEntity
  8
LIVELLO 03
100
AcDbLine
 10
120.0
 20
-250.0
 30
0.0
 11
120.0
 21
-265.0
 31
0.0
  0
LINE
  5
60C
330
1F
100
AcDbEntity
  8
LIVELLO 03
100
AcDbLine
 10
124.0
 20
-250.0
 30
0.0
 11
120.0
 21
-250.0
 31
0.0
  0
LINE
  5
60D
330
1F
100
AcDbEntity
  8
LIVELLO 03
100
AcDbLine
 10
124.0
 20
-235.0
 30
0.0
 11
124.0
 21
-250.0
 31
0.0
  0
LINE
  5
60E
330
1F
100
AcDbEntity
  8
LIVELLO 03
100
AcDbLine
 10
120.0
 20
-235.0
 30
0.0
 11
124.0
 21
-235.0
 31
0.0
  0
LINE
  5
60F
330
1F
100
AcDbEntity
  8
LIVELLO 03
100
AcDbLine
 10
120.0
 20
-224.0
 30
0.0
 11
120.0
 21
-235.0
 31
0.0
  0
LINE
  5
610
330
1F
100
AcDbEntity
  8
LIVELLO 03
100
AcDbLine
 10
110.0
 20
-224.0
 30
0.0
 11
120.0
 21
-224.0
 31
0.0
  0
LINE
  5
611
330
1F
100
AcDbEntity
  8
LIVELLO 03
100
AcDbLine
 10
110.0
 20
-220.0
 30
0.0
 11
110.0
 21
-224.0
 31
0.0
  0
LINE
  5
612
330
1F
100
AcDbEntity
  8
LIVELLO 03
100
AcDbLine
 10
95.0
 20
-220.0
 30
0.0
 11
110.0
 21
-220.0
 31
0.0
  0
LINE
  5
613
330
1F
100
AcDbEntity
  8
LIVELLO 03
100
AcDbLine
 10
95.0
 20
-224.0
 30
0.0
 11
95.0
 21
-220.0
 31
0.0
  0
LINE
  5
614
330
1F
100
AcDbEntity
  8
LIVELLO 03
100
AcDbLine
 10
80.0
 20
-224.0
 30
0.0
 11
95.0
 21
-224.0
 31
0.0
  0
LINE
  5
615
330
1F
100
AcDbEntity
  8
LIVELLO 03
100
AcDbLine
 10
80.0
 20
-220.0
 30
0.0
 11
80.0
 21
-224.0
 31
0.0
  0
LINE
  5
616
330
1F
100
AcDbEntity
  8
LIVELLO 03
100
AcDbLine
 10
65.0
 20
-220.0
 30
0.0
 11
80.0
 21
-220.0
 31
0.0
  0
LINE
  5
617
330
1F
100
AcDbEntity
  8
LIVELLO 03
100
AcDbLine
 10
65.0
 20
-224.0
 30
0.0
 11
65.0
 21
-220.0
 31
0.0
  0
LINE
  5
618
330
1F
100
AcDbEntity
  8
LIVELLO 03
100
AcDbLine
 10
50.0
 20
-224.0
 30
0.0
 11
65.0
 21
-224.0
 31
0.0
  0
LINE
  5
619
330
1F
100
AcDbEntity
  8
LIVELLO 03
100
AcDbLine
 10
50.0
 20
-220.0
 30
0.0
 11
50.0
 21
-224.0
 31
0.0
  0
LINE
  5
61A
330
1F
100
AcDbEntity
  8
LIVELLO 03
100
AcDbLine
 10
35.0
 20
-220.0
 30
0.0
 11
50.0
 21
-220.0
 31
0.0
  0
LINE
  5
61B
330
1F
100
AcDbEntity
  8
LIVELLO 03
100
AcDbLine
 10
35.0
 20
-224.0
 30
0.0
 11
35.0
 21
-220.0
 31
0.0
  0
LINE
  5
61C
330
1F
100
AcDbEntity
  8
LIVELLO 03
100
AcDbLine
 10
20.0
 20
-224.0
 30
0.0
 11
35.0
 21
-224.0
 31
0.0
  0
LINE
  5
61D
330
1F
100
AcDbEntity
  8
LIVELLO 03
100
AcDbLine
 10
20.0
 20
-220.0
 30
0.0
 11
20.0
 21
-224.0
 31
0.0
  0
LINE
  5
61E
330
1F
100
AcDbEntity
  8
LIVELLO 03
100
AcDbLine
 10
5.0
 20
-220.0
 30
0.0
 11
20.0
 21
-220.0
 31
0.0
  0
LINE
  5
61F
330
1F
100
AcDbEntity
  8
LIVELLO 03
100
AcDbLine
 10
5.0
 20
-224.0
 30
0.0
 11
5.0
 21
-220.0
 31
0.0
  0
LINE
  5
620
330
1F
100
AcDbEntity
  8
LIVELLO 03
100
AcDbLine
 10
-10.0
 20
-224.0
 30
0.0
 11
5.0
 21
-224.0
 31
0.0
  0
LINE
  5
621
330
1F
100
AcDbEntity
  8
LIVELLO 03
100
AcDbLine
 10
-10.0
 20
-220.0
 30
0.0
 11
-10.0
 21
-224.0
 31
0.0
  0
LINE
  5
622
330
1F
100
AcDbEntity
  8
LIVELLO 03
100
AcDbLine
 10
-25.0
 20
-220.0
 30
0.0
 11
-10.0
 21
-220.0
 31
0.0
  0
LINE
  5
623
330
1F
100
AcDbEntity
  8
LIVELLO 03
100
AcDbLine
 10
-25.0
 20
-224.0
 30
0.0
 11
-25.0
 21
-220.0
 31
0.0
  0
LINE
  5
624
330
1F
100
AcDbEntity
  8
LIVELLO 03
100
AcDbLine
 10
-40.0
 20
-224.0
 30
0.0
 11
-25.0
 21
-224.0
 31
0.0
  0
LINE
  5
625
330
1F
100
AcDbEntity
  8
LIVELLO 03
100
AcDbLine
 10
-40.0
 20
-220.0
 30
0.0
 11
-40.0
 21
-224.0
 31
0.0
  0
LINE
  5
626
330
1F
100
AcDbEntity
  8
LIVELLO 03
100
AcDbLine
 10
-55.0
 20
-220.0
 30
0.0
 11
-40.0
 21
-220.0
 31
0.0
  0
LINE
  5
627
330
1F
100
AcDbEntity
  8
LIVELLO 03
100
AcDbLine
 10
-55.0
 20
-224.0
 30
0.0
 11
-55.0
 21
-220.0
 31
0.0
  0
LINE
  5
628
330
1F
100
AcDbEntity
  8
LIVELLO 03
100
AcDbLine
 10
-70.0
 20
-224.0
 30
0.0
 11
-55.0
 21
-224.0
 31
0.0
  0
LINE
  5
629
330
1F
100
AcDbEntity
  8
LIVELLO 03
100
AcDbLine
 10
-70.0
 20
-220.0
 30
0.0
 11
-70.0
 21
-224.0
 31
0.0
  0
LINE
  5
62A
330
1F
100
AcDbEntity
  8
LIVELLO 03
100
AcDbLine
 10
-85.0
 20
-220.0
 30
0.0
 11
-70.0
 21
-220.0
 31
0.0
  0
LINE
  5
62B
330
1F
100
AcDbEntity
  8
LIVELLO 03
100
AcDbLine
 10
-85.0
 20
-224.0
 30
0.0
 11
-85.0
 21
-220.0
 31
0.0
  0
LINE
  5
62C
330
1F
100
AcDbEntity
  8
LIVELLO 03
100
AcDbLine
 10
-100.0
 20
-224.0
 30
0.0
 11
-85.0
 21
-224.0
 31
0.0
  0
LINE
  5
62D
330
1F
100
AcDbEntity
  8
LIVELLO 03
100
AcDbLine
 10
-100.0
 20
-220.0
 30
0.0
 11
-100.0
 21
-224.0
 31
0.0
  0
LINE
  5
62E
330
1F
100
AcDbEntity
  8
LIVELLO 03
100
AcDbLine
 10
-115.0
 20
-220.0
 30
0.0
 11
-100.0
 21
-220.0
 31
0.0
  0
LINE
  5
62F
330
1F
100
AcDbEntity
  8
LIVELLO 03
100
AcDbLine
 10
-115.0
 20
-224.0
 30
0.0
 11
-115.0
 21
-220.0
 31
0.0
  0
LINE
  5
630
330
1F
100
AcDbEntity
  8
LIVELLO 03
100
AcDbLine
 10
-130.0
 20
-224.0
 30
0.0
 11
-115.0
 21
-224.0
 31
0.0
  0
LINE
  5
631
330
1F
100
AcDbEntity
  8
LIVELLO 03
100
AcDbLine
 10
-130.0
 20
-220.0
 30
0.0
 11
-130.0
 21
-224.0
 31
0.0
  0
LINE
  5
632
330
1F
100
AcDbEntity
  8
LIVELLO 03
100
AcDbLine
 10
-145.0
 20
-220.0
 30
0.0
 11
-130.0
 21
-220.0
 31
0.0
  0
LINE
  5
633
330
1F
100
AcDbEntity
  8
LIVELLO 03
100
AcDbLine
 10
-145.0
 20
-224.0
 30
0.0
 11
-145.0
 21
-220.0
 31
0.0
  0
LINE
  5
634
330
1F
100
AcDbEntity
  8
LIVELLO 03
100
AcDbLine
 10
-160.0
 20
-224.0
 30
0.0
 11
-145.0
 21
-224.0
 31
0.0
  0
LINE
  5
635
330
1F
100
AcDbEntity
  8
LIVELLO 03
100
AcDbLine
 10
-160.0
 20
-220.0
 30
0.0
 11
-160.0
 21
-224.0
 31
0.0
  0
LINE
  5
636
330
1F
100
AcDbEntity
  8
LIVELLO 03
100
AcDbLine
 10
-175.0
 20
-220.0
 30
0.0
 11
-160.0
 21
-220.0
 31
0.0
  0
LINE
  5
637
330
1F
100
AcDbEntity
  8
LIVELLO 03
100
AcDbLine
 10
-175.0
 20
-224.0
 30
0.0
 11
-175.0
 21
-220.0
 31
0.0
  0
LINE
  5
638
330
1F
100
AcDbEntity
  8
LIVELLO 03
100
AcDbLine
 10
-190.0
 20
-224.0
 30
0.0
 11
-175.0
 21
-224.0
 31
0.0
  0
LINE
  5
639
330
1F
100
AcDbEntity
  8
LIVELLO 03
100
AcDbLine
 10
-190.0
 20
-220.0
 30
0.0
 11
-190.0
 21
-224.0
 31
0.0
  0
LINE
  5
63A
330
1F
100
AcDbEntity
  8
LIVELLO 03
100
AcDbLine
 10
-205.0
 20
-220.0
 30
0.0
 11
-190.0
 21
-220.0
 31
0.0
  0
LINE
  5
63B
330
1F
100
AcDbEntity
  8
LIVELLO 03
100
AcDbLine
 10
-205.0
 20
-224.0
 30
0.0
 11
-205.0
 21
-220.0
 31
0.0
  0
LINE
  5
63C
330
1F
100
AcDbEntity
  8
LIVELLO 03
100
AcDbLine
 10
-216.0
 20
-224.0
 30
0.0
 11
-205.0
 21
-224.0
 31
0.0
  0
LINE
  5
63D
330
1F
100
AcDbEntity
  8
LIVELLO 03
100
AcDbLine
 10
-216.0
 20
-235.0
 30
0.0
 11
-216.0
 21
-224.0
 31
0.0
  0
LINE
  5
63E
330
1F
100
AcDbEntity
  8
LIVELLO 03
100
AcDbLine
 10
-220.0
 20
-235.0
 30
0.0
 11
-216.0
 21
-235.0
 31
0.0
  0
LINE
  5
63F
330
1F
100
AcDbEntity
  8
LIVELLO 03
100
AcDbLine
 10
-220.0
 20
-250.0
 30
0.0
 11
-220.0
 21
-235.0
 31
0.0
  0
LINE
  5
640
330
1F
100
AcDbEntity
  8
LIVELLO 03
100
AcDbLine
 10
-216.0
 20
-250.0
 30
0.0
 11
-220.0
 21
-250.0
 31
0.0
  0
LINE
  5
641
330
1F
100
AcDbEntity
  8
LIVELLO 03
100
AcDbLine
 10
-216.0
 20
-265.0
 30
0.0
 11
-216.0
 21
-250.0
 31
0.0
  0
LINE
  5
642
330
1F
100
AcDbEntity
  8
LIVELLO 03
100
AcDbLine
 10
-220.0
 20
-265.0
 30
0.0
 11
-216.0
 21
-265.0
 31
0.0
  0
LINE
  5
643
330
1F
100
AcDbEntity
  8
LIVELLO 03
100
AcDbLine
 10
-220.0
 20
-280.0
 30
0.0
 11
-220.0
 21
-265.0
 31
0.0
  0
LINE
  5
644
330
1F
100
AcDbEntity
  8
LIVELLO 03
100
AcDbLine
 10
-216.0
 20
-280.0
 30
0.0
 11
-220.0
 21
-280.0
 31
0.0
  0
LINE
  5
645
330
1F
100
AcDbEntity
  8
LIVELLO 03
100
AcDbLine
 10
-216.0
 20
-286.0
 30
0.0
 11
-216.0
 21
-280.0
 31
0.0
  0
LINE
  5
646
330
1F
100
AcDbEntity
  8
LIVELLO 03
100
AcDbLine
 10
-205.0
 20
-286.0
 30
0.0
 11
-216.0
 21
-286.0
 31
0.0
  0
LINE
  5
647
330
1F
100
AcDbEntity
  8
LIVELLO 03
100
AcDbLine
 10
-205.0
 20
-290.0
 30
0.0
 11
-205.0
 21
-286.0
 31
0.0
  0
LINE
  5
648
330
1F
100
AcDbEntity
  8
LIVELLO 03
100
AcDbLine
 10
-190.0
 20
-290.0
 30
0.0
 11
-205.0
 21
-290.0
 31
0.0
  0
LINE
  5
649
330
1F
100
AcDbEntity
  8
LIVELLO 03
100
AcDbLine
 10
-190.0
 20
-286.0
 30
0.0
 11
-190.0
 21
-290.0
 31
0.0
  0
LINE
  5
64A
330
1F
100
AcDbEntity
  8
LIVELLO 03
100
AcDbLine
 10
-175.0
 20
-286.0
 30
0.0
 11
-190.0
 21
-286.0
 31
0.0
  0
LINE
  5
64B
330
1F
100
AcDbEntity
  8
LIVELLO 03
100
AcDbLine
 10
-175.0
 20
-290.0
 30
0.0
 11
-175.0
 21
-286.0
 31
0.0
  0
LINE
  5
64C
330
1F
100
AcDbEntity
  8
LIVELLO 03
100
AcDbLine
 10
-160.0
 20
-290.0
 30
0.0
 11
-175.0
 21
-290.0
 31
0.0
  0
LINE
  5
64D
330
1F
100
AcDbEntity
  8
LIVELLO 03
100
AcDbLine
 10
-160.0
 20
-286.0
 30
0.0
 11
-160.0
 21
-290.0
 31
0.0
  0
LINE
  5
64E
330
1F
100
AcDbEntity
  8
LIVELLO 03
100
AcDbLine
 10
-145.0
 20
-286.0
 30
0.0
 11
-160.0
 21
-286.0
 31
0.0
  0
LINE
  5
64F
330
1F
100
AcDbEntity
  8
LIVELLO 03
100
AcDbLine
 10
-145.0
 20
-290.0
 30
0.0
 11
-145.0
 21
-286.0
 31
0.0
  0
LINE
  5
650
330
1F
100
AcDbEntity
  8
LIVELLO 03
100
AcDbLine
 10
-130.0
 20
-290.0
 30
0.0
 11
-145.0
 21
-290.0
 31
0.0
  0
LINE
  5
651
330
1F
100
AcDbEntity
  8
LIVELLO 03
100
AcDbLine
 10
-130.0
 20
-286.0
 30
0.0
 11
-130.0
 21
-290.0
 31
0.0
  0
LINE
  5
652
330
1F
100
AcDbEntity
  8
LIVELLO 03
100
AcDbLine
 10
-115.0
 20
-286.0
 30
0.0
 11
-130.0
 21
-286.0
 31
0.0
  0
LINE
  5
653
330
1F
100
AcDbEntity
  8
LIVELLO 03
100
AcDbLine
 10
-115.0
 20
-290.0
 30
0.0
 11
-115.0
 21
-286.0
 31
0.0
  0
LINE
  5
654
330
1F
100
AcDbEntity
  8
LIVELLO 03
100
AcDbLine
 10
-100.0
 20
-290.0
 30
0.0
 11
-115.0
 21
-290.0
 31
0.0
  0
LINE
  5
655
330
1F
100
AcDbEntity
  8
LIVELLO 03
100
AcDbLine
 10
-100.0
 20
-286.0
 30
0.0
 11
-100.0
 21
-290.0
 31
0.0
  0
LINE
  5
656
330
1F
100
AcDbEntity
  8
LIVELLO 03
100
AcDbLine
 10
-85.0
 20
-286.0
 30
0.0
 11
-100.0
 21
-286.0
 31
0.0
  0
LINE
  5
657
330
1F
100
AcDbEntity
  8
LIVELLO 03
100
AcDbLine
 10
-85.0
 20
-290.0
 30
0.0
 11
-85.0
 21
-286.0
 31
0.0
  0
LINE
  5
658
330
1F
100
AcDbEntity
  8
LIVELLO 03
100
AcDbLine
 10
-70.0
 20
-290.0
 30
0.0
 11
-85.0
 21
-290.0
 31
0.0
  0
LINE
  5
659
330
1F
100
AcDbEntity
  8
LIVELLO 03
100
AcDbLine
 10
-70.0
 20
-286.0
 30
0.0
 11
-70.0
 21
-290.0
 31
0.0
  0
LINE
  5
65A
330
1F
100
AcDbEntity
  8
LIVELLO 03
100
AcDbLine
 10
-55.0
 20
-286.0
 30
0.0
 11
-70.0
 21
-286.0
 31
0.0
  0
LINE
  5
65B
330
1F
100
AcDbEntity
  8
LIVELLO 03
100
AcDbLine
 10
-55.0
 20
-290.0
 30
0.0
 11
-55.0
 21
-286.0
 31
0.0
  0
LINE
  5
65C
330
1F
100
AcDbEntity
  8
LIVELLO 03
100
AcDbLine
 10
-40.0
 20
-290.0
 30
0.0
 11
-55.0
 21
-290.0
 31
0.0
  0
LINE
  5
65D
330
1F
100
AcDbEntity
  8
LIVELLO 03
100
AcDbLine
 10
-40.0
 20
-286.0
 30
0.0
 11
-40.0
 21
-290.0
 31
0.0
  0
LINE
  5
65E
330
1F
100
AcDbEntity
  8
LIVELLO 03
100
AcDbLine
 10
-25.0
 20
-286.0
 30
0.0
 11
-40.0
 21
-286.0
 31
0.0
  0
LINE
  5
65F
330
1F
100
AcDbEntity
  8
LIVELLO 03
100
AcDbLine
 10
-25.0
 20
-290.0
 30
0.0
 11
-25.0
 21
-286.0
 31
0.0
  0
LINE
  5
660
330
1F
100
AcDbEntity
  8
LIVELLO 03
100
AcDbLine
 10
-10.0
 20
-290.0
 30
0.0
 11
-25.0
 21
-290.0
 31
0.0
  0
LINE
  5
661
330
1F
100
AcDbEntity
  8
LIVELLO 03
100
AcDbLine
 10
-10.0
 20
-286.0
 30
0.0
 11
-10.0
 21
-290.0
 31
0.0
  0
LINE
  5
662
330
1F
100
AcDbEntity
  8
LIVELLO 03
100
AcDbLine
 10
5.0
 20
-286.0
 30
0.0
 11
-10.0
 21
-286.0
 31
0.0
  0
LINE
  5
663
330
1F
100
AcDbEntity
  8
LIVELLO 03
100
AcDbLine
 10
5.0
 20
-290.0
 30
0.0
 11
5.0
 21
-286.0
 31
0.0
  0
LINE
  5
664
330
1F
100
AcDbEntity
  8
LIVELLO 03
100
AcDbLine
 10
20.0
 20
-290.0
 30
0.0
 11
5.0
 21
-290.0
 31
0.0
  0
LINE
  5
665
330
1F
100
AcDbEntity
  8
LIVELLO 03
100
AcDbLine
 10
20.0
 20
-286.0
 30
0.0
 11
20.0
 21
-290.0
 31
0.0
  0
LINE
  5
666
330
1F
100
AcDbEntity
  8
LIVELLO 03
100
AcDbLine
 10
35.0
 20
-286.0
 30
0.0
 11
20.0
 21
-286.0
 31
0.0
  0
LINE
  5
667
330
1F
100
AcDbEntity
  8
LIVELLO 03
100
AcDbLine
 10
35.0
 20
-290.0
 30
0.0
 11
35.0
 21
-286.0
 31
0.0
  0
LINE
  5
668
330
1F
100
AcDbEntity
  8
LIVELLO 03
100
AcDbLine
 10
50.0
 20
-290.0
 30
0.0
 11
35.0
 21
-290.0
 31
0.0
  0
LINE
  5
669
330
1F
100
AcDbEntity
  8
LIVELLO 03
100
AcDbLine
 10
50.0
 20
-286.0
 30
0.0
 11
50.0
 21
-290.0
 31
0.0
  0
LINE
  5
66A
330
1F
100
AcDbEntity
  8
LIVELLO 03
100
AcDbLine
 10
65.0
 20
-286.0
 30
0.0
 11
50.0
 21
-286.0
 31
0.0
  0
LINE
  5
66B
330
1F
100
AcDbEntity
  8
LIVELLO 03
100
AcDbLine
 10
65.0
 20
-290.0
 30
0.0
 11
65.0
 21
-286.0
 31
0.0
  0
LINE
  5
66C
330
1F
100
AcDbEntity
  8
LIVELLO 03
100
AcDbLine
 10
80.0
 20
-290.0
 30
0.0
 11
65.0
 21
-290.0
 31
0.0
  0
LINE
  5
66D
330
1F
100
AcDbEntity
  8
LIVELLO 03
100
AcDbLine
 10
80.0
 20
-286.0
 30
0.0
 11
80.0
 21
-290.0
 31
0.0
  0
LINE
  5
66E
330
1F
100
AcDbEntity
  8
LIVELLO 03
100
AcDbLine
 10
95.0
 20
-286.0
 30
0.0
 11
80.0
 21
-286.0
 31
0.0
  0
LINE
  5
66F
330
1F
100
AcDbEntity
  8
LIVELLO 03
100
AcDbLine
 10
95.0
 20
-290.0
 30
0.0
 11
95.0
 21
-286.0
 31
0.0
  0
LINE
  5
670
330
1F
100
AcDbEntity
  8
LIVELLO 03
100
AcDbLine
 10
110.0
 20
-290.0
 30
0.0
 11
95.0
 21
-290.0
 31
0.0
  0
LINE
  5
671
330
1F
100
AcDbEntity
  8
LIVELLO 03
100
AcDbLine
 10
110.0
 20
-286.0
 30
0.0
 11
110.0
 21
-290.0
 31
0.0
  0
LINE
  5
672
330
1F
100
AcDbEntity
  8
LIVELLO 03
100
AcDbLine
 10
120.0
 20
-286.0
 30
0.0
 11
110.0
 21
-286.0
 31
0.0
  0
POLYLINE
  5
673
330
1F
100
AcDbEntity
  8
LIVELLO 03
100
AcDb2dPolyline
 66
     1
 10
0.0
 20
0.0
 30
0.0
  0
VERTEX
  5
674
330
673
100
AcDbEntity
  8
LIVELLO 03
100
AcDbVertex
100
AcDb2dVertex
 10
104.0
 20
-400.5
 30
0.0
  0
VERTEX
  5
675
330
673
100
AcDbEntity
  8
LIVELLO 03
100
AcDbVertex
100
AcDb2dVertex
 10
104.0
 20
-416.5
 30
0.0
  0
VERTEX
  5
676
330
673
100
AcDbEntity
  8
LIVELLO 03
100
AcDbVertex
100
AcDb2dVertex
 10
104.5
 20
-416.5
 30
0.0
  0
SEQEND
  5
677
330
673
100
AcDbEntity
  8
LIVELLO 03
  0
POLYLINE
  5
678
330
1F
100
AcDbEntity
  8
LIVELLO 03
100
AcDb2dPolyline
 66
     1
 10
0.0
 20
0.0
 30
0.0
  0
VERTEX
  5
679
330
678
100
AcDbEntity
  8
LIVELLO 03
100
AcDbVertex
100
AcDb2dVertex
 10
-200.0
 20
-400.5
 30
0.0
  0
VERTEX
  5
67A
330
678
100
AcDbEntity
  8
LIVELLO 03
100
AcDbVertex
100
AcDb2dVertex
 10
104.0
 20
-400.5
 30
0.0
  0
SEQEND
  5
67B
330
678
100
AcDbEntity
  8
LIVELLO 03
  0
POLYLINE
  5
67C
330
1F
100
AcDbEntity
  8
LIVELLO 03
100
AcDb2dPolyline
 66
     1
 10
0.0
 20
0.0
 30
0.0
  0
VERTEX
  5
67D
330
67C
100
AcDbEntity
  8
LIVELLO 03
100
AcDbVertex
100
AcDb2dVertex
 10
-200.0
 20
-416.5
 30
0.0
  0
VERTEX
  5
67E
330
67C
100
AcDbEntity
  8
LIVELLO 03
100
AcDbVertex
100
AcDb2dVertex
 10
-200.0
 20
-400.5
 30
0.0
  0
SEQEND
  5
67F
330
67C
100
AcDbEntity
  8
LIVELLO 03
  0
POLYLINE
  5
680
330
1F
100
AcDbEntity
  8
LIVELLO 03
100
AcDb2dPolyline
 66
     1
 10
0.0
 20
0.0
 30
0.0
  0
VERTEX
  5
681
330
680
100
AcDbEntity
  8
LIVELLO 03
100
AcDbVertex
100
AcDb2dVertex
 10
-216.0
 20
-416.5
 30
0.0
  0
VERTEX
  5
682
330
680
100
AcDbEntity
  8
LIVELLO 03
100
AcDbVertex
100
AcDb2dVertex
 10
-200.0
 20
-416.5
 30
0.0
  0
SEQEND
  5
683
330
680
100
AcDbEntity
  8
LIVELLO 03
  0
LINE
  5
684
330
1F
100
AcDbEntity
  8
LIVELLO 03
100
AcDbLine
 10
-216.0
 20
-410.5
 30
0.0
 11
-216.0
 21
-416.5
 31
0.0
  0
LINE
  5
685
330
1F
100
AcDbEntity
  8
LIVELLO 03
100
AcDbLine
 10
-220.0
 20
-410.5
 30
0.0
 11
-216.0
 21
-410.5
 31
0.0
  0
LINE
  5
686
330
1F
100
AcDbEntity
  8
LIVELLO 03
100
AcDbLine
 10
-220.0
 20
-395.5
 30
0.0
 11
-220.0
 21
-410.5
 31
0.0
  0
LINE
  5
687
330
1F
100
AcDbEntity
  8
LIVELLO 03
100
AcDbLine
 10
-216.0
 20
-395.5
 30
0.0
 11
-220.0
 21
-395.5
 31
0.0
  0
LINE
  5
688
330
1F
100
AcDbEntity
  8
LIVELLO 03
100
AcDbLine
 10
-216.0
 20
-380.5
 30
0.0
 11
-216.0
 21
-395.5
 31
0.0
  0
LINE
  5
689
330
1F
100
AcDbEntity
  8
LIVELLO 03
100
AcDbLine
 10
-220.0
 20
-380.5
 30
0.0
 11
-216.0
 21
-380.5
 31
0.0
  0
LINE
  5
68A
330
1F
100
AcDbEntity
  8
LIVELLO 03
100
AcDbLine
 10
-220.0
 20
-365.5
 30
0.0
 11
-220.0
 21
-380.5
 31
0.0
  0
LINE
  5
68B
330
1F
100
AcDbEntity
  8
LIVELLO 03
100
AcDbLine
 10
-216.0
 20
-365.5
 30
0.0
 11
-220.0
 21
-365.5
 31
0.0
  0
LINE
  5
68C
330
1F
100
AcDbEntity
  8
LIVELLO 03
100
AcDbLine
 10
-216.0
 20
-350.5
 30
0.0
 11
-216.0
 21
-365.5
 31
0.0
  0
LINE
  5
68D
330
1F
100
AcDbEntity
  8
LIVELLO 03
100
AcDbLine
 10
-220.0
 20
-350.5
 30
0.0
 11
-216.0
 21
-350.5
 31
0.0
  0
LINE
  5
68E
330
1F
100
AcDbEntity
  8
LIVELLO 03
100
AcDbLine
 10
-220.0
 20
-335.5
 30
0.0
 11
-220.0
 21
-350.5
 31
0.0
  0
LINE
  5
68F
330
1F
100
AcDbEntity
  8
LIVELLO 03
100
AcDbLine
 10
-216.0
 20
-335.5
 30
0.0
 11
-220.0
 21
-335.5
 31
0.0
  0
LINE
  5
690
330
1F
100
AcDbEntity
  8
LIVELLO 03
100
AcDbLine
 10
-216.0
 20
-325.5
 30
0.0
 11
-216.0
 21
-335.5
 31
0.0
  0
LINE
  5
691
330
1F
100
AcDbEntity
  8
LIVELLO 03
100
AcDbLine
 10
-205.0
 20
-325.5
 30
0.0
 11
-216.0
 21
-325.5
 31
0.0
  0
LINE
  5
692
330
1F
100
AcDbEntity
  8
LIVELLO 03
100
AcDbLine
 10
-205.0
 20
-329.5
 30
0.0
 11
-205.0
 21
-325.5
 31
0.0
  0
LINE
  5
693
330
1F
100
AcDbEntity
  8
LIVELLO 03
100
AcDbLine
 10
-190.0
 20
-329.5
 30
0.0
 11
-205.0
 21
-329.5
 31
0.0
  0
LINE
  5
694
330
1F
100
AcDbEntity
  8
LIVELLO 03
100
AcDbLine
 10
-190.0
 20
-325.5
 30
0.0
 11
-190.0
 21
-329.5
 31
0.0
  0
LINE
  5
695
330
1F
100
AcDbEntity
  8
LIVELLO 03
100
AcDbLine
 10
-175.0
 20
-325.5
 30
0.0
 11
-190.0
 21
-325.5
 31
0.0
  0
LINE
  5
696
330
1F
100
AcDbEntity
  8
LIVELLO 03
100
AcDbLine
 10
-175.0
 20
-329.5
 30
0.0
 11
-175.0
 21
-325.5
 31
0.0
  0
LINE
  5
697
330
1F
100
AcDbEntity
  8
LIVELLO 03
100
AcDbLine
 10
-160.0
 20
-329.5
 30
0.0
 11
-175.0
 21
-329.5
 31
0.0
  0
LINE
  5
698
330
1F
100
AcDbEntity
  8
LIVELLO 03
100
AcDbLine
 10
-160.0
 20
-325.5
 30
0.0
 11
-160.0
 21
-329.5
 31
0.0
  0
LINE
  5
699
330
1F
100
AcDbEntity
  8
LIVELLO 03
100
AcDbLine
 10
-145.0
 20
-325.5
 30
0.0
 11
-160.0
 21
-325.5
 31
0.0
  0
LINE
  5
69A
330
1F
100
AcDbEntity
  8
LIVELLO 03
100
AcDbLine
 10
-145.0
 20
-329.5
 30
0.0
 11
-145.0
 21
-325.5
 31
0.0
  0
LINE
  5
69B
330
1F
100
AcDbEntity
  8
LIVELLO 03
100
AcDbLine
 10
-130.0
 20
-329.5
 30
0.0
 11
-145.0
 21
-329.5
 31
0.0
  0
LINE
  5
69C
330
1F
100
AcDbEntity
  8
LIVELLO 03
100
AcDbLine
 10
-130.0
 20
-325.5
 30
0.0
 11
-130.0
 21
-329.5
 31
0.0
  0
LINE
  5
69D
330
1F
100
AcDbEntity
  8
LIVELLO 03
100
AcDbLine
 10
-115.0
 20
-325.5
 30
0.0
 11
-130.0
 21
-325.5
 31
0.0
  0
LINE
  5
69E
330
1F
100
AcDbEntity
  8
LIVELLO 03
100
AcDbLine
 10
-115.0
 20
-329.5
 30
0.0
 11
-115.0
 21
-325.5
 31
0.0
  0
LINE
  5
69F
330
1F
100
AcDbEntity
  8
LIVELLO 03
100
AcDbLine
 10
-100.0
 20
-329.5
 30
0.0
 11
-115.0
 21
-329.5
 31
0.0
  0
LINE
  5
6A0
330
1F
100
AcDbEntity
  8
LIVELLO 03
100
AcDbLine
 10
-100.0
 20
-325.5
 30
0.0
 11
-100.0
 21
-329.5
 31
0.0
  0
LINE
  5
6A1
330
1F
100
AcDbEntity
  8
LIVELLO 03
100
AcDbLine
 10
-85.0
 20
-325.5
 30
0.0
 11
-100.0
 21
-325.5
 31
0.0
  0
LINE
  5
6A2
330
1F
100
AcDbEntity
  8
LIVELLO 03
100
AcDbLine
 10
-85.0
 20
-329.5
 30
0.0
 11
-85.0
 21
-325.5
 31
0.0
  0
LINE
  5
6A3
330
1F
100
AcDbEntity
  8
LIVELLO 03
100
AcDbLine
 10
-70.0
 20
-329.5
 30
0.0
 11
-85.0
 21
-329.5
 31
0.0
  0
LINE
  5
6A4
330
1F
100
AcDbEntity
  8
LIVELLO 03
100
AcDbLine
 10
-70.0
 20
-325.5
 30
0.0
 11
-70.0
 21
-329.5
 31
0.0
  0
LINE
  5
6A5
330
1F
100
AcDbEntity
  8
LIVELLO 03
100
AcDbLine
 10
-55.0
 20
-325.5
 30
0.0
 11
-70.0
 21
-325.5
 31
0.0
  0
LINE
  5
6A6
330
1F
100
AcDbEntity
  8
LIVELLO 03
100
AcDbLine
 10
-55.0
 20
-329.5
 30
0.0
 11
-55.0
 21
-325.5
 31
0.0
  0
LINE
  5
6A7
330
1F
100
AcDbEntity
  8
LIVELLO 03
100
AcDbLine
 10
-40.0
 20
-329.5
 30
0.0
 11
-55.0
 21
-329.5
 31
0.0
  0
LINE
  5
6A8
330
1F
100
AcDbEntity
  8
LIVELLO 03
100
AcDbLine
 10
-40.0
 20
-325.5
 30
0.0
 11
-40.0
 21
-329.5
 31
0.0
  0
LINE
  5
6A9
330
1F
100
AcDbEntity
  8
LIVELLO 03
100
AcDbLine
 10
-25.0
 20
-325.5
 30
0.0
 11
-40.0
 21
-325.5
 31
0.0
  0
LINE
  5
6AA
330
1F
100
AcDbEntity
  8
LIVELLO 03
100
AcDbLine
 10
-25.0
 20
-329.5
 30
0.0
 11
-25.0
 21
-325.5
 31
0.0
  0
LINE
  5
6AB
330
1F
100
AcDbEntity
  8
LIVELLO 03
100
AcDbLine
 10
-10.0
 20
-329.5
 30
0.0
 11
-25.0
 21
-329.5
 31
0.0
  0
LINE
  5
6AC
330
1F
100
AcDbEntity
  8
LIVELLO 03
100
AcDbLine
 10
-10.0
 20
-325.5
 30
0.0
 11
-10.0
 21
-329.5
 31
0.0
  0
LINE
  5
6AD
330
1F
100
AcDbEntity
  8
LIVELLO 03
100
AcDbLine
 10
5.0
 20
-325.5
 30
0.0
 11
-10.0
 21
-325.5
 31
0.0
  0
LINE
  5
6AE
330
1F
100
AcDbEntity
  8
LIVELLO 03
100
AcDbLine
 10
5.0
 20
-329.5
 30
0.0
 11
5.0
 21
-325.5
 31
0.0
  0
LINE
  5
6AF
330
1F
100
AcDbEntity
  8
LIVELLO 03
100
AcDbLine
 10
20.0
 20
-329.5
 30
0.0
 11
5.0
 21
-329.5
 31
0.0
  0
LINE
  5
6B0
330
1F
100
AcDbEntity
  8
LIVELLO 03
100
AcDbLine
 10
20.0
 20
-325.5
 30
0.0
 11
20.0
 21
-329.5
 31
0.0
  0
LINE
  5
6B1
330
1F
100
AcDbEntity
  8
LIVELLO 03
100
AcDbLine
 10
35.0
 20
-325.5
 30
0.0
 11
20.0
 21
-325.5
 31
0.0
  0
LINE
  5
6B2
330
1F
100
AcDbEntity
  8
LIVELLO 03
100
AcDbLine
 10
35.0
 20
-329.5
 30
0.0
 11
35.0
 21
-325.5
 31
0.0
  0
LINE
  5
6B3
330
1F
100
AcDbEntity
  8
LIVELLO 03
100
AcDbLine
 10
50.0
 20
-329.5
 30
0.0
 11
35.0
 21
-329.5
 31
0.0
  0
LINE
  5
6B4
330
1F
100
AcDbEntity
  8
LIVELLO 03
100
AcDbLine
 10
50.0
 20
-325.5
 30
0.0
 11
50.0
 21
-329.5
 31
0.0
  0
LINE
  5
6B5
330
1F
100
AcDbEntity
  8
LIVELLO 03
100
AcDbLine
 10
65.0
 20
-325.5
 30
0.0
 11
50.0
 21
-325.5
 31
0.0
  0
LINE
  5
6B6
330
1F
100
AcDbEntity
  8
LIVELLO 03
100
AcDbLine
 10
65.0
 20
-329.5
 30
0.0
 11
65.0
 21
-325.5
 31
0.0
  0
LINE
  5
6B7
330
1F
100
AcDbEntity
  8
LIVELLO 03
100
AcDbLine
 10
80.0
 20
-329.5
 30
0.0
 11
65.0
 21
-329.5
 31
0.0
  0
LINE
  5
6B8
330
1F
100
AcDbEntity
  8
LIVELLO 03
100
AcDbLine
 10
80.0
 20
-325.5
 30
0.0
 11
80.0
 21
-329.5
 31
0.0
  0
LINE
  5
6B9
330
1F
100
AcDbEntity
  8
LIVELLO 03
100
AcDbLine
 10
95.0
 20
-325.5
 30
0.0
 11
80.0
 21
-325.5
 31
0.0
  0
LINE
  5
6BA
330
1F
100
AcDbEntity
  8
LIVELLO 03
100
AcDbLine
 10
95.0
 20
-329.5
 30
0.0
 11
95.0
 21
-325.5
 31
0.0
  0
LINE
  5
6BB
330
1F
100
AcDbEntity
  8
LIVELLO 03
100
AcDbLine
 10
110.0
 20
-329.5
 30
0.0
 11
95.0
 21
-329.5
 31
0.0
  0
LINE
  5
6BC
330
1F
100
AcDbEntity
  8
LIVELLO 03
100
AcDbLine
 10
110.0
 20
-325.5
 30
0.0
 11
110.0
 21
-329.5
 31
0.0
  0
LINE
  5
6BD
330
1F
100
AcDbEntity
  8
LIVELLO 03
100
AcDbLine
 10
120.0
 20
-325.5
 30
0.0
 11
110.0
 21
-325.5
 31
0.0
  0
LINE
  5
6BE
330
1F
100
AcDbEntity
  8
LIVELLO 03
100
AcDbLine
 10
120.0
 20
-335.5
 30
0.0
 11
120.0
 21
-325.5
 31
0.0
  0
LINE
  5
6BF
330
1F
100
AcDbEntity
  8
LIVELLO 03
100
AcDbLine
 10
124.0
 20
-335.5
 30
0.0
 11
120.0
 21
-335.5
 31
0.0
  0
LINE
  5
6C0
330
1F
100
AcDbEntity
  8
LIVELLO 03
100
AcDbLine
 10
124.0
 20
-350.5
 30
0.0
 11
124.0
 21
-335.5
 31
0.0
  0
LINE
  5
6C1
330
1F
100
AcDbEntity
  8
LIVELLO 03
100
AcDbLine
 10
120.0
 20
-350.5
 30
0.0
 11
124.0
 21
-350.5
 31
0.0
  0
LINE
  5
6C2
330
1F
100
AcDbEntity
  8
LIVELLO 03
100
AcDbLine
 10
120.0
 20
-365.5
 30
0.0
 11
120.0
 21
-350.5
 31
0.0
  0
LINE
  5
6C3
330
1F
100
AcDbEntity
  8
LIVELLO 03
100
AcDbLine
 10
124.0
 20
-365.5
 30
0.0
 11
120.0
 21
-365.5
 31
0.0
  0
LINE
  5
6C4
330
1F
100
AcDbEntity
  8
LIVELLO 03
100
AcDbLine
 10
124.0
 20
-380.5
 30
0.0
 11
124.0
 21
-365.5
 31
0.0
  0
LINE
  5
6C5
330
1F
100
AcDbEntity
  8
LIVELLO 03
100
AcDbLine
 10
120.0
 20
-380.5
 30
0.0
 11
124.0
 21
-380.5
 31
0.0
  0
LINE
  5
6C6
330
1F
100
AcDbEntity
  8
LIVELLO 03
100
AcDbLine
 10
120.0
 20
-395.5
 30
0.0
 11
120.0
 21
-380.5
 31
0.0
  0
LINE
  5
6C7
330
1F
100
AcDbEntity
  8
LIVELLO 03
100
AcDbLine
 10
124.0
 20
-395.5
 30
0.0
 11
120.0
 21
-395.5
 31
0.0
  0
LINE
  5
6C8
330
1F
100
AcDbEntity
  8
LIVELLO 03
100
AcDbLine
 10
124.0
 20
-410.5
 30
0.0
 11
124.0
 21
-395.5
 31
0.0
  0
LINE
  5
6C9
330
1F
100
AcDbEntity
  8
LIVELLO 03
100
AcDbLine
 10
120.0
 20
-410.5
 30
0.0
 11
124.0
 21
-410.5
 31
0.0
  0
LINE
  5
6CA
330
1F
100
AcDbEntity
  8
LIVELLO 03
100
AcDbLine
 10
120.0
 20
-416.5
 30
0.0
 11
120.0
 21
-410.5
 31
0.0
  0
POLYLINE
  5
6CB
330
1F
100
AcDbEntity
  8
LIVELLO 03
100
AcDb2dPolyline
 66
     1
 10
0.0
 20
0.0
 30
0.0
  0
VERTEX
  5
6CC
330
6CB
100
AcDbEntity
  8
LIVELLO 03
100
AcDbVertex
100
AcDb2dVertex
 10
104.5
 20
-416.5
 30
0.0
  0
VERTEX
  5
6CD
330
6CB
100
AcDbEntity
  8
LIVELLO 03
100
AcDbVertex
100
AcDb2dVertex
 10
120.0
 20
-416.5
 30
0.0
  0
SEQEND
  5
6CE
330
6CB
100
AcDbEntity
  8
LIVELLO 03
  0
POLYLINE
  5
6CF
330
1F
100
AcDbEntity
  8
LIVELLO 03
100
AcDb2dPolyline
 66
     1
 10
0.0
 20
0.0
 30
0.0
  0
VERTEX
  5
6D0
330
6CF
100
AcDbEntity
  8
LIVELLO 03
100
AcDbVertex
100
AcDb2dVertex
 10
48.50000000000001
 20
-232.3118973909231
 30
0.0
  0
VERTEX
  5
6D1
330
6CF
100
AcDbEntity
  8
LIVELLO 03
100
AcDbVertex
100
AcDb2dVertex
 10
48.50000000000001
 20
-277.6881026090769
 30
0.0
  0
SEQEND
  5
6D2
330
6CF
100
AcDbEntity
  8
LIVELLO 03
  0
ARC
  5
6D3
330
1F
100
AcDbEntity
  8
LIVELLO 03
100
AcDbCircle
 10
59.0
 20
-255.0
 30
0.0
 40
25.0
100
AcDbArc
 50
107.4576031237226
 51
114.834587489702
  0
POLYLINE
  5
6D4
330
1F
100
AcDbEntity
  8
LIVELLO 03
100
AcDb2dPolyline
 66
     1
 10
0.0
 20
0.0
 30
0.0
  0
VERTEX
  5
6D5
330
6D4
100
AcDbEntity
  8
LIVELLO 03
100
AcDbVertex
100
AcDb2dVertex
 10
51.5
 20
-278.8484800354236
 30
0.0
  0
VERTEX
  5
6D6
330
6D4
100
AcDbEntity
  8
LIVELLO 03
100
AcDbVertex
100
AcDb2dVertex
 10
51.49999999999998
 20
-231.1515199645764
 30
0.0
  0
SEQEND
  5
6D7
330
6D4
100
AcDbEntity
  8
LIVELLO 03
  0
ARC
  5
6D8
330
1F
100
AcDbEntity
  8
LIVELLO 03
100
AcDbCircle
 10
59.0
 20
-255.0
 30
0.0
 40
25.0
100
AcDbArc
 50
245.1654125102989
 51
252.5423968762784
  0
POLYLINE
  5
6D9
330
1F
100
AcDbEntity
  8
LIVELLO 03
100
AcDb2dPolyline
 66
     1
 10
0.0
 20
0.0
 30
0.0
  0
VERTEX
  5
6DA
330
6D9
100
AcDbEntity
  8
LIVELLO 03
100
AcDbVertex
100
AcDb2dVertex
 10
42.49999999999999
 20
-236.2183600290071
 30
0.0
  0
VERTEX
  5
6DB
330
6D9
100
AcDbEntity
  8
LIVELLO 03
100
AcDbVertex
100
AcDb2dVertex
 10
42.50000000000001
 20
-273.781639970993
 30
0.0
  0
SEQEND
  5
6DC
330
6D9
100
AcDbEntity
  8
LIVELLO 03
  0
ARC
  5
6DD
330
1F
100
AcDbEntity
  8
LIVELLO 03
100
AcDbCircle
 10
59.0
 20
-255.0
 30
0.0
 40
25.0
100
AcDbArc
 50
122.6836388462585
 51
131.2998727917064
  0
POLYLINE
  5
6DE
330
1F
100
AcDbEntity
  8
LIVELLO 03
100
AcDb2dPolyline
 66
     1
 10
0.0
 20
0.0
 30
0.0
  0
VERTEX
  5
6DF
330
6DE
100
AcDbEntity
  8
LIVELLO 03
100
AcDbVertex
100
AcDb2dVertex
 10
45.5
 20
-276.0416254125009
 30
0.0
  0
VERTEX
  5
6E0
330
6DE
100
AcDbEntity
  8
LIVELLO 03
100
AcDbVertex
100
AcDb2dVertex
 10
45.49999999999997
 20
-233.9583745874992
 30
0.0
  0
SEQEND
  5
6E1
330
6DE
100
AcDbEntity
  8
LIVELLO 03
  0
ARC
  5
6E2
330
1F
100
AcDbEntity
  8
LIVELLO 03
100
AcDbCircle
 10
59.0
 20
-255.0
 30
0.0
 40
25.0
100
AcDbArc
 50
228.7001272082946
 51
237.3163611537425
  0
POLYLINE
  5
6E3
330
1F
100
AcDbEntity
  8
LIVELLO 03
100
AcDb2dPolyline
 66
     1
 10
0.0
 20
0.0
 30
0.0
  0
VERTEX
  5
6E4
330
6E3
100
AcDbEntity
  8
LIVELLO 03
100
AcDbVertex
100
AcDb2dVertex
 10
78.5
 20
-239.355512152838
 30
0.0
  0
VERTEX
  5
6E5
330
6E3
100
AcDbEntity
  8
LIVELLO 03
100
AcDbVertex
100
AcDb2dVertex
 10
78.50000000000001
 20
-270.644487847162
 30
0.0
  0
SEQEND
  5
6E6
330
6E3
100
AcDbEntity
  8
LIVELLO 03
  0
ARC
  5
6E7
330
1F
100
AcDbEntity
  8
LIVELLO 03
100
AcDbCircle
 10
59.0
 20
-255.0
 30
0.0
 40
25.0
100
AcDbArc
 50
321.2605754021449
 51
38.73942459785609
  0
POLYLINE
  5
6E8
330
1F
100
AcDbEntity
  8
LIVELLO 03
100
AcDb2dPolyline
 66
     1
 10
0.0
 20
0.0
 30
0.0
  0
VERTEX
  5
6E9
330
6E8
100
AcDbEntity
  8
LIVELLO 03
100
AcDbVertex
100
AcDb2dVertex
 10
60.50000000000001
 20
-230.0450405730644
 30
0.0
  0
VERTEX
  5
6EA
330
6E8
100
AcDbEntity
  8
LIVELLO 03
100
AcDbVertex
100
AcDb2dVertex
 10
60.50000000000003
 20
-279.9549594269356
 30
0.0
  0
SEQEND
  5
6EB
330
6E8
100
AcDbEntity
  8
LIVELLO 03
  0
ARC
  5
6EC
330
1F
100
AcDbEntity
  8
LIVELLO 03
100
AcDbCircle
 10
59.0
 20
-255.0
 30
0.0
 40
25.0
100
AcDbArc
 50
79.63024019452313
 51
86.56018723248526
  0
POLYLINE
  5
6ED
330
1F
100
AcDbEntity
  8
LIVELLO 03
100
AcDb2dPolyline
 66
     1
 10
0.0
 20
0.0
 30
0.0
  0
VERTEX
  5
6EE
330
6ED
100
AcDbEntity
  8
LIVELLO 03
100
AcDbVertex
100
AcDb2dVertex
 10
63.5
 20
-279.5916652547158
 30
0.0
  0
VERTEX
  5
6EF
330
6ED
100
AcDbEntity
  8
LIVELLO 03
100
AcDbVertex
100
AcDb2dVertex
 10
63.49999999999997
 20
-230.4083347452841
 30
0.0
  0
SEQEND
  5
6F0
330
6ED
100
AcDbEntity
  8
LIVELLO 03
  0
ARC
  5
6F1
330
1F
100
AcDbEntity
  8
LIVELLO 03
100
AcDbCircle
 10
59.0
 20
-255.0
 30
0.0
 40
25.0
100
AcDbArc
 50
273.4398127675157
 51
280.3697598054779
  0
POLYLINE
  5
6F2
330
1F
100
AcDbEntity
  8
LIVELLO 03
100
AcDb2dPolyline
 66
     1
 10
0.0
 20
0.0
 30
0.0
  0
VERTEX
  5
6F3
330
6F2
100
AcDbEntity
  8
LIVELLO 03
100
AcDbVertex
100
AcDb2dVertex
 10
54.50000000000002
 20
-230.4083347452841
 30
0.0
  0
VERTEX
  5
6F4
330
6F2
100
AcDbEntity
  8
LIVELLO 03
100
AcDbVertex
100
AcDb2dVertex
 10
54.49999999999999
 20
-279.5916652547158
 30
0.0
  0
SEQEND
  5
6F5
330
6F2
100
AcDbEntity
  8
LIVELLO 03
  0
ARC
  5
6F6
330
1F
100
AcDbEntity
  8
LIVELLO 03
100
AcDbCircle
 10
59.0
 20
-255.0
 30
0.0
 40
25.0
100
AcDbArc
 50
93.43981276751563
 51
100.3697598054779
  0
POLYLINE
  5
6F7
330
1F
100
AcDbEntity
  8
LIVELLO 03
100
AcDb2dPolyline
 66
     1
 10
0.0
 20
0.0
 30
0.0
  0
VERTEX
  5
6F8
330
6F7
100
AcDbEntity
  8
LIVELLO 03
100
AcDbVertex
100
AcDb2dVertex
 10
57.49999999999998
 20
-279.9549594269355
 30
0.0
  0
VERTEX
  5
6F9
330
6F7
100
AcDbEntity
  8
LIVELLO 03
100
AcDbVertex
100
AcDb2dVertex
 10
57.5
 20
-230.0450405730644
 30
0.0
  0
SEQEND
  5
6FA
330
6F7
100
AcDbEntity
  8
LIVELLO 03
  0
ARC
  5
6FB
330
1F
100
AcDbEntity
  8
LIVELLO 03
100
AcDbCircle
 10
59.0
 20
-255.0
 30
0.0
 40
25.0
100
AcDbArc
 50
259.630240194523
 51
266.5601872324852
  0
POLYLINE
  5
6FC
330
1F
100
AcDbEntity
  8
LIVELLO 03
100
AcDb2dPolyline
 66
     1
 10
0.0
 20
0.0
 30
0.0
  0
VERTEX
  5
6FD
330
6FC
100
AcDbEntity
  8
LIVELLO 03
100
AcDbVertex
100
AcDb2dVertex
 10
72.50000000000003
 20
-233.9583745874992
 30
0.0
  0
VERTEX
  5
6FE
330
6FC
100
AcDbEntity
  8
LIVELLO 03
100
AcDbVertex
100
AcDb2dVertex
 10
72.50000000000001
 20
-276.0416254125008
 30
0.0
  0
SEQEND
  5
6FF
330
6FC
100
AcDbEntity
  8
LIVELLO 03
  0
ARC
  5
700
330
1F
100
AcDbEntity
  8
LIVELLO 03
100
AcDbCircle
 10
59.0
 20
-255.0
 30
0.0
 40
25.0
100
AcDbArc
 50
48.70012720829475
 51
57.31636115374245
  0
POLYLINE
  5
701
330
1F
100
AcDbEntity
  8
LIVELLO 03
100
AcDb2dPolyline
 66
     1
 10
0.0
 20
0.0
 30
0.0
  0
VERTEX
  5
702
330
701
100
AcDbEntity
  8
LIVELLO 03
100
AcDbVertex
100
AcDb2dVertex
 10
75.5
 20
-273.781639970993
 30
0.0
  0
VERTEX
  5
703
330
701
100
AcDbEntity
  8
LIVELLO 03
100
AcDbVertex
100
AcDb2dVertex
 10
75.49999999999999
 20
-236.218360029007
 30
0.0
  0
SEQEND
  5
704
330
701
100
AcDbEntity
  8
LIVELLO 03
  0
ARC
  5
705
330
1F
100
AcDbEntity
  8
LIVELLO 03
100
AcDbCircle
 10
59.0
 20
-255.0
 30
0.0
 40
25.0
100
AcDbArc
 50
302.6836388462584
 51
311.2998727917063
  0
POLYLINE
  5
706
330
1F
100
AcDbEntity
  8
LIVELLO 03
100
AcDb2dPolyline
 66
     1
 10
0.0
 20
0.0
 30
0.0
  0
VERTEX
  5
707
330
706
100
AcDbEntity
  8
LIVELLO 03
100
AcDbVertex
100
AcDb2dVertex
 10
39.50000000000003
 20
-270.6444878471621
 30
0.0
  0
VERTEX
  5
708
330
706
100
AcDbEntity
  8
LIVELLO 03
100
AcDbVertex
100
AcDb2dVertex
 10
39.5
 20
-239.355512152838
 30
0.0
  0
SEQEND
  5
709
330
706
100
AcDbEntity
  8
LIVELLO 03
  0
ARC
  5
70A
330
1F
100
AcDbEntity
  8
LIVELLO 03
100
AcDbCircle
 10
59.0
 20
-255.0
 30
0.0
 40
25.0
100
AcDbArc
 50
141.2605754021448
 51
218.7394245978562
  0
POLYLINE
  5
70B
330
1F
100
AcDbEntity
  8
LIVELLO 03
100
AcDb2dPolyline
 66
     1
 10
0.0
 20
0.0
 30
0.0
  0
VERTEX
  5
70C
330
70B
100
AcDbEntity
  8
LIVELLO 03
100
AcDbVertex
100
AcDb2dVertex
 10
66.50000000000001
 20
-231.1515199645764
 30
0.0
  0
VERTEX
  5
70D
330
70B
100
AcDbEntity
  8
LIVELLO 03
100
AcDbVertex
100
AcDb2dVertex
 10
66.49999999999999
 20
-278.8484800354236
 30
0.0
  0
SEQEND
  5
70E
330
70B
100
AcDbEntity
  8
LIVELLO 03
  0
ARC
  5
70F
330
1F
100
AcDbEntity
  8
LIVELLO 03
100
AcDbCircle
 10
59.0
 20
-255.0
 30
0.0
 40
25.0
100
AcDbArc
 50
65.16541251029882
 51
72.54239687627836
  0
POLYLINE
  5
710
330
1F
100
AcDbEntity
  8
LIVELLO 03
100
AcDb2dPolyline
 66
     1
 10
0.0
 20
0.0
 30
0.0
  0
VERTEX
  5
711
330
710
100
AcDbEntity
  8
LIVELLO 03
100
AcDbVertex
100
AcDb2dVertex
 10
69.5
 20
-277.6881026090769
 30
0.0
  0
VERTEX
  5
712
330
710
100
AcDbEntity
  8
LIVELLO 03
100
AcDbVertex
100
AcDb2dVertex
 10
69.50000000000003
 20
-232.3118973909232
 30
0.0
  0
SEQEND
  5
713
330
710
100
AcDbEntity
  8
LIVELLO 03
  0
ARC
  5
714
330
1F
100
AcDbEntity
  8
LIVELLO 03
100
AcDbCircle
 10
59.0
 20
-255.0
 30
0.0
 40
25.0
100
AcDbArc
 50
287.4576031237225
 51
294.8345874897021
  0
ENDSEC
  0
SECTION
  2
OBJECTS
  0
DICTIONARY
  5
C
330
0
100
AcDbDictionary
281
     1
  3
ACAD_GROUP
350
D
  3
ACAD_LAYOUT
350
1A
  3
ACAD_MLEADERSTYLE
350
716
  3
ACAD_MLINESTYLE
350
17
  3
ACAD_PLOTSETTINGS
350
19
  3
ACAD_PLOTSTYLENAME
350
E
  3
ACAD_TABLESTYLE
350
715
  3
ACAD_VISUALSTYLE
350
2A
  0
DICTIONARY
  5
D
102
{ACAD_REACTORS
330
C
102
}
330
C
100
AcDbDictionary
281
     1
  0
DICTIONARY
  5
1A
102
{ACAD_REACTORS
330
C
102
}
330
C
100
AcDbDictionary
281
     1
  3
Layout1
350
1E
  3
Layout2
350
26
  3
Model
350
22
  0
DICTIONARY
  5
716
102
{ACAD_REACTORS
330
C
102
}
330
C
100
AcDbDictionary
281
     1
  0
DICTIONARY
  5
17
102
{ACAD_REACTORS
330
C
102
}
330
C
100
AcDbDictionary
281
     1
  3
Standard
350
18
  0
DICTIONARY
  5
19
102
{ACAD_REACTORS
330
C
102
}
330
C
100
AcDbDictionary
281
     1
  0
ACDBDICTIONARYWDFLT
  5
E
102
{ACAD_REACTORS
330
C
102
}
330
C
100
AcDbDictionary
281
     1
  3
Normal
350
F
100
AcDbDictionaryWithDefault
340
F
  0
DICTIONARY
  5
715
102
{ACAD_REACTORS
330
C
102
}
330
C
100
AcDbDictionary
281
     1
  0
DICTIONARY
  5
2A
102
{ACAD_REACTORS
330
C
102
}
330
C
100
AcDbDictionary
281
     1
  3
2dWireframe
350
2F
  3
3D Hidden
350
31
  3
3dWireframe
350
30
  3
Basic
350
32
  3
Brighten
350
36
  3
ColorChange
350
3A
  3
Conceptual
350
34
  3
Dim
350
35
  3
Facepattern
350
39
  3
Flat
350
2B
  3
FlatWithEdges
350
2C
  3
Gouraud
350
2D
  3
GouraudWithEdges
350
2E
  3
Linepattern
350
38
  3
Realistic
350
33
  3
Thicken
350
37
  0
LAYOUT
  5
1E
102
{ACAD_REACTORS
330
1A
102
}
330
1A
100
AcDbPlotSettings
  1

  2
none_device
  4

  6

 40
0.0
 41
0.0
 42
0.0
 43
0.0
 44
0.0
 45
0.0
 46
0.0
 47
0.0
 48
0.0
 49
0.0
140
0.0
141
0.0
142
1.0
143
1.0
 70
   688
 72
     0
 73
     0
 74
     5
  7

 75
    16
 76
     0
 77
     2
 78
   300
147
1.0
148
0.0
149
0.0
100
AcDbLayout
  1
Layout1
 70
     1
 71
     1
 10
0.0
 20
0.0
 11
12.0
 21
9.0
 12
0.0
 22
0.0
 32
0.0
 14
1.000000000000000E+20
 24
1.000000000000000E+20
 34
1.000000000000000E+20
 15
-1.000000000000000E+20
 25
-1.000000000000000E+20
 35
-1.000000000000000E+20
146
0.0
 13
0.0
 23
0.0
 33
0.0
 16
1.0
 26
0.0
 36
0.0
 17
0.0
 27
1.0
 37
0.0
 76
     0
330
1B
  0
LAYOUT
  5
26
102
{ACAD_REACTORS
330
1A
102
}
330
1A
100
AcDbPlotSettings
  1

  2
none_device
  4

  6

 40
0.0
 41
0.0
 42
0.0
 43
0.0
 44
0.0
 45
0.0
 46
0.0
 47
0.0
 48
0.0
 49
0.0
140
0.0
141
0.0
142
1.0
143
1.0
 70
   688
 72
     0
 73
     0
 74
     5
  7

 75
    16
 76
     0
 77
     2
 78
   300
147
1.0
148
0.0
149
0.0
100
AcDbLayout
  1
Layout2
 70
     1
 71
     2
 10
0.0
 20
0.0
 11
0.0
 21
0.0
 12
0.0
 22
0.0
 32
0.0
 14
0.0
 24
0.0
 34
0.0
 15
0.0
 25
0.0
 35
0.0
146
0.0
 13
0.0
 23
0.0
 33
0.0
 16
1.0
 26
0.0
 36
0.0
 17
0.0
 27
1.0
 37
0.0
 76
     0
330
23
  0
LAYOUT
  5
22
102
{ACAD_REACTORS
330
1A
102
}
330
1A
100
AcDbPlotSettings
  1

  2
none_device
  4

  6

 40
0.0
 41
0.0
 42
0.0
 43
0.0
 44
0.0
 45
0.0
 46
0.0
 47
0.0
 48
0.0
 49
0.0
140
0.0
141
0.0
142
1.0
143
1.0
 70
  1712
 72
     0
 73
     0
 74
     0
  7

 75
     0
 76
     0
 77
     2
 78
   300
147
1.0
148
0.0
149
0.0
100
AcDbLayout
  1
Model
 70
     1
 71
     0
 10
0.0
 20
0.0
 11
12.0
 21
9.0
 12
0.0
 22
0.0
 32
0.0
 14
-291.0
 24
-699.0
 34
0.0
 15
565.0
 25
34.0
 35
0.0
146
0.0
 13
0.0
 23
0.0
 33
0.0
 16
1.0
 26
0.0
 36
0.0
 17
0.0
 27
1.0
 37
0.0
 76
     0
330
1F
331
29
  0
MLINESTYLE
  5
18
102
{ACAD_REACTORS
330
17
102
}
330
17
100
AcDbMlineStyle
  2
Standard
 70
     0
  3

 62
   256
 51
90.0
 52
90.0
 71
     2
 49
0.5
 62
   256
  6
BYLAYER
 49
-0.5
 62
   256
  6
BYLAYER
  0
ACDBPLACEHOLDER
  5
F
102
{ACAD_REACTORS
330
E
102
}
330
E
  0
VISUALSTYLE
  5
2F
102
{ACAD_REACTORS
330
2A
102
}
330
2A
100
AcDbVisualStyle
  2
2dWireframe
 70
     4
 71
     0
 72
     2
 73
     0
 90
        0
 40
-0.6
 41
-30.0
 62
     5
 63
     7
421
 16777215
 74
     1
 91
        4
 64
     7
 65
   257
 75
     1
175
     1
 42
1.0
 92
        0
 66
   257
 43
1.0
 76
     1
 77
     6
 78
     2
 67
     7
 79
     5
170
     0
171
     0
290
     0
174
     0
 93
        1
 44
0.0
173
     0
291
     0
 45
0.0
1001
ACAD
1000
AcDbSavedByObjectVersion
1070
     0
  0
VISUALSTYLE
  5
31
102
{ACAD_REACTORS
330
2A
102
}
330
2A
100
AcDbVisualStyle
  2
3D Hidden
 70
     6
 71
     1
 72
     2
 73
     2
 90
        0
 40
-0.6
 41
-30.0
 62
     5
 63
     7
421
 16777215
 74
     2
 91
        2
 64
     7
 65
   257
 75
     2
175
     1
 42
40.0
 92
        0
 66
   257
 43
1.0
 76
     1
 77
     6
 78
     2
 67
     7
 79
     3
170
     0
171
     0
290
     0
174
     0
 93
        1
 44
0.0
173
     0
291
     0
 45
0.0
1001
ACAD
1000
AcDbSavedByObjectVersion
1070
     0
  0
VISUALSTYLE
  5
30
102
{ACAD_REACTORS
330
2A
102
}
330
2A
100
AcDbVisualStyle
  2
3dWireframe
 70
     5
 71
     0
 72
     2
 73
     0
 90
        0
 40
-0.6
 41
-30.0
 62
     5
 63
     7
421
 16777215
 74
     1
 91
        4
 64
     7
 65
   257
 75
     1
175
     1
 42
1.0
 92
        0
 66
   257
 43
1.0
 76
     1
 77
     6
 78
     2
 67
     7
 79
     5
170
     0
171
     0
290
     0
174
     0
 93
        1
 44
0.0
173
     0
291
     0
 45
0.0
1001
ACAD
1000
AcDbSavedByObjectVersion
1070
     0
  0
VISUALSTYLE
  5
32
102
{ACAD_REACTORS
330
2A
102
}
330
2A
100
AcDbVisualStyle
  2
Basic
 70
     7
 71
     1
 72
     0
 73
     1
 90
        0
 40
-0.6
 41
-30.0
 62
     5
 63
     7
421
 16777215
 74
     0
 91
        4
 64
     7
 65
   257
 75
     1
175
     1
 42
1.0
 92
        8
 66
     7
 43
1.0
 76
     1
 77
     6
 78
     2
 67
     7
 79
     5
170
     0
171
     0
290
     0
174
     0
 93
        1
 44
0.0
173
     0
291
     1
 45
0.0
1001
ACAD
1000
AcDbSavedByObjectVersion
1070
     0
  0
VISUALSTYLE
  5
36
102
{ACAD_REACTORS
330
2A
102
}
330
2A
100
AcDbVisualStyle
  2
Brighten
 70
    12
 71
     2
 72
     2
 73
     0
 90
        0
 40
-0.6
 41
-30.0
 62
     5
 63
     7
421
 16777215
 74
     1
 91
        4
 64
     7
 65
   257
 75
     1
175
     1
 42
1.0
 92
        8
 66
     7
 43
1.0
 76
     1
 77
     6
 78
     2
 67
     7
 79
     5
170
     0
171
     0
290
     0
174
     0
 93
        1
 44
50.0
173
     0
291
     1
 45
0.0
1001
ACAD
1000
AcDbSavedByObjectVersion
1070
     0
  0
VISUALSTYLE
  5
3A
102
{ACAD_REACTORS
330
2A
102
}
330
2A
100
AcDbVisualStyle
  2
ColorChange
 70
    16
 71
     2
 72
     2
 73
     3
 90
        0
 40
-0.6
 41
-30.0
 62
     5
 63
     8
421
  8421504
 74
     1
 91
        4
 64
     7
 65
   257
 75
     1
175
     1
 42
1.0
 92
        8
 66
     8
424
  8421504
 43
1.0
 76
     1
 77
     6
 78
     2
 67
     7
 79
     5
170
     0
171
     0
290
     0
174
     0
 93
        1
 44
0.0
173
     0
291
     1
 45
0.0
1001
ACAD
1000
AcDbSavedByObjectVersion
1070
     0
  0
VISUALSTYLE
  5
34
102
{ACAD_REACTORS
330
2A
102
}
330
2A
100
AcDbVisualStyle
  2
Conceptual
 70
     9
 71
     3
 72
     2
 73
     0
 90
        0
 40
-0.6
 41
-30.0
 62
     5
 63
     7
421
 16777215
 74
     2
 91
        2
 64
     7
 65
   257
 75
     1
175
     1
 42
40.0
 92
        8
 66
     7
 43
1.0
 76
     1
 77
     6
 78
     2
 67
     7
 79
     3
170
     0
171
     0
290
     0
174
     0
 93
        1
 44
0.0
173
     0
291
     0
 45
0.0
1001
ACAD
1000
AcDbSavedByObjectVersion
1070
     0
  0
VISUALSTYLE
  5
35
102
{ACAD_REACTORS
330
2A
102
}
330
2A
100
AcDbVisualStyle
  2
Dim
 70
    11
 71
     2
 72
     2
 73
     0
 90
        0
 40
-0.6
 41
-30.0
 62
     5
 63
     7
421
 16777215
 74
     1
 91
        4
 64
     7
 65
   257
 75
     1
175
     1
 42
1.0
 92
        8
 66
     7
 43
1.0
 76
     1
 77
     6
 78
     2
 67
     7
 79
     5
170
     0
171
     0
290
     0
174
     0
 93
        1
 44
-50.0
173
     0
291
     1
 45
0.0
1001
ACAD
1000
AcDbSavedByObjectVersion
1070
     0
  0
VISUALSTYLE
  5
39
102
{ACAD_REACTORS
330
2A
102
}
330
2A
100
AcDbVisualStyle
  2
Facepattern
 70
    15
 71
     2
 72
     2
 73
     0
 90
        0
 40
-0.6
 41
-30.0
 62
     5
 63
     7
421
 16777215
 74
     1
 91
        4
 64
     7
 65
   257
 75
     1
175
     1
 42
1.0
 92
        8
 66
     7
 43
1.0
 76
     1
 77
     6
 78
     2
 67
     7
 79
     5
170
     0
171
     0
290
     0
174
     0
 93
        1
 44
0.0
173
     0
291
     1
 45
0.0
1001
ACAD
1000
AcDbSavedByObjectVersion
1070
     0
  0
VISUALSTYLE
  5
2B
102
{ACAD_REACTORS
330
2A
102
}
330
2A
100
AcDbVisualStyle
  2
Flat
 70
     0
 71
     2
 72
     1
 73
     1
 90
        2
 40
-0.6
 41
30.0
 62
     5
 63
     7
421
 16777215
 74
     0
 91
        4
 64
     7
 65
   257
 75
     1
175
     1
 42
1.0
 92
        8
 66
     7
 43
1.0
 76
     1
 77
     6
 78
     2
 67
     7
 79
     5
170
     0
171
     0
290
     0
174
     0
 93
       13
 44
0.0
173
     0
291
     1
 45
0.0
1001
ACAD
1000
AcDbSavedByObjectVersion
1070
     0
  0
VISUALSTYLE
  5
2C
102
{ACAD_REACTORS
330
2A
102
}
330
2A
100
AcDbVisualStyle
  2
FlatWithEdges
 70
     1
 71
     2
 72
     1
 73
     1
 90
        2
 40
-0.6
 41
30.0
 62
     5
 63
     7
421
 16777215
 74
     1
 91
        4
 64
     7
 65
   257
 75
     1
175
     1
 42
1.0
 92
        0
 66
   257
 43
1.0
 76
     1
 77
     6
 78
     2
 67
     7
 79
     5
170
     0
171
     0
290
     0
174
     0
 93
       13
 44
0.0
173
     0
291
     1
 45
0.0
1001
ACAD
1000
AcDbSavedByObjectVersion
1070
     0
  0
VISUALSTYLE
  5
2D
102
{ACAD_REACTORS
330
2A
102
}
330
2A
100
AcDbVisualStyle
  2
Gouraud
 70
     2
 71
     2
 72
     2
 73
     1
 90
        2
 40
-0.6
 41
30.0
 62
     5
 63
     7
421
 16777215
 74
     0
 91
        4
 64
     7
 65
   257
 75
     1
175
     1
 42
1.0
 92
        0
 66
     7
 43
1.0
 76
     1
 77
     6
 78
     2
 67
     7
 79
     5
170
     0
171
     0
290
     0
174
     0
 93
       13
 44
0.0
173
     0
291
     1
 45
0.0
1001
ACAD
1000
AcDbSavedByObjectVersion
1070
     0
  0
VISUALSTYLE
  5
2E
102
{ACAD_REACTORS
330
2A
102
}
330
2A
100
AcDbVisualStyle
  2
GouraudWithEdges
 70
     3
 71
     2
 72
     2
 73
     1
 90
        2
 40
-0.6
 41
30.0
 62
     5
 63
     7
421
 16777215
 74
     1
 91
        4
 64
     7
 65
   257
 75
     1
175
     1
 42
1.0
 92
        0
 66
   257
 43
1.0
 76
     1
 77
     6
 78
     2
 67
     7
 79
     5
170
     0
171
     0
290
     0
174
     0
 93
       13
 44
0.0
173
     0
291
     1
 45
0.0
1001
ACAD
1000
AcDbSavedByObjectVersion
1070
     0
  0
VISUALSTYLE
  5
38
102
{ACAD_REACTORS
330
2A
102
}
330
2A
100
AcDbVisualStyle
  2
Linepattern
 70
    14
 71
     2
 72
     2
 73
     0
 90
        0
 40
-0.6
 41
-30.0
 62
     5
 63
     7
421
 16777215
 74
     1
 91
        4
 64
     7
 65
   257
 75
     7
175
     7
 42
1.0
 92
        8
 66
     7
 43
1.0
 76
     1
 77
     6
 78
     2
 67
     7
 79
     5
170
     0
171
     0
290
     0
174
     0
 93
        1
 44
0.0
173
     0
291
     1
 45
0.0
1001
ACAD
1000
AcDbSavedByObjectVersion
1070
     0
  0
VISUALSTYLE
  5
33
102
{ACAD_REACTORS
330
2A
102
}
330
2A
100
AcDbVisualStyle
  2
Realistic
 70
     8
 71
     2
 72
     2
 73
     0
 90
        0
 40
-0.6
 41
-30.0
 62
     5
 63
     7
421
 16777215
 74
     1
 91
        0
 64
     7
 65
   257
 75
     1
175
     1
 42
1.0
 92
        8
 66
     8
424
  7895160
 43
1.0
 76
     1
 77
     6
 78
     2
 67
     7
 79
     5
170
     0
171
     0
290
     0
174
     0
 93
       13
 44
0.0
173
     0
291
     0
 45
0.0
1001
ACAD
1000
AcDbSavedByObjectVersion
1070
     0
  0
VISUALSTYLE
  5
37
102
{ACAD_REACTORS
330
2A
102
}
330
2A
100
AcDbVisualStyle
  2
Thicken
 70
    13
 71
     2
 72
     2
 73
     0
 90
        0
 40
-0.6
 41
-30.0
 62
     5
 63
     7
421
 16777215
 74
     1
 91
        4
 64
     7
 65
   257
 75
     1
175
     1
 42
1.0
 92
       12
 66
     7
 43
1.0
 76
     1
 77
     6
 78
     2
 67
     7
 79
     5
170
     0
171
     0
290
     0
174
     0
 93
        1
 44
0.0
173
     0
291
     1
 45
0.0
1001
ACAD
1000
AcDbSavedByObjectVersion
1070
     0
  0
ENDSEC
  0
EOF
