  0
SECTION
  2
HEADER
  9
$ACADVER
  1
AC1027
  9
$ACADMAINTVER
 70
     8
  9
$DWGCODEPAGE
  3
ANSI_1252
  9
$REQUIREDVERSIONS
160
                 0
  9
$INSBASE
 10
0.0
 20
0.0
 30
0.0
  9
$EXTMIN
 10
43.30829139836641
 20
1.957953250491772
 30
0.0
  9
$EXTMAX
 10
86.42196819836698
 20
129.173953250492
 30
0.0
  9
$LIMMIN
 10
0.0
 20
0.0
  9
$LIMMAX
 10
420.0
 20
297.0
  9
$ORTHOMODE
 70
     1
  9
$REGENMODE
 70
     1
  9
$FILLMODE
 70
     1
  9
$QTEXTMODE
 70
     0
  9
$MIRRTEXT
 70
     0
  9
$LTSCALE
 40
1.0
  9
$ATTMODE
 70
     1
  9
$TEXTSIZE
 40
2.5
  9
$TRACEWID
 40
1.0
  9
$TEXTSTYLE
  7
Standard
  9
$CLAYER
  8
0
  9
$CELTYPE
  6
ByLayer
  9
$CECOLOR
 62
   256
  9
$CELTSCALE
 40
1.0
  9
$DISPSILH
 70
     0
  9
$DIMSCALE
 40
1.0
  9
$DIMASZ
 40
2.5
  9
$DIMEXO
 40
0.625
  9
$DIMDLI
 40
3.75
  9
$DIMRND
 40
0.0
  9
$DIMDLE
 40
0.0
  9
$DIMEXE
 40
1.25
  9
$DIMTP
 40
0.0
  9
$DIMTM
 40
0.0
  9
$DIMTXT
 40
2.5
  9
$DIMCEN
 40
2.5
  9
$DIMTSZ
 40
0.0
  9
$DIMTOL
 70
     0
  9
$DIMLIM
 70
     0
  9
$DIMTIH
 70
     0
  9
$DIMTOH
 70
     0
  9
$DIMSE1
 70
     0
  9
$DIMSE2
 70
     0
  9
$DIMTAD
 70
     1
  9
$DIMZIN
 70
     8
  9
$DIMBLK
  1

  9
$DIMASO
 70
     1
  9
$DIMSHO
 70
     1
  9
$DIMPOST
  1

  9
$DIMAPOST
  1

  9
$DIMALT
 70
     0
  9
$DIMALTD
 70
     3
  9
$DIMALTF
 40
0.03937007874016
  9
$DIMLFAC
 40
1.0
  9
$DIMTOFL
 70
     1
  9
$DIMTVP
 40
0.0
  9
$DIMTIX
 70
     0
  9
$DIMSOXD
 70
     0
  9
$DIMSAH
 70
     0
  9
$DIMBLK1
  1

  9
$DIMBLK2
  1

  9
$DIMSTYLE
  2
ISO-25
  9
$DIMCLRD
 70
     0
  9
$DIMCLRE
 70
     0
  9
$DIMCLRT
 70
     0
  9
$DIMTFAC
 40
1.0
  9
$DIMGAP
 40
0.625
  9
$DIMJUST
 70
     0
  9
$DIMSD1
 70
     0
  9
$DIMSD2
 70
     0
  9
$DIMTOLJ
 70
     0
  9
$DIMTZIN
 70
     8
  9
$DIMALTZ
 70
     0
  9
$DIMALTTZ
 70
     0
  9
$DIMUPT
 70
     0
  9
$DIMDEC
 70
     2
  9
$DIMTDEC
 70
     2
  9
$DIMALTU
 70
     2
  9
$DIMALTTD
 70
     3
  9
$DIMTXSTY
  7
Standard
  9
$DIMAUNIT
 70
     0
  9
$DIMADEC
 70
     0
  9
$DIMALTRND
 40
0.0
  9
$DIMAZIN
 70
     0
  9
$DIMDSEP
 70
    44
  9
$DIMATFIT
 70
     3
  9
$DIMFRAC
 70
     0
  9
$DIMLDRBLK
  1

  9
$DIMLUNIT
 70
     2
  9
$DIMLWD
 70
    -2
  9
$DIMLWE
 70
    -2
  9
$DIMTMOVE
 70
     0
  9
$DIMFXL
 40
1.0
  9
$DIMFXLON
 70
     0
  9
$DIMJOGANG
 40
0.7853981633974483
  9
$DIMTFILL
 70
     0
  9
$DIMTFILLCLR
 70
     0
  9
$DIMARCSYM
 70
     0
  9
$DIMLTYPE
  6

  9
$DIMLTEX1
  6

  9
$DIMLTEX2
  6

  9
$DIMTXTDIRECTION
 70
     0
  9
$LUNITS
 70
     2
  9
$LUPREC
 70
     3
  9
$SKETCHINC
 40
1.0
  9
$FILLETRAD
 40
10.0
  9
$AUNITS
 70
     0
  9
$AUPREC
 70
     0
  9
$MENU
  1
.
  9
$ELEVATION
 40
0.0
  9
$PELEVATION
 40
0.0
  9
$THICKNESS
 40
0.0
  9
$LIMCHECK
 70
     0
  9
$CHAMFERA
 40
10.0
  9
$CHAMFERB
 40
10.0
  9
$CHAMFERC
 40
20.0
  9
$CHAMFERD
 40
0.0
  9
$SKPOLY
 70
     0
  9
$TDCREATE
 40
2455022.86652618
  9
$TDUCREATE
 40
2455022.637359514
  9
$TDUPDATE
 40
2457569.631967593
  9
$TDUUPDATE
 40
2457569.402800926
  9
$TDINDWG
 40
0.0
  9
$TDUSRTIMER
 40
2457569.402083333
  9
$USRTIMER
 70
     1
  9
$ANGBASE
 50
0.0
  9
$ANGDIR
 70
     0
  9
$PDMODE
 70
     0
  9
$PDSIZE
 40
0.0
  9
$PLINEWID
 40
0.0
  9
$SPLFRAME
 70
     0
  9
$SPLINETYPE
 70
     6
  9
$SPLINESEGS
 70
     8
  9
$HANDSEED
  5
1D2
  9
$SURFTAB1
 70
     6
  9
$SURFTAB2
 70
     6
  9
$SURFTYPE
 70
     6
  9
$SURFU
 70
     6
  9
$SURFV
 70
     6
  9
$UCSBASE
  2

  9
$UCSNAME
  2

  9
$UCSORG
 10
0.0
 20
0.0
 30
0.0
  9
$UCSXDIR
 10
1.0
 20
0.0
 30
0.0
  9
$UCSYDIR
 10
0.0
 20
1.0
 30
0.0
  9
$UCSORTHOREF
  2

  9
$UCSORTHOVIEW
 70
     0
  9
$UCSORGTOP
 10
0.0
 20
0.0
 30
0.0
  9
$UCSORGBOTTOM
 10
0.0
 20
0.0
 30
0.0
  9
$UCSORGLEFT
 10
0.0
 20
0.0
 30
0.0
  9
$UCSORGRIGHT
 10
0.0
 20
0.0
 30
0.0
  9
$UCSORGFRONT
 10
0.0
 20
0.0
 30
0.0
  9
$UCSORGBACK
 10
0.0
 20
0.0
 30
0.0
  9
$PUCSBASE
  2

  9
$PUCSNAME
  2

  9
$PUCSORG
 10
0.0
 20
0.0
 30
0.0
  9
$PUCSXDIR
 10
1.0
 20
0.0
 30
0.0
  9
$PUCSYDIR
 10
0.0
 20
1.0
 30
0.0
  9
$PUCSORTHOREF
  2

  9
$PUCSORTHOVIEW
 70
     0
  9
$PUCSORGTOP
 10
0.0
 20
0.0
 30
0.0
  9
$PUCSORGBOTTOM
 10
0.0
 20
0.0
 30
0.0
  9
$PUCSORGLEFT
 10
0.0
 20
0.0
 30
0.0
  9
$PUCSORGRIGHT
 10
0.0
 20
0.0
 30
0.0
  9
$PUCSORGFRONT
 10
0.0
 20
0.0
 30
0.0
  9
$PUCSORGBACK
 10
0.0
 20
0.0
 30
0.0
  9
$USERI1
 70
     0
  9
$USERI2
 70
     0
  9
$USERI3
 70
     0
  9
$USERI4
 70
     0
  9
$USERI5
 70
     0
  9
$USERR1
 40
0.0
  9
$USERR2
 40
0.0
  9
$USERR3
 40
0.0
  9
$USERR4
 40
0.0
  9
$USERR5
 40
0.0
  9
$WORLDVIEW
 70
     1
  9
$SHADEDGE
 70
     3
  9
$SHADEDIF
 70
    70
  9
$TILEMODE
 70
     1
  9
$MAXACTVP
 70
    64
  9
$PINSBASE
 10
0.0
 20
0.0
 30
0.0
  9
$PLIMCHECK
 70
     0
  9
$PEXTMIN
 10
1.000000000000000E+20
 20
1.000000000000000E+20
 30
1.000000000000000E+20
  9
$PEXTMAX
 10
-1.000000000000000E+20
 20
-1.000000000000000E+20
 30
-1.000000000000000E+20
  9
$PLIMMIN
 10
0.0
 20
0.0
  9
$PLIMMAX
 10
0.0
 20
0.0
  9
$UNITMODE
 70
     0
  9
$VISRETAIN
 70
     1
  9
$PLINEGEN
 70
     0
  9
$PSLTSCALE
 70
     1
  9
$TREEDEPTH
 70
  3020
  9
$CMLSTYLE
  2
Standard
  9
$CMLJUST
 70
     0
  9
$CMLSCALE
 40
20.0
  9
$PROXYGRAPHICS
 70
     1
  9
$MEASUREMENT
 70
     1
  9
$CELWEIGHT
370
    -1
  9
$ENDCAPS
280
     0
  9
$JOINSTYLE
280
     0
  9
$LWDISPLAY
290
     0
  9
$INSUNITS
 70
     4
  9
$HYPERLINKBASE
  1

  9
$STYLESHEET
  1

  9
$XEDIT
290
     1
  9
$CEPSNTYPE
380
     0
  9
$PSTYLEMODE
290
     1
  9
$FINGERPRINTGUID
  2
{EC6BB858-51AA-46EC-B484-6C9CC7AB3E2E}
  9
$VERSIONGUID
  2
{FAEB1C32-E019-11D5-929B-00C0DF256EC4}
  9
$EXTNAMES
290
     1
  9
$PSVPSCALE
 40
0.0
  9
$OLESTARTUP
290
     0
  9
$SORTENTS
280
   127
  9
$INDEXCTL
280
     0
  9
$HIDETEXT
280
     1
  9
$XCLIPFRAME
280
     0
  9
$HALOGAP
280
     0
  9
$OBSCOLOR
 70
   257
  9
$OBSLTYPE
280
     0
  9
$INTERSECTIONDISPLAY
280
     0
  9
$INTERSECTIONCOLOR
 70
   257
  9
$DIMASSOC
280
     2
  9
$PROJECTNAME
  1

  9
$CAMERADISPLAY
290
     0
  9
$LENSLENGTH
 40
50.0
  9
$CAMERAHEIGHT
 40
0.0
  9
$STEPSPERSEC
 40
2.0
  9
$STEPSIZE
 40
6.0
  9
$3DDWFPREC
 40
2.0
  9
$PSOLWIDTH
 40
5.0
  9
$PSOLHEIGHT
 40
80.0
  9
$LOFTANG1
 40
1.570796326794897
  9
$LOFTANG2
 40
1.570796326794897
  9
$LOFTMAG1
 40
0.0
  9
$LOFTMAG2
 40
0.0
  9
$LOFTPARAM
 70
     7
  9
$LOFTNORMALS
280
     1
  9
$LATITUDE
 40
37.795
  9
$LONGITUDE
 40
-122.394
  9
$NORTHDIRECTION
 40
0.0
  9
$TIMEZONE
 70
 -8000
  9
$LIGHTGLYPHDISPLAY
280
     1
  9
$TILEMODELIGHTSYNCH
280
     1
  9
$SOLIDHIST
280
     1
  9
$SHOWHIST
280
     1
  9
$DWFFRAME
280
     2
  9
$DGNFRAME
280
     2
  9
$REALWORLDSCALE
290
     1
  9
$INTERFERECOLOR
 62
   256
  9
$CSHADOW
280
     0
  9
$SHADOWPLANELOCATION
 40
0.0
  0
ENDSEC
  0
SECTION
  2
CLASSES
  0
CLASS
  1
ACDBDICTIONARYWDFLT
  2
AcDbDictionaryWithDefault
  3
ObjectDBX Classes
 90
        0
 91
       17
280
     0
281
     0
  0
CLASS
  1
VISUALSTYLE
  2
AcDbVisualStyle
  3
ObjectDBX Classes
 90
     4095
 91
       17
280
     0
281
     0
  0
CLASS
  1
TABLESTYLE
  2
AcDbTableStyle
  3
ObjectDBX Classes
 90
     4095
 91
       17
280
     0
281
     0
  0
CLASS
  1
DICTIONARYVAR
  2
AcDbDictionaryVar
  3
ObjectDBX Classes
 90
        0
 91
       17
280
     0
281
     0
  0
CLASS
  1
SCALE
  2
AcDbScale
  3
ObjectDBX Classes
 90
     1153
 91
       17
280
     0
281
     0
  0
CLASS
  1
CELLSTYLEMAP
  2
AcDbCellStyleMap
  3
ObjectDBX Classes
 90
     1152
 91
       17
280
     0
281
     0
  0
CLASS
  1
RASTERVARIABLES
  2
AcDbRasterVariables
  3
ISM
 90
        0
 91
       17
280
     0
281
     0
  0
CLASS
  1
MATERIAL
  2
AcDbMaterial
  3
ObjectDBX Classes
 90
     1153
 91
       17
280
     0
281
     0
  0
CLASS
  1
SUN
  2
AcDbSun
  3
SCENEOE
 90
     1153
 91
       17
280
     0
281
     0
  0
CLASS
  1
MLEADERSTYLE
  2
AcDbMLeaderStyle
  3
ACDB_MLEADERSTYLE_CLASS
 90
     4095
 91
       17
280
     0
281
     0
  0
ENDSEC
  0
SECTION
  2
TABLES
  0
TABLE
  2
VPORT
  5
8
330
0
100
AcDbSymbolTable
 70
     1
  0
VPORT
  5
29
330
8
100
AcDbSymbolTableRecord
100
AcDbViewportTableRecord
  2
*Active
 70
     0
 10
0.0
 20
0.0
 11
1.0
 21
1.0
 12
239.6382178276316
 22
89.16946496506911
 13
0.0
 23
0.0
 14
10.0
 24
10.0
 15
10.0
 25
10.0
 16
0.0
 26
0.0
 36
1.0
 17
-134.1869158878505
 27
0.0
 37
0.0
 40
246.5279999999999
 41
2.248888888888889
 42
50.0
 43
0.0
 44
0.0
 50
0.0
 51
0.0
 71
    16
 72
  1000
 73
     1
 74
     3
 75
     0
 76
     0
 77
     0
 78
     0
281
     0
 65
     1
110
0.0
120
0.0
130
0.0
111
1.0
121
0.0
131
0.0
112
0.0
122
1.0
132
0.0
 79
     0
146
0.0
348
2F
 60
     3
 61
     5
292
     1
282
     1
141
0.0
142
0.0
 63
   256
361
80
  0
ENDTAB
  0
TABLE
  2
LTYPE
  5
5
330
0
100
AcDbSymbolTable
 70
     1
  0
LTYPE
  5
14
330
5
100
AcDbSymbolTableRecord
100
AcDbLinetypeTableRecord
  2
ByBlock
 70
     0
  3

 72
    65
 73
     0
 40
0.0
  0
LTYPE
  5
15
330
5
100
AcDbSymbolTableRecord
100
AcDbLinetypeTableRecord
  2
ByLayer
 70
     0
  3

 72
    65
 73
     0
 40
0.0
  0
LTYPE
  5
16
330
5
100
AcDbSymbolTableRecord
100
AcDbLinetypeTableRecord
  2
Continuous
 70
     0
  3
Solid line
 72
    65
 73
     0
 40
0.0
  0
ENDTAB
  0
TABLE
  2
LAYER
  5
2
102
{ACAD_XDICTIONARY
360
F8
102
}
330
0
100
AcDbSymbolTable
 70
     1
  0
LAYER
  5
10
330
2
100
AcDbSymbolTableRecord
100
AcDbLayerTableRecord
  2
0
 70
     0
 62
     7
  6
Continuous
370
    -3
390
F
347
75
348
0
  0
ENDTAB
  0
TABLE
  2
STYLE
  5
3
330
0
100
AcDbSymbolTable
 70
     1
  0
STYLE
  5
11
330
3
100
AcDbSymbolTableRecord
100
AcDbTextStyleTableRecord
  2
Standard
 70
     0
 40
0.0
 41
1.0
 50
0.0
 71
     0
 42
2.5
  3
arial.ttf
  4

1001
ACAD
1000
Arial
1071
        0
  0
ENDTAB
  0
TABLE
  2
VIEW
  5
6
330
0
100
AcDbSymbolTable
 70
     0
  0
ENDTAB
  0
TABLE
  2
UCS
  5
7
330
0
100
AcDbSymbolTable
 70
     0
  0
ENDTAB
  0
TABLE
  2
APPID
  5
9
330
0
100
AcDbSymbolTable
 70
     1
  0
APPID
  5
12
330
9
100
AcDbSymbolTableRecord
100
AcDbRegAppTableRecord
  2
ACAD
 70
     0
  0
ENDTAB
  0
TABLE
  2
DIMSTYLE
  5
A
330
0
100
AcDbSymbolTable
 70
     1
100
AcDbDimStyleTable
  0
DIMSTYLE
105
27
330
A
100
AcDbSymbolTableRecord
100
AcDbDimStyleTableRecord
  2
ISO-25
 70
     0
 41
2.5
 42
0.625
 43
3.75
 44
1.25
 73
     0
 74
     0
 77
     1
 78
     8
140
2.5
141
2.5
143
0.03937007874016
147
0.625
171
     3
172
     1
178
     0
271
     2
272
     2
274
     3
278
    44
283
     0
284
     8
340
11
  0
ENDTAB
  0
TABLE
  2
BLOCK_RECORD
  5
1
330
0
100
AcDbSymbolTable
 70
     1
  0
BLOCK_RECORD
  5
1F
330
1
100
AcDbSymbolTableRecord
100
AcDbBlockTableRecord
  2
*Model_Space
340
22
 70
     0
280
     1
281
     0
  0
BLOCK_RECORD
  5
1B
330
1
100
AcDbSymbolTableRecord
100
AcDbBlockTableRecord
  2
*Paper_Space
340
1E
 70
     0
280
     1
281
     0
  0
BLOCK_RECORD
  5
23
330
1
100
AcDbSymbolTableRecord
100
AcDbBlockTableRecord
  2
*Paper_Space0
340
26
 70
     0
280
     1
281
     0
  0
ENDTAB
  0
ENDSEC
  0
SECTION
  2
BLOCKS
  0
BLOCK
  5
20
330
1F
100
AcDbEntity
  8
0
100
AcDbBlockBegin
  2
*Model_Space
 70
     0
 10
0.0
 20
0.0
 30
0.0
  3
*Model_Space
  1
*Model_Space
  0
ENDBLK
  5
21
330
1F
100
AcDbEntity
  8
0
100
AcDbBlockEnd
  0
BLOCK
  5
1C
330
1B
100
AcDbEntity
 67
     1
  8
0
100
AcDbBlockBegin
  2
*Paper_Space
 70
     0
 10
0.0
 20
0.0
 30
0.0
  3
*Paper_Space
  1
*Paper_Space
  0
ENDBLK
  5
1D
330
1B
100
AcDbEntity
 67
     1
  8
0
100
AcDbBlockEnd
  0
BLOCK
  5
24
330
23
100
AcDbEntity
  8
0
100
AcDbBlockBegin
  2
*Paper_Space0
 70
     0
 10
0.0
 20
0.0
 30
0.0
  3
*Paper_Space0
  1
*Paper_Space0
  0
ENDBLK
  5
25
330
23
100
AcDbEntity
  8
0
100
AcDbBlockEnd
  0
ENDSEC
  0
SECTION
  2
ENTITIES
  0
LWPOLYLINE
  5
FD
330
1F
100
AcDbEntity
  8
0
 62
     1
100
AcDbPolyline
 90
        5
 70
     0
 43
0.0
 10
86.42196819836695
 20
1.957953250491977
 10
86.42196819836698
 20
46.95795325049198
 10
86.42196819836698
 20
66.95795325049197
 10
86.42196819836698
 20
76.95795325049174
 10
64.921968198367
 20
76.95795325049176
  0
LWPOLYLINE
  5
FE
330
1F
100
AcDbEntity
  8
0
 62
     1
100
AcDbPolyline
 90
        2
 70
     0
 43
0.0
 10
86.42196819836695
 20
1.957953250491977
 10
43.42196819836718
 20
1.957953250491772
  0
LWPOLYLINE
  5
FF
330
1F
100
AcDbEntity
  8
0
 62
     1
100
AcDbPolyline
 90
        5
 70
     0
 43
0.0
 10
43.42196819836718
 20
1.957953250491772
 10
43.42196819836679
 20
46.95795325049177
 10
43.42196819836665
 20
66.95795325049177
 10
43.42196819836654
 20
76.95795325049177
 10
64.92196819836654
 20
76.95795325049176
  0
LWPOLYLINE
  5
100
330
1F
100
AcDbEntity
  8
0
 62
     1
100
AcDbPolyline
 90
        4
 70
     1
 43
0.0
 10
52.921968198367
 20
66.00504754038393
 10
52.92196819836697
 20
45.19583487462683
 10
76.92196819836697
 20
45.1958348746268
 10
76.921968198367
 20
66.00504754038391
  0
CIRCLE
  5
101
330
1F
100
AcDbEntity
  8
0
 62
     1
100
AcDbCircle
 10
51.60635013654397
 20
16.95795325049199
 30
0.0
 40
1.6
  0
CIRCLE
  5
102
330
1F
100
AcDbEntity
  8
0
 62
     1
100
AcDbCircle
 10
81.60635013654398
 20
16.95795325049207
 30
0.0
 40
1.6
  0
CIRCLE
  5
103
330
1F
100
AcDbEntity
  8
0
 62
     1
100
AcDbCircle
 10
71.60635013654397
 20
6.95795325049207
 30
0.0
 40
1.6
  0
CIRCLE
  5
104
330
1F
100
AcDbEntity
  8
0
 62
     1
100
AcDbCircle
 10
61.60635013654397
 20
6.957953250492077
 30
0.0
 40
1.6
  0
CIRCLE
  5
105
330
1F
100
AcDbEntity
  8
0
 62
     1
100
AcDbCircle
 10
81.86319396951734
 20
86.1192334660857
 30
0.0
 40
1.55
  0
CIRCLE
  5
106
330
1F
100
AcDbEntity
  8
0
 62
     1
100
AcDbCircle
 10
47.75338882721594
 20
86.11923346608573
 30
0.0
 40
1.55
  0
CIRCLE
  5
107
330
1F
100
AcDbEntity
  8
0
 62
     1
100
AcDbCircle
 10
47.75338882721597
 20
118.9784825760178
 30
0.0
 40
1.55
  0
LWPOLYLINE
  5
108
330
1F
100
AcDbEntity
  8
0
 62
     1
100
AcDbPolyline
 90
        4
 70
     1
 43
0.0
 10
43.30829139836646
 20
129.1739532504918
 10
43.30829139836641
 20
79.173953250492
 10
86.30829139836675
 20
79.17395325049198
 10
86.3082913983669
 20
129.173953250492
  0
CIRCLE
  5
109
330
1F
100
AcDbEntity
  8
0
 62
     1
100
AcDbCircle
 10
81.86319396951737
 20
118.9784825760178
 30
0.0
 40
1.55
  0
LWPOLYLINE
  5
10A
330
1F
100
AcDbEntity
  8
0
 62
     1
100
AcDbPolyline
 90
        3
 70
     0
 43
0.0
 10
66.30829139836683
 20
102.173953250492
 10
66.30829139836688
 20
94.02104754038392
 10
63.30829139836688
 20
94.02104754038392
  0
LWPOLYLINE
  5
10B
330
1F
100
AcDbEntity
  8
0
 62
     1
100
AcDbPolyline
 90
        2
 70
     0
 43
0.0
 10
66.30829139836689
 20
125.2210475403839
 10
66.30829139836689
 20
118.2210475403839
  0
LWPOLYLINE
  5
10C
330
1F
100
AcDbEntity
  8
0
 62
     1
100
AcDbPolyline
 90
        2
 70
     0
 43
0.0
 10
66.30829139836683
 20
102.173953250492
 10
66.30829139836688
 20
94.02104754038392
  0
LWPOLYLINE
  5
10D
330
1F
100
AcDbEntity
  8
0
 62
     1
100
AcDbPolyline
 90
        2
 70
     0
 43
0.0
 10
66.30829139836689
 20
125.2210475403839
 10
66.30829139836689
 20
118.2210475403839
  0
LWPOLYLINE
  5
10E
330
1F
100
AcDbEntity
  8
0
 62
     1
100
AcDbPolyline
 90
        2
 70
     0
 43
0.0
 10
66.30829139836688
 20
94.02104754038392
 10
66.30829139836683
 20
102.173953250492
  0
LWPOLYLINE
  5
10F
330
1F
100
AcDbEntity
  8
0
 62
     1
100
AcDbPolyline
 90
        2
 70
     0
 43
0.0
 10
63.30829139836688
 20
94.02104754038392
 10
63.30829139836683
 20
102.173953250492
  0
LWPOLYLINE
  5
110
330
1F
100
AcDbEntity
  8
0
 62
     1
100
AcDbPolyline
 90
        2
 70
     0
 43
0.0
 10
63.30829139836689
 20
118.2210475403839
 10
63.30829139836689
 20
125.2210475403839
  0
LWPOLYLINE
  5
111
330
1F
100
AcDbEntity
  8
0
 62
     1
100
AcDbPolyline
 90
        2
 70
     0
 43
0.0
 10
66.30829139836689
 20
118.2210475403839
 10
66.30829139836689
 20
125.2210475403839
  0
LWPOLYLINE
  5
112
330
1F
100
AcDbEntity
  8
0
 62
     1
100
AcDbPolyline
 90
        2
 70
     0
 43
0.0
 10
63.30829139836689
 20
125.2210475403839
 10
66.30829139836689
 20
125.2210475403839
  0
LWPOLYLINE
  5
113
330
1F
100
AcDbEntity
  8
0
 62
     1
100
AcDbPolyline
 90
        2
 70
     0
 43
0.0
 10
66.30829139836678
 20
102.173953250492
 10
76.80829139836689
 20
102.173953250492
  0
LWPOLYLINE
  5
114
330
1F
100
AcDbEntity
  8
0
 62
     1
100
AcDbPolyline
 90
        2
 70
     0
 43
0.0
 10
52.80829139836688
 20
102.173953250492
 10
63.30829139836683
 20
102.173953250492
  0
CIRCLE
  5
115
330
1F
100
AcDbEntity
  8
0
 62
     1
100
AcDbCircle
 10
81.97687076951745
 20
33.9032334660857
 30
0.0
 40
1.55
  0
LWPOLYLINE
  5
116
330
1F
100
AcDbEntity
  8
0
 62
     1
100
AcDbPolyline
 90
        3
 70
     0
 43
0.0
 10
63.30829139836689
 20
118.2210475403839
 10
52.80829139836689
 20
118.2210475403839
 10
52.80829139836688
 20
102.173953250492
  0
LWPOLYLINE
  5
117
330
1F
100
AcDbEntity
  8
0
 62
     1
100
AcDbPolyline
 90
        3
 70
     0
 43
0.0
 10
76.80829139836689
 20
102.173953250492
 10
76.80829139836689
 20
118.2210475403839
 10
66.30829139836689
 20
118.2210475403839
  0
CIRCLE
  5
118
330
1F
100
AcDbEntity
  8
0
 62
     1
100
AcDbCircle
 10
47.86706562721603
 20
33.90323346608572
 30
0.0
 40
1.55
  0
CIRCLE
  5
119
330
1F
100
AcDbEntity
  8
0
 62
     1
100
AcDbCircle
 10
47.86706562721606
 20
66.7624825760178
 30
0.0
 40
1.55
  0
CIRCLE
  5
11A
330
1F
100
AcDbEntity
  8
0
 62
     1
100
AcDbCircle
 10
81.97687076951746
 20
66.76248257601777
 30
0.0
 40
1.55
  0
LWPOLYLINE
  5
14C
330
1F
100
AcDbEntity
  8
0
 62
     1
100
AcDbPolyline
 90
      224
 70
     1
 43
0.0
 10
67.77668271334298
 20
15.42898685523322
 42
-0.0059660097745927
 10
67.53774899366917
 20
15.40832927884144
 42
-0.1776565509495552
 10
67.36714627565627
 20
15.55711376435822
 42
-0.0731526145660849
 10
67.29002875013558
 20
15.76456002495543
 42
0.8094272134003737
 10
66.29319215592588
 20
15.76456002495543
 42
-0.0731526145660843
 10
66.21607463040496
 20
15.55711376435794
 42
-0.1776565509486988
 10
66.04547191239166
 20
15.40832927884223
 42
-0.0059660097745793
 10
65.80653819271876
 20
15.42898685523322
 42
-0.0059660097745926
 10
65.5681654242405
 20
15.45533986469091
 42
-0.1776565509495519
 10
65.42986720280706
 20
15.63454843723211
 42
-0.0731526145660849
 10
65.39470222669618
 20
15.85305355898753
 42
0.8094272134003737
 10
64.41701956812798
 20
16.04752673114932
 42
-0.0731526145660843
 10
64.30091307645498
 20
15.85911137516761
 42
-0.1776565509487083
 10
64.10456202864046
 20
15.74646868101551
 42
-0.0059660097745794
 10
63.87424944662357
 20
15.81334298418004
 42
-0.0059660097745928
 10
63.64559816115221
 20
15.88569384811284
 42
-0.1776565509495468
 10
63.54491915938948
 20
16.08843962273703
 42
-0.0731526145660849
 10
63.5530581029997
 20
16.30960657636062
 42
0.8094272134003737
 10
62.63210117635097
 20
16.69107942573983
 42
-0.0731526145660843
 10
62.4814676258877
 20
16.52893567083963
 42
-0.1776565509487013
 10
62.26691390892447
 20
16.45676356361664
 42
-0.0059660097745793
 10
62.05407324792962
 20
16.56728465158772
 42
-0.0059660097745928
 10
61.8439303861368
 20
16.68285296686954
 42
-0.1776565509495608
 10
61.7847396416212
 20
16.90134453715904
 42
-0.0731526145660849
 10
61.8358697299137
 20
17.11667400065485
 42
0.8094272134003737
 10
61.00703039339717
 20
17.67048673958234
 42
-0.0731526145660843
 10
60.8276585470114
 20
17.54084567933332
 42
-0.17765655094869
 10
60.6031473399195
 20
17.51191769264533
 42
-0.0059660097745792
 10
60.41595794718617
 20
17.66183830199324
 42
-0.0059660097745928
 10
60.23239918140118
 20
17.81618284307904
 42
-0.1776565509495532
 10
60.21697136124979
 20
18.04202370051924
 42
-0.0731526145660849
 10
60.3091276936058
 20
18.24324068336323
 42
0.8094272134003737
 10
59.60425777810516
 20
18.94811059886384
 42
-0.0731526145660843
 10
59.40304079526081
 20
18.85595426650774
 42
-0.1776565509486936
 10
59.1771999378212
 20
18.87138208666024
 42
-0.0059660097745794
 10
59.02285539673531
 20
19.05494085244404
 42
-0.0059660097745928
 10
58.87293478738631
 20
19.24213024517754
 42
-0.1776565509495522
 10
58.9018627740754
 20
19.46664145226983
 42
-0.0731526145660849
 10
59.0315038343243
 20
19.64601329865524
 42
0.8094272134003737
 10
58.47769109539682
 20
20.47485263517182
 42
-0.0731526145660843
 10
58.26236163190057
 20
20.42372254687913
 42
-0.1776565509486981
 10
58.04387006161191
 20
20.48291329139584
 42
-0.0059660097745792
 10
57.92830174632978
 20
20.69305615318742
 42
-0.0059660097745928
 10
57.81778065835759
 20
20.90589681418285
 42
-0.1776565509495475
 10
57.88995276558181
 20
21.12045053114604
 42
-0.0731526145660849
 10
58.05209652048181
 20
21.27108408160912
 42
0.8094272134003737
 10
57.6706236711025
 20
22.19204100825775
 42
-0.0731526145660843
 10
57.44945671747858
 20
22.18390206464765
 42
-0.1776565509486965
 10
57.24671094285541
 20
22.28458106641106
 42
-0.0059660097745793
 10
57.17436007892209
 20
22.51323235188135
 42
-0.0059660097745928
 10
57.10748577575637
 20
22.74354493389895
 42
-0.1776565509495467
 10
57.22012846990979
 20
22.93989598171336
 42
-0.0731526145660849
 10
57.40854382589127
 20
23.05600247338605
 42
0.8094272134003737
 10
57.21407065372942
 20
24.03368513195425
 42
-0.0731526145660843
 10
56.99556553197378
 20
24.06885010806526
 42
-0.1776565509487007
 10
56.8163569594336
 20
24.20714832949925
 42
-0.0059660097745793
 10
56.79000394997517
 20
24.44552109797656
 42
-0.0059660097745927
 10
56.76934637358327
 20
24.68445481765036
 42
-0.1776565509495517
 10
56.9181308591001
 20
24.85505753566326
 42
-0.0731526145660849
 10
57.12557711969728
 20
24.93217506118395
 42
0.8094272134003737
 10
57.12557711969741
 20
25.92901165539366
 42
-0.0731526145660843
 10
56.91813085909977
 20
26.00612918091455
 42
-0.1776565509486971
 10
56.76934637358418
 20
26.17673189892785
 42
-0.0059660097745794
 10
56.79000394997511
 20
26.41566561860075
 42
-0.0059660097745929
 10
56.81635695943292
 20
26.65403838707915
 42
-0.1776565509495536
 10
56.99556553197412
 20
26.79233660851245
 42
-0.0731526145660849
 10
57.21407065372942
 20
26.82750158462336
 42
0.8094272134003737
 10
57.40854382589127
 20
27.80518424319155
 42
-0.0731526145660843
 10
57.22012846990951
 20
27.92129073486455
 42
-0.1776565509486916
 10
57.10748577575741
 20
28.11764178267905
 42
-0.0059660097745794
 10
57.17436007892199
 20
28.34795436469606
 42
-0.0059660097745925
 10
57.24671094285479
 20
28.57660565016735
 42
-0.1776565509495421
 10
57.44945671747898
 20
28.67728465193005
 42
-0.0731526145660849
 10
57.6706236711025
 20
28.66914570831995
 42
0.8094272134003737
 10
58.05209652048181
 20
29.59010263496855
 42
-0.0731526145660843
 10
57.88995276558158
 20
29.74073618543194
 42
-0.177656550948707
 10
57.81778065835861
 20
29.95528990239505
 42
-0.0059660097745795
 10
57.92830174632972
 20
30.16813056338995
 42
-0.0059660097745928
 10
58.0438700616114
 20
30.37827342518274
 42
-0.1776565509495619
 10
58.26236163190087
 20
30.43746416969834
 42
-0.0731526145660849
 10
58.47769109539682
 20
30.38633408140585
 42
0.8094272134003737
 10
59.03150383432431
 20
31.21517341792234
 42
-0.0731526145660843
 10
58.90186277407518
 20
31.39454526430815
 42
-0.1776565509486925
 10
58.87293478738728
 20
31.61905647140004
 42
-0.0059660097745794
 10
59.02285539673509
 20
31.80624586413334
 42
-0.005966009774593
 10
59.17719993782098
 20
31.98980462991835
 42
-0.1776565509495588
 10
59.4030407952611
 20
32.00523245006984
 42
-0.0731526145660849
 10
59.60425777810516
 20
31.91307611771374
 42
0.8094272134003737
 10
60.30912769360581
 20
32.61794603321435
 42
-0.0731526145660843
 10
60.21697136124957
 20
32.81916301605875
 42
-0.1776565509486967
 10
60.23239918140221
 20
33.04500387349835
 42
-0.0059660097745794
 10
60.41595794718601
 20
33.19934841458425
 42
-0.005966009774593
 10
60.60314733991952
 20
33.34926902393325
 42
-0.1776565509495562
 10
60.82765854701179
 20
33.32034103724415
 42
-0.0731526145660849
 10
61.00703039339717
 20
33.19069997699525
 42
0.8094272134003737
 10
61.83586972991375
 20
33.74451271592275
 42
-0.0731526145660843
 10
61.7847396416211
 20
33.95984217941894
 42
-0.177656550948697
 10
61.84393038613767
 20
34.17833374970765
 42
-0.0059660097745793
 10
62.05407324792928
 20
34.29390206498975
 42
-0.0059660097745926
 10
62.26691390892471
 20
34.40442315296194
 42
-0.1776565509495548
 10
62.48146762588787
 20
34.33225104573775
 42
-0.0731526145660849
 10
62.63210117635099
 20
34.17010729083775
 42
0.8094272134003737
 10
63.55305810299971
 20
34.55158014021704
 42
-0.0731526145660843
 10
63.54491915938949
 20
34.77274709384095
 42
-0.1776565509486935
 10
63.645598161153
 20
34.97549286846414
 42
-0.0059660097745793
 10
63.87424944662318
 20
35.04784373239745
 42
-0.0059660097745928
 10
64.10456202864087
 20
35.11471803556314
 42
-0.1776565509495511
 10
64.3009130764552
 20
35.00207534140975
 42
-0.0731526145660849
 10
64.41701956812798
 20
34.81365998542825
 42
0.8094272134003737
 10
65.39470222669618
 20
35.00813315759015
 42
-0.0731526145660843
 10
65.42986720280717
 20
35.22663827934585
 42
-0.1776565509486989
 10
65.56816542424107
 20
35.40584685188594
 42
-0.0059660097745793
 10
65.80653819271849
 20
35.43219986134444
 42
-0.0059660097745926
 10
66.04547191239217
 20
35.45285743773624
 42
-0.1776565509495493
 10
66.2160746304052
 20
35.30407295221944
 42
-0.0731526145660849
 10
66.2931921559259
 20
35.09662669162225
 42
0.8094272134003737
 10
67.29002875013559
 20
35.09662669162225
 42
-0.0731526145660843
 10
67.3671462756565
 20
35.30407295221974
 42
-0.1776565509486991
 10
67.5377489936698
 20
35.45285743773535
 42
-0.0059660097745793
 10
67.7766827133427
 20
35.43219986134444
 42
-0.0059660097745927
 10
68.01505548182108
 20
35.40584685188665
 42
-0.1776565509495572
 10
68.15335370325441
 20
35.22663827934545
 42
-0.0731526145660849
 10
68.18851867936527
 20
35.00813315759015
 42
0.8094272134003737
 10
69.16620133793349
 20
34.81365998542825
 42
-0.0731526145660843
 10
69.28230782960638
 20
35.00207534141005
 42
-0.177656550948702
 10
69.4786588774209
 20
35.11471803556215
 42
-0.0059660097745794
 10
69.70897145943802
 20
35.04784373239755
 42
-0.0059660097745925
 10
69.93762274490932
 20
34.97549286846474
 42
-0.1776565509495472
 10
70.03830174667199
 20
34.77274709384055
 42
-0.0731526145660849
 10
70.03016280306177
 20
34.55158014021704
 42
0.8094272134003737
 10
70.95111972971038
 20
34.17010729083775
 42
-0.0731526145660843
 10
71.10175328017378
 20
34.33225104573795
 42
-0.177656550948706
 10
71.316306997137
 20
34.40442315296094
 42
-0.0059660097745795
 10
71.5291476581319
 20
34.29390206498985
 42
-0.0059660097745929
 10
71.73929051992472
 20
34.17833374970814
 42
-0.1776565509495589
 10
71.79848126444027
 20
33.95984217941864
 42
-0.0731526145660849
 10
71.74735117614772
 20
33.74451271592285
 42
0.8094272134003737
 10
72.57619051266418
 20
33.19069997699525
 42
-0.0731526145660843
 10
72.75556235905002
 20
33.32034103724435
 42
-0.1776565509486936
 10
72.98007356614197
 20
33.34926902393225
 42
-0.0059660097745793
 10
73.16726295887518
 20
33.19934841458445
 42
-0.0059660097745927
 10
73.35082172466016
 20
33.04500387349854
 42
-0.1776565509495565
 10
73.36624954481168
 20
32.81916301605844
 42
-0.0731526145660849
 10
73.27409321245567
 20
32.61794603321435
 42
0.8094272134003737
 10
73.9789631279563
 20
31.91307611771374
 42
-0.0731526145660843
 10
74.18018011080072
 20
32.00523245006994
 42
-0.1776565509486936
 10
74.40602096824021
 20
31.98980462991734
 42
-0.0059660097745794
 10
74.56036550932622
 20
31.80624586413354
 42
-0.0059660097745928
 10
74.71028611867517
 20
31.61905647140004
 42
-0.1776565509495538
 10
74.68135813198607
 20
31.39454526430785
 42
-0.0731526145660849
 10
74.55171707173717
 20
31.21517341792234
 42
0.8094272134003737
 10
75.10552981066472
 20
30.38633408140585
 42
-0.0731526145660843
 10
75.32085927416078
 20
30.43746416969844
 42
-0.177656550948699
 10
75.53935084444957
 20
30.37827342518185
 42
-0.0059660097745794
 10
75.65491915973159
 20
30.16813056339025
 42
-0.0059660097745927
 10
75.76544024770376
 20
29.95528990239485
 42
-0.1776565509495518
 10
75.69326814047962
 20
29.74073618543164
 42
-0.0731526145660849
 10
75.53112438557967
 20
29.59010263496855
 42
0.8094272134003737
 10
75.91259723495902
 20
28.66914570831985
 42
-0.0731526145660843
 10
76.13376418858279
 20
28.67728465193005
 42
-0.1776565509486923
 10
76.33650996320605
 20
28.57660565016654
 42
-0.0059660097745795
 10
76.40886082713938
 20
28.34795436469635
 42
-0.0059660097745925
 10
76.47573513030498
 20
28.11764178267865
 42
-0.177656550949553
 10
76.36309243615167
 20
27.92129073486434
 42
-0.0731526145660849
 10
76.17467708017021
 20
27.80518424319155
 42
0.8094272134003737
 10
76.369150252332
 20
26.82750158462345
 42
-0.0731526145660843
 10
76.5876553740877
 20
26.79233660851244
 42
-0.1776565509487031
 10
76.76686394662786
 20
26.65403838707844
 42
-0.0059660097745792
 10
76.79321695608631
 20
26.41566561860104
 42
-0.0059660097745927
 10
76.81387453247821
 20
26.17673189892734
 42
-0.1776565509495524
 10
76.66509004696131
 20
26.00612918091444
 42
-0.0731526145660849
 10
76.45764378636407
 20
25.92901165539365
 42
0.8094272134003737
 10
76.45764378636406
 20
24.93217506118394
 42
-0.0731526145660843
 10
76.66509004696171
 20
24.85505753566315
 42
-0.1776565509486961
 10
76.8138745324773
 20
24.68445481764985
 42
-0.0059660097745793
 10
76.79321695608631
 20
24.44552109797695
 42
-0.0059660097745928
 10
76.76686394662862
 20
24.20714832949855
 42
-0.1776565509495502
 10
76.5876553740874
 20
24.06885010806515
 42
-0.0731526145660849
 10
76.36915025233199
 20
24.03368513195424
 42
0.8094272134003737
 10
76.1746770801702
 20
23.05600247338604
 42
-0.0731526145660843
 10
76.36309243615196
 20
22.93989598171305
 42
-0.1776565509487051
 10
76.47573513030406
 20
22.74354493389865
 42
-0.0059660097745795
 10
76.40886082713948
 20
22.51323235188164
 42
-0.0059660097745926
 10
76.33650996320668
 20
22.28458106641024
 42
-0.1776565509495511
 10
76.13376418858249
 20
22.18390206464764
 42
-0.0731526145660849
 10
75.91259723495901
 20
22.19204100825775
 42
0.8094272134003737
 10
75.53112438557966
 20
21.27108408160912
 42
-0.0731526145660843
 10
75.69326814047977
 20
21.12045053114572
 42
-0.1776565509487028
 10
75.76544024770287
 20
20.90589681418264
 42
-0.0059660097745792
 10
75.6549191597318
 20
20.69305615318761
 42
-0.0059660097745926
 10
75.53935084444997
 20
20.48291329139492
 42
-0.1776565509495557
 10
75.32085927416048
 20
20.42372254687923
 42
-0.0731526145660849
 10
75.10552981066472
 20
20.47485263517181
 42
0.8094272134003737
 10
74.55171707173716
 20
19.64601329865523
 42
-0.0731526145660843
 10
74.68135813198617
 20
19.46664145226951
 42
-0.1776565509486931
 10
74.71028611867419
 20
19.24213024517762
 42
-0.0059660097745793
 10
74.56036550932626
 20
19.05494085244432
 42
-0.0059660097745927
 10
74.40602096824037
 20
18.87138208665932
 42
-0.1776565509495544
 10
74.18018011080036
 20
18.85595426650782
 42
-0.0731526145660849
 10
73.97896312795629
 20
18.94811059886383
 42
0.8094272134003737
 10
73.27409321245565
 20
18.24324068336323
 42
-0.0731526145660843
 10
73.3662495448119
 20
18.04202370051884
 42
-0.1776565509486969
 10
73.35082172465926
 20
17.81618284307932
 42
-0.005966009774579
 10
73.1672629588754
 20
17.66183830199331
 42
-0.0059660097745931
 10
72.98007356614195
 20
17.51191769264433
 42
-0.1776565509495458
 10
72.75556235904966
 20
17.54084567933343
 42
-0.0731526145660849
 10
72.57619051266428
 20
17.67048673958242
 42
0.8094272134003737
 10
71.7473511761477
 20
17.11667400065484
 42
-0.0731526145660843
 10
71.79848126444037
 20
16.90134453715872
 42
-0.1776565509487025
 10
71.7392905199238
 20
16.68285296686993
 42
-0.0059660097745788
 10
71.52914765813196
 20
16.56728465158783
 42
-0.0059660097745929
 10
71.31630699713676
 20
16.45676356361564
 42
-0.1776565509495488
 10
71.1017532801736
 20
16.52893567083991
 42
-0.0731526145660849
 10
70.95111972971037
 20
16.69107942573983
 42
0.8094272134003737
 10
70.03016280306176
 20
16.30960657636062
 42
-0.0731526145660843
 10
70.03830174667186
 20
16.08843962273671
 42
-0.1776565509486932
 10
69.93762274490851
 20
15.88569384811343
 42
-0.0059660097745791
 10
69.70897145943806
 20
15.81334298418012
 42
-0.0059660097745931
 10
69.4786588774206
 20
15.74646868101452
 42
-0.1776565509495449
 10
69.28230782960625
 20
15.85911137516781
 42
-0.0731526145660849
 10
69.16620133793347
 20
16.04752673114932
 42
0.8094272134003737
 10
68.18851867936527
 20
15.85305355898753
 42
-0.0731526145660843
 10
68.15335370325428
 20
15.63454843723183
 42
-0.1776565509486995
 10
68.01505548182027
 20
15.45533986469174
 42
-0.0059660097745795
  0
CIRCLE
  5
14D
330
1F
100
AcDbEntity
  8
0
 62
     1
100
AcDbCircle
 10
66.7916104530307
 20
25.43059335828885
 30
0.0
 40
1.6
  0
LWPOLYLINE
  5
17F
330
1F
100
AcDbEntity
  8
0
 62
     1
100
AcDbPolyline
 90
      224
 70
     1
 43
0.0
 10
65.90971411686299
 20
45.58196581807481
 42
-0.0059660097745927
 10
65.67078039718918
 20
45.56130824168302
 42
-0.1776565509495552
 10
65.50017767917629
 20
45.71009272719981
 42
-0.0731526145660849
 10
65.4230601536556
 20
45.91753898779702
 42
0.8094272134003737
 10
64.42622355944589
 20
45.91753898779702
 42
-0.0731526145660843
 10
64.34910603392497
 20
45.71009272719952
 42
-0.1776565509486988
 10
64.17850331591167
 20
45.56130824168382
 42
-0.0059660097745793
 10
63.93956959623877
 20
45.58196581807481
 42
-0.0059660097745926
 10
63.70119682776051
 20
45.6083188275325
 42
-0.1776565509495519
 10
63.56289860632707
 20
45.7875274000737
 42
-0.0731526145660849
 10
63.52773363021619
 20
46.00603252182911
 42
0.8094272134003737
 10
62.55005097164799
 20
46.20050569399091
 42
-0.0731526145660843
 10
62.433944479975
 20
46.0120903380092
 42
-0.1776565509487083
 10
62.23759343216047
 20
45.8994476438571
 42
-0.0059660097745794
 10
62.00728085014359
 20
45.96632194702163
 42
-0.0059660097745928
 10
61.77862956467223
 20
46.03867281095442
 42
-0.1776565509495468
 10
61.67795056290949
 20
46.24141858557861
 42
-0.0731526145660849
 10
61.68608950651971
 20
46.46258553920221
 42
0.8094272134003737
 10
60.76513257987098
 20
46.84405838858142
 42
-0.0731526145660843
 10
60.61449902940771
 20
46.68191463368122
 42
-0.1776565509487013
 10
60.39994531244448
 20
46.60974252645822
 42
-0.0059660097745793
 10
60.18710465144962
 20
46.7202636144293
 42
-0.0059660097745928
 10
59.97696178965681
 20
46.83583192971112
 42
-0.1776565509495608
 10
59.91777104514121
 20
47.05432350000062
 42
-0.0731526145660849
 10
59.96890113343371
 20
47.26965296349643
 42
0.8094272134003737
 10
59.14006179691717
 20
47.82346570242392
 42
-0.0731526145660843
 10
58.96068995053141
 20
47.6938246421749
 42
-0.17765655094869
 10
58.73617874343951
 20
47.66489665548691
 42
-0.0059660097745792
 10
58.54898935070618
 20
47.81481726483482
 42
-0.0059660097745928
 10
58.36543058492119
 20
47.96916180592062
 42
-0.1776565509495532
 10
58.3500027647698
 20
48.19500266336082
 42
-0.0731526145660849
 10
58.44215909712581
 20
48.39621964620481
 42
0.8094272134003737
 10
57.73728918162517
 20
49.10108956170542
 42
-0.0731526145660843
 10
57.53607219878082
 20
49.00893322934932
 42
-0.1776565509486936
 10
57.31023134134121
 20
49.02436104950182
 42
-0.0059660097745794
 10
57.15588680025532
 20
49.20791981528562
 42
-0.0059660097745928
 10
57.00596619090631
 20
49.39510920801912
 42
-0.1776565509495522
 10
57.03489417759541
 20
49.61962041511141
 42
-0.0731526145660849
 10
57.16453523784431
 20
49.79899226149682
 42
0.8094272134003737
 10
56.61072249891682
 20
50.6278315980134
 42
-0.0731526145660843
 10
56.39539303542058
 20
50.57670150972071
 42
-0.1776565509486981
 10
56.17690146513191
 20
50.63589225423742
 42
-0.0059660097745792
 10
56.06133314984978
 20
50.846035116029
 42
-0.0059660097745928
 10
55.95081206187759
 20
51.05887577702443
 42
-0.1776565509495475
 10
56.02298416910181
 20
51.27342949398762
 42
-0.0731526145660849
 10
56.18512792400181
 20
51.4240630444507
 42
0.8094272134003737
 10
55.8036550746225
 20
52.34501997109933
 42
-0.0731526145660843
 10
55.58248812099858
 20
52.33688102748923
 42
-0.1776565509486965
 10
55.37974234637541
 20
52.43756002925264
 42
-0.0059660097745793
 10
55.30739148244209
 20
52.66621131472293
 42
-0.0059660097745928
 10
55.24051717927637
 20
52.89652389674053
 42
-0.1776565509495467
 10
55.35315987342979
 20
53.09287494455494
 42
-0.0731526145660849
 10
55.54157522941127
 20
53.20898143622763
 42
0.8094272134003737
 10
55.34710205724942
 20
54.18666409479583
 42
-0.0731526145660843
 10
55.12859693549378
 20
54.22182907090684
 42
-0.1776565509487007
 10
54.9493883629536
 20
54.36012729234083
 42
-0.0059660097745793
 10
54.92303535349517
 20
54.59850006081814
 42
-0.0059660097745927
 10
54.90237777710328
 20
54.83743378049193
 42
-0.1776565509495517
 10
55.05116226262011
 20
55.00803649850484
 42
-0.0731526145660849
 10
55.25860852321729
 20
55.08515402402553
 42
0.8094272134003737
 10
55.25860852321742
 20
56.08199061823524
 42
-0.0731526145660843
 10
55.05116226261978
 20
56.15910814375613
 42
-0.1776565509486971
 10
54.90237777710418
 20
56.32971086176943
 42
-0.0059660097745794
 10
54.92303535349512
 20
56.56864458144233
 42
-0.0059660097745929
 10
54.94938836295292
 20
56.80701734992073
 42
-0.1776565509495536
 10
55.12859693549413
 20
56.94531557135403
 42
-0.0731526145660849
 10
55.34710205724943
 20
56.98048054746494
 42
0.8094272134003737
 10
55.54157522941128
 20
57.95816320603313
 42
-0.0731526145660843
 10
55.35315987342952
 20
58.07426969770613
 42
-0.1776565509486916
 10
55.24051717927742
 20
58.27062074552063
 42
-0.0059660097745794
 10
55.307391482442
 20
58.50093332753764
 42
-0.0059660097745925
 10
55.3797423463748
 20
58.72958461300894
 42
-0.1776565509495421
 10
55.58248812099899
 20
58.83026361477164
 42
-0.0731526145660849
 10
55.80365507462251
 20
58.82212467116153
 42
0.8094272134003737
 10
56.18512792400182
 20
59.74308159781013
 42
-0.0731526145660843
 10
56.02298416910158
 20
59.89371514827353
 42
-0.177656550948707
 10
55.95081206187862
 20
60.10826886523664
 42
-0.0059660097745795
 10
56.06133314984973
 20
60.32110952623154
 42
-0.0059660097745928
 10
56.17690146513142
 20
60.53125238802433
 42
-0.1776565509495619
 10
56.39539303542089
 20
60.59044313253993
 42
-0.0731526145660849
 10
56.61072249891684
 20
60.53931304424744
 42
0.8094272134003737
 10
57.16453523784433
 20
61.36815238076393
 42
-0.0731526145660843
 10
57.03489417759519
 20
61.54752422714974
 42
-0.1776565509486925
 10
57.00596619090729
 20
61.77203543424163
 42
-0.0059660097745794
 10
57.1558868002551
 20
61.95922482697493
 42
-0.005966009774593
 10
57.31023134134099
 20
62.14278359275995
 42
-0.1776565509495588
 10
57.53607219878111
 20
62.15821141291143
 42
-0.0731526145660849
 10
57.73728918162518
 20
62.06605508055533
 42
0.8094272134003737
 10
58.44215909712582
 20
62.77092499605594
 42
-0.0731526145660843
 10
58.35000276476958
 20
62.97214197890035
 42
-0.1776565509486967
 10
58.36543058492222
 20
63.19798283633993
 42
-0.0059660097745794
 10
58.54898935070602
 20
63.35232737742585
 42
-0.005966009774593
 10
58.73617874343952
 20
63.50224798677483
 42
-0.1776565509495562
 10
58.96068995053181
 20
63.47332000008574
 42
-0.0731526145660849
 10
59.14006179691719
 20
63.34367893983683
 42
0.8094272134003737
 10
59.96890113343377
 20
63.89749167876435
 42
-0.0731526145660843
 10
59.91777104514112
 20
64.11282114226053
 42
-0.177656550948697
 10
59.97696178965769
 20
64.33131271254923
 42
-0.0059660097745793
 10
60.1871046514493
 20
64.44688102783134
 42
-0.0059660097745926
 10
60.39994531244471
 20
64.55740211580353
 42
-0.1776565509495548
 10
60.61449902940788
 20
64.48523000857934
 42
-0.0731526145660849
 10
60.76513257987099
 20
64.32308625367934
 42
0.8094272134003737
 10
61.68608950651972
 20
64.70455910305863
 42
-0.0731526145660843
 10
61.6779505629095
 20
64.92572605668254
 42
-0.1776565509486935
 10
61.77862956467301
 20
65.12847183130573
 42
-0.0059660097745793
 10
62.00728085014319
 20
65.20082269523904
 42
-0.0059660097745928
 10
62.23759343216088
 20
65.26769699840473
 42
-0.1776565509495511
 10
62.43394447997521
 20
65.15505430425135
 42
-0.0731526145660849
 10
62.55005097164799
 20
64.96663894826985
 42
0.8094272134003737
 10
63.52773363021619
 20
65.16111212043175
 42
-0.0731526145660843
 10
63.56289860632718
 20
65.37961724218745
 42
-0.1776565509486989
 10
63.70119682776108
 20
65.55882581472754
 42
-0.0059660097745793
 10
63.9395695962385
 20
65.58517882418603
 42
-0.0059660097745926
 10
64.17850331591218
 20
65.60583640057784
 42
-0.1776565509495493
 10
64.34910603392521
 20
65.45705191506103
 42
-0.0731526145660849
 10
64.4262235594459
 20
65.24960565446385
 42
0.8094272134003737
 10
65.4230601536556
 20
65.24960565446385
 42
-0.0731526145660843
 10
65.5001776791765
 20
65.45705191506134
 42
-0.1776565509486991
 10
65.6707803971898
 20
65.60583640057693
 42
-0.0059660097745793
 10
65.9097141168627
 20
65.58517882418603
 42
-0.0059660097745927
 10
66.14808688534109
 20
65.55882581472825
 42
-0.1776565509495572
 10
66.28638510677442
 20
65.37961724218705
 42
-0.0731526145660849
 10
66.32155008288528
 20
65.16111212043175
 42
0.8094272134003737
 10
67.2992327414535
 20
64.96663894826985
 42
-0.0731526145660843
 10
67.41533923312639
 20
65.15505430425164
 42
-0.177656550948702
 10
67.6116902809409
 20
65.26769699840374
 42
-0.0059660097745794
 10
67.84200286295803
 20
65.20082269523915
 42
-0.0059660097745925
 10
68.07065414842933
 20
65.12847183130633
 42
-0.1776565509495472
 10
68.171333150192
 20
64.92572605668214
 42
-0.0731526145660849
 10
68.16319420658178
 20
64.70455910305863
 42
0.8094272134003737
 10
69.08415113323039
 20
64.32308625367934
 42
-0.0731526145660843
 10
69.23478468369379
 20
64.48523000857953
 42
-0.177656550948706
 10
69.44933840065701
 20
64.55740211580253
 42
-0.0059660097745795
 10
69.66217906165191
 20
64.44688102783145
 42
-0.0059660097745929
 10
69.87232192344473
 20
64.33131271254975
 42
-0.1776565509495589
 10
69.93151266796028
 20
64.11282114226024
 42
-0.0731526145660849
 10
69.88038257966772
 20
63.89749167876444
 42
0.8094272134003737
 10
70.70922191618419
 20
63.34367893983683
 42
-0.0731526145660843
 10
70.88859376257003
 20
63.47332000008593
 42
-0.1776565509486936
 10
71.11310496966198
 20
63.50224798677384
 42
-0.0059660097745793
 10
71.30029436239519
 20
63.35232737742605
 42
-0.0059660097745927
 10
71.48385312818017
 20
63.19798283634013
 42
-0.1776565509495565
 10
71.49928094833169
 20
62.97214197890004
 42
-0.0731526145660849
 10
71.40712461597568
 20
62.77092499605594
 42
0.8094272134003737
 10
72.11199453147631
 20
62.06605508055533
 42
-0.0731526145660843
 10
72.31321151432073
 20
62.15821141291154
 42
-0.1776565509486936
 10
72.53905237176022
 20
62.14278359275893
 42
-0.0059660097745794
 10
72.69339691284623
 20
61.95922482697513
 42
-0.0059660097745928
 10
72.84331752219518
 20
61.77203543424163
 42
-0.1776565509495538
 10
72.81438953550608
 20
61.54752422714944
 42
-0.0731526145660849
 10
72.68474847525718
 20
61.36815238076393
 42
0.8094272134003737
 10
73.23856121418473
 20
60.53931304424744
 42
-0.0731526145660843
 10
73.45389067768079
 20
60.59044313254003
 42
-0.177656550948699
 10
73.67238224796958
 20
60.53125238802343
 42
-0.0059660097745794
 10
73.7879505632516
 20
60.32110952623184
 42
-0.0059660097745927
 10
73.89847165122377
 20
60.10826886523644
 42
-0.1776565509495518
 10
73.82629954399961
 20
59.89371514827323
 42
-0.0731526145660849
 10
73.66415578909967
 20
59.74308159781013
 42
0.8094272134003737
 10
74.04562863847902
 20
58.82212467116143
 42
-0.0731526145660843
 10
74.26679559210278
 20
58.83026361477164
 42
-0.1776565509486923
 10
74.46954136672606
 20
58.72958461300812
 42
-0.0059660097745795
 10
74.54189223065937
 20
58.50093332753793
 42
-0.0059660097745925
 10
74.60876653382498
 20
58.27062074552023
 42
-0.177656550949553
 10
74.49612383967168
 20
58.07426969770592
 42
-0.0731526145660849
 10
74.3077084836902
 20
57.95816320603313
 42
0.8094272134003737
 10
74.502181655852
 20
56.98048054746503
 42
-0.0731526145660843
 10
74.7206867776077
 20
56.94531557135402
 42
-0.1776565509487031
 10
74.89989535014787
 20
56.80701734992002
 42
-0.0059660097745792
 10
74.9262483596063
 20
56.56864458144262
 42
-0.0059660097745927
 10
74.94690593599822
 20
56.32971086176892
 42
-0.1776565509495524
 10
74.79812145048132
 20
56.15910814375602
 42
-0.0731526145660849
 10
74.59067518988407
 20
56.08199061823523
 42
0.8094272134003737
 10
74.59067518988407
 20
55.08515402402552
 42
-0.0731526145660843
 10
74.7981214504817
 20
55.00803649850473
 42
-0.1776565509486961
 10
74.94690593599731
 20
54.83743378049143
 42
-0.0059660097745793
 10
74.9262483596063
 20
54.59850006081853
 42
-0.0059660097745928
 10
74.89989535014861
 20
54.36012729234013
 42
-0.1776565509495502
 10
74.72068677760741
 20
54.22182907090673
 42
-0.0731526145660849
 10
74.502181655852
 20
54.18666409479582
 42
0.8094272134003737
 10
74.3077084836902
 20
53.20898143622763
 42
-0.0731526145660843
 10
74.49612383967197
 20
53.09287494455463
 42
-0.1776565509487051
 10
74.60876653382407
 20
52.89652389674023
 42
-0.0059660097745795
 10
74.54189223065949
 20
52.66621131472322
 42
-0.0059660097745926
 10
74.46954136672669
 20
52.43756002925182
 42
-0.1776565509495511
 10
74.2667955921025
 20
52.33688102748923
 42
-0.0731526145660849
 10
74.04562863847902
 20
52.34501997109933
 42
0.8094272134003737
 10
73.66415578909967
 20
51.4240630444507
 42
-0.0731526145660843
 10
73.82629954399978
 20
51.27342949398731
 42
-0.1776565509487028
 10
73.89847165122288
 20
51.05887577702423
 42
-0.0059660097745792
 10
73.78795056325181
 20
50.8460351160292
 42
-0.0059660097745926
 10
73.67238224796998
 20
50.63589225423651
 42
-0.1776565509495557
 10
73.45389067768049
 20
50.57670150972082
 42
-0.0731526145660849
 10
73.23856121418473
 20
50.6278315980134
 42
0.8094272134003737
 10
72.68474847525717
 20
49.79899226149682
 42
-0.0731526145660843
 10
72.81438953550618
 20
49.6196204151111
 42
-0.1776565509486931
 10
72.8433175221942
 20
49.39510920801921
 42
-0.0059660097745793
 10
72.69339691284627
 20
49.2079198152859
 42
-0.0059660097745927
 10
72.53905237176038
 20
49.02436104950091
 42
-0.1776565509495544
 10
72.31321151432037
 20
49.00893322934941
 42
-0.0731526145660849
 10
72.1119945314763
 20
49.10108956170542
 42
0.8094272134003737
 10
71.40712461597566
 20
48.39621964620481
 42
-0.0731526145660843
 10
71.4992809483319
 20
48.19500266336043
 42
-0.1776565509486969
 10
71.48385312817928
 20
47.9691618059209
 42
-0.005966009774579
 10
71.3002943623954
 20
47.8148172648349
 42
-0.0059660097745931
 10
71.11310496966196
 20
47.66489665548592
 42
-0.1776565509495458
 10
70.88859376256967
 20
47.69382464217502
 42
-0.0731526145660849
 10
70.70922191618429
 20
47.823465702424
 42
0.8094272134003737
 10
69.88038257966771
 20
47.26965296349643
 42
-0.0731526145660843
 10
69.93151266796039
 20
47.05432350000031
 42
-0.1776565509487025
 10
69.8723219234438
 20
46.83583192971152
 42
-0.0059660097745788
 10
69.66217906165197
 20
46.72026361442941
 42
-0.0059660097745929
 10
69.44933840065677
 20
46.60974252645723
 42
-0.1776565509495488
 10
69.23478468369362
 20
46.6819146336815
 42
-0.0731526145660849
 10
69.08415113323038
 20
46.84405838858142
 42
0.8094272134003737
 10
68.16319420658178
 20
46.46258553920221
 42
-0.0731526145660843
 10
68.17133315019187
 20
46.2414185855783
 42
-0.1776565509486932
 10
68.07065414842852
 20
46.03867281095502
 42
-0.0059660097745791
 10
67.84200286295807
 20
45.96632194702171
 42
-0.0059660097745931
 10
67.6116902809406
 20
45.89944764385611
 42
-0.1776565509495449
 10
67.41533923312626
 20
46.0120903380094
 42
-0.0731526145660849
 10
67.29923274145348
 20
46.20050569399091
 42
0.8094272134003737
 10
66.32155008288528
 20
46.00603252182911
 42
-0.0731526145660843
 10
66.28638510677429
 20
45.78752740007342
 42
-0.1776565509486995
 10
66.14808688534028
 20
45.60831882753332
 42
-0.0059660097745795
  0
CIRCLE
  5
180
330
1F
100
AcDbEntity
  8
0
 62
     1
100
AcDbCircle
 10
64.9246418565507
 20
55.58357232113043
 30
0.0
 40
2.46
  0
ENDSEC
  0
SECTION
  2
OBJECTS
  0
DICTIONARY
  5
C
330
0
100
AcDbDictionary
281
     1
  3
ACAD_DETAILVIEWSTYLE
350
B5
  3
ACAD_GROUP
350
D
  3
ACAD_IMAGE_VARS
350
6A
  3
ACAD_LAYOUT
350
1A
  3
ACAD_MATERIAL
350
72
  3
ACAD_MLEADERSTYLE
350
3F
  3
ACAD_MLINESTYLE
350
17
  3
ACAD_PLOTSETTINGS
350
19
  3
ACAD_PLOTSTYLENAME
350
E
  3
ACAD_SCALELIST
350
40
  3
ACAD_SECTIONVIEWSTYLE
350
B6
  3
ACAD_TABLESTYLE
350
3B
  3
ACAD_VISUALSTYLE
350
2A
  3
ACDB_RECOMPOSE_DATA
350
1D1
  3
AcDbVariableDictionary
350
3D
  3
APPDATA
350
71
  0
SUN
  5
80
330
29
100
AcDbSun
 90
        1
290
     0
 63
     7
421
 16777215
 40
1.0
291
     1
 91
  2455826
 92
 54000000
292
     0
 70
     2
 71
   256
280
     1
  0
DICTIONARY
  5
F8
330
2
100
AcDbDictionary
280
     1
281
     1
  3
ACAD_LAYERSTATES
360
F9
  0
DICTIONARY
  5
B5
102
{ACAD_REACTORS
330
C
102
}
330
C
100
AcDbDictionary
281
     1
  0
DICTIONARY
  5
D
102
{ACAD_REACTORS
330
C
102
}
330
C
100
AcDbDictionary
281
     1
  0
RASTERVARIABLES
  5
6A
102
{ACAD_REACTORS
330
C
102
}
330
C
100
AcDbRasterVariables
 90
        0
 70
     1
 71
     1
 72
     1
  0
DICTIONARY
  5
1A
102
{ACAD_REACTORS
330
C
102
}
330
C
100
AcDbDictionary
281
     1
  3
Model
350
22
  3
Sheet1
350
1E
  3
Sheet2
350
26
  0
DICTIONARY
  5
72
102
{ACAD_REACTORS
330
C
102
}
330
C
100
AcDbDictionary
281
     1
  3
ByBlock
350
74
  3
ByLayer
350
73
  3
Global
350
75
  0
DICTIONARY
  5
3F
102
{ACAD_REACTORS
330
C
102
}
330
C
100
AcDbDictionary
281
     1
  3
Standard
350
B7
  0
DICTIONARY
  5
17
102
{ACAD_REACTORS
330
C
102
}
330
C
100
AcDbDictionary
281
     1
  3
Standard
350
18
  0
DICTIONARY
  5
19
102
{ACAD_REACTORS
330
C
102
}
330
C
100
AcDbDictionary
281
     1
  0
ACDBDICTIONARYWDFLT
  5
E
102
{ACAD_REACTORS
330
C
102
}
330
C
100
AcDbDictionary
281
     1
  3
Normal
350
F
100
AcDbDictionaryWithDefault
340
F
  0
DICTIONARY
  5
40
102
{ACAD_REACTORS
330
C
102
}
330
C
100
AcDbDictionary
281
     1
  3
A0
350
41
  3
A1
350
42
  3
A2
350
43
  3
A3
350
44
  3
A4
350
45
  3
A5
350
46
  3
A6
350
47
  3
A7
350
48
  3
A8
350
49
  3
A9
350
4A
  3
B0
350
4B
  3
B1
350
4C
  3
B2
350
4D
  3
B3
350
4E
  3
B4
350
4F
  3
B5
350
50
  3
B6
350
51
  3
B7
350
52
  3
B8
350
53
  3
B9
350
54
  3
C0
350
55
  3
C1
350
56
  3
C2
350
57
  3
C3
350
58
  3
C4
350
59
  3
C5
350
5A
  3
C6
350
5B
  3
C7
350
5C
  3
C8
350
5D
  3
C9
350
5E
  3
D0
350
5F
  3
D1
350
60
  3
D2
350
61
  0
DICTIONARY
  5
B6
102
{ACAD_REACTORS
330
C
102
}
330
C
100
AcDbDictionary
281
     1
  0
DICTIONARY
  5
3B
102
{ACAD_REACTORS
330
C
102
}
330
C
100
AcDbDictionary
281
     1
  3
Standard
350
3C
  0
DICTIONARY
  5
2A
102
{ACAD_REACTORS
330
C
102
}
330
C
100
AcDbDictionary
281
     1
  3
2dWireframe
350
2F
  3
3D Hidden
350
31
  3
3dWireframe
350
30
  3
Basic
350
32
  3
Brighten
350
36
  3
ColorChange
350
3A
  3
Conceptual
350
34
  3
Dim
350
35
  3
EdgeColorOff
350
7A
  3
Facepattern
350
39
  3
Flat
350
2B
  3
FlatWithEdges
350
2C
  3
Gouraud
350
2D
  3
GouraudWithEdges
350
2E
  3
Hidden
350
77
  3
JitterOff
350
78
  3
Linepattern
350
38
  3
OverhangOff
350
79
  3
Realistic
350
33
  3
Shaded
350
7F
  3
Shaded with edges
350
7E
  3
Shades of Gray
350
7B
  3
Sketchy
350
7C
  3
Thicken
350
37
  3
Wireframe
350
76
  3
X-Ray
350
7D
  0
XRECORD
  5
1D1
102
{ACAD_REACTORS
330
C
102
}
330
C
100
AcDbXrecord
280
     1
 90
        1
330
3C
  0
DICTIONARY
  5
3D
102
{ACAD_REACTORS
330
C
102
}
330
C
100
AcDbDictionary
281
     1
  3
CANNOSCALE
350
62
  3
CMLEADERSTYLE
350
11E
  3
CTABLESTYLE
350
3E
  3
HPTRANSPARENCY
350
14F
  3
LIGHTSINBLOCKS
350
6F
  3
XCLIPFRAME
350
70
  0
DICTIONARY
  5
71
102
{ACAD_REACTORS
330
C
102
}
330
C
100
AcDbDictionary
281
     1
  0
DICTIONARY
  5
F9
102
{ACAD_REACTORS
330
F8
102
}
330
F8
100
AcDbDictionary
281
     1
  0
LAYOUT
  5
22
102
{ACAD_REACTORS
330
1A
102
}
330
1A
100
AcDbPlotSettings
  1

  2
none_device
  4
ISO_A3_(420.00_x_297.00_MM)
  6

 40
7.5
 41
20.0
 42
7.5
 43
20.0
 44
420.0
 45
297.0
 46
20.78282828282826
 47
0.0
 48
0.0
 49
0.0
140
0.0
141
0.0
142
1.0
143
1.155642023346303
 70
  1204
 72
     1
 73
     0
 74
     1
  7
monochrome.ctb
 75
     0
 76
     0
 77
     2
 78
   300
147
0.8653198653198654
148
-134.1869158878504
149
0.0
100
AcDbLayout
  1
Model
 70
     1
 71
     0
 10
0.0
 20
0.0
 11
420.0
 21
297.0
 12
0.0
 22
0.0
 32
0.0
 14
43.30829139836641
 24
1.957953250491772
 34
0.0
 15
86.42196819836698
 25
129.173953250492
 35
0.0
146
0.0
 13
0.0
 23
0.0
 33
0.0
 16
1.0
 26
0.0
 36
0.0
 17
0.0
 27
1.0
 37
0.0
 76
     0
330
1F
331
29
  0
LAYOUT
  5
1E
102
{ACAD_REACTORS
330
1A
102
}
330
1A
100
AcDbPlotSettings
  1

  2
none_device
  4

  6

 40
0.0
 41
0.0
 42
0.0
 43
0.0
 44
0.0
 45
0.0
 46
0.0
 47
0.0
 48
0.0
 49
0.0
140
0.0
141
0.0
142
1.0
143
1.0
 70
   688
 72
     0
 73
     0
 74
     5
  7

 75
    16
 76
     0
 77
     2
 78
   300
147
1.0
148
0.0
149
0.0
100
AcDbLayout
  1
Sheet1
 70
     1
 71
     1
 10
0.0
 20
0.0
 11
420.0
 21
297.0
 12
0.0
 22
0.0
 32
0.0
 14
1.000000000000000E+20
 24
1.000000000000000E+20
 34
1.000000000000000E+20
 15
-1.000000000000000E+20
 25
-1.000000000000000E+20
 35
-1.000000000000000E+20
146
0.0
 13
0.0
 23
0.0
 33
0.0
 16
1.0
 26
0.0
 36
0.0
 17
0.0
 27
1.0
 37
0.0
 76
     0
330
1B
  0
LAYOUT
  5
26
102
{ACAD_REACTORS
330
1A
102
}
330
1A
100
AcDbPlotSettings
  1

  2
none_device
  4

  6

 40
0.0
 41
0.0
 42
0.0
 43
0.0
 44
0.0
 45
0.0
 46
0.0
 47
0.0
 48
0.0
 49
0.0
140
0.0
141
0.0
142
1.0
143
1.0
 70
   688
 72
     0
 73
     0
 74
     5
  7

 75
    16
 76
     0
 77
     2
 78
   300
147
1.0
148
0.0
149
0.0
100
AcDbLayout
  1
Sheet2
 70
     1
 71
     2
 10
0.0
 20
0.0
 11
0.0
 21
0.0
 12
0.0
 22
0.0
 32
0.0
 14
0.0
 24
0.0
 34
0.0
 15
0.0
 25
0.0
 35
0.0
146
0.0
 13
0.0
 23
0.0
 33
0.0
 16
1.0
 26
0.0
 36
0.0
 17
0.0
 27
1.0
 37
0.0
 76
     0
330
23
  0
MATERIAL
  5
74
102
{ACAD_REACTORS
330
72
102
}
330
72
100
AcDbMaterial
  1
ByBlock
 72
     1
 94
      127
  0
MATERIAL
  5
73
102
{ACAD_REACTORS
330
72
102
}
330
72
100
AcDbMaterial
  1
ByLayer
 72
     1
 94
      127
  0
MATERIAL
  5
75
102
{ACAD_REACTORS
330
72
102
}
330
72
100
AcDbMaterial
  1
Global
 72
     1
 94
      127
  0
MLEADERSTYLE
  5
B7
102
{ACAD_REACTORS
330
3F
102
}
330
3F
100
AcDbMLeaderStyle
179
     2
170
     2
171
     1
172
     0
 90
        2
 40
0.0
 41
0.0
173
     1
 91
-1056964608
340
14
 92
       -2
290
     1
 42
2.0
291
     1
 43
8.0
  3
Standard
341
0
 44
4.0
300

342
11
174
     1
178
     6
175
     1
176
     0
 93
-1056964608
 45
4.0
292
     0
297
     0
 46
4.0
343
0
 94
-1056964608
 47
1.0
 49
1.0
140
1.0
293
     1
141
0.0
294
     1
177
     0
142
1.0
295
     0
296
     0
143
3.75
271
     0
272
     9
273
     9
298
     0
  0
MLINESTYLE
  5
18
102
{ACAD_REACTORS
330
17
102
}
330
17
100
AcDbMlineStyle
  2
Standard
 70
     0
  3

 62
   256
 51
90.0
 52
90.0
 71
     2
 49
0.5
 62
   256
  6
BYLAYER
 49
-0.5
 62
   256
  6
BYLAYER
  0
ACDBPLACEHOLDER
  5
F
102
{ACAD_REACTORS
330
E
102
}
330
E
  0
SCALE
  5
41
102
{ACAD_REACTORS
330
40
102
}
330
40
100
AcDbScale
 70
     0
300
1:1
140
1.0
141
1.0
290
     1
  0
SCALE
  5
42
102
{ACAD_REACTORS
330
40
102
}
330
40
100
AcDbScale
 70
     0
300
1:2
140
1.0
141
2.0
290
     0
  0
SCALE
  5
43
102
{ACAD_REACTORS
330
40
102
}
330
40
100
AcDbScale
 70
     0
300
1:4
140
1.0
141
4.0
290
     0
  0
SCALE
  5
44
102
{ACAD_REACTORS
330
40
102
}
330
40
100
AcDbScale
 70
     0
300
1:5
140
1.0
141
5.0
290
     0
  0
SCALE
  5
45
102
{ACAD_REACTORS
330
40
102
}
330
40
100
AcDbScale
 70
     0
300
1:8
140
1.0
141
8.0
290
     0
  0
SCALE
  5
46
102
{ACAD_REACTORS
330
40
102
}
330
40
100
AcDbScale
 70
     0
300
1:10
140
1.0
141
10.0
290
     0
  0
SCALE
  5
47
102
{ACAD_REACTORS
330
40
102
}
330
40
100
AcDbScale
 70
     0
300
1:16
140
1.0
141
16.0
290
     0
  0
SCALE
  5
48
102
{ACAD_REACTORS
330
40
102
}
330
40
100
AcDbScale
 70
     0
300
1:20
140
1.0
141
20.0
290
     0
  0
SCALE
  5
49
102
{ACAD_REACTORS
330
40
102
}
330
40
100
AcDbScale
 70
     0
300
1:30
140
1.0
141
30.0
290
     0
  0
SCALE
  5
4A
102
{ACAD_REACTORS
330
40
102
}
330
40
100
AcDbScale
 70
     0
300
1:40
140
1.0
141
40.0
290
     0
  0
SCALE
  5
4B
102
{ACAD_REACTORS
330
40
102
}
330
40
100
AcDbScale
 70
     0
300
1:50
140
1.0
141
50.0
290
     0
  0
SCALE
  5
4C
102
{ACAD_REACTORS
330
40
102
}
330
40
100
AcDbScale
 70
     0
300
1:100
140
1.0
141
100.0
290
     0
  0
SCALE
  5
4D
102
{ACAD_REACTORS
330
40
102
}
330
40
100
AcDbScale
 70
     0
300
2:1
140
2.0
141
1.0
290
     0
  0
SCALE
  5
4E
102
{ACAD_REACTORS
330
40
102
}
330
40
100
AcDbScale
 70
     0
300
4:1
140
4.0
141
1.0
290
     0
  0
SCALE
  5
4F
102
{ACAD_REACTORS
330
40
102
}
330
40
100
AcDbScale
 70
     0
300
8:1
140
8.0
141
1.0
290
     0
  0
SCALE
  5
50
102
{ACAD_REACTORS
330
40
102
}
330
40
100
AcDbScale
 70
     0
300
10:1
140
10.0
141
1.0
290
     0
  0
SCALE
  5
51
102
{ACAD_REACTORS
330
40
102
}
330
40
100
AcDbScale
 70
     0
300
100:1
140
100.0
141
1.0
290
     0
  0
SCALE
  5
52
102
{ACAD_REACTORS
330
40
102
}
330
40
100
AcDbScale
 70
     0
300
1/128" = 1'-0"
140
0.0078125
141
12.0
290
     0
  0
SCALE
  5
53
102
{ACAD_REACTORS
330
40
102
}
330
40
100
AcDbScale
 70
     0
300
1/64" = 1'-0"
140
0.015625
141
12.0
290
     0
  0
SCALE
  5
54
102
{ACAD_REACTORS
330
40
102
}
330
40
100
AcDbScale
 70
     0
300
1/32" = 1'-0"
140
0.03125
141
12.0
290
     0
  0
SCALE
  5
55
102
{ACAD_REACTORS
330
40
102
}
330
40
100
AcDbScale
 70
     0
300
1/16" = 1'-0"
140
0.0625
141
12.0
290
     0
  0
SCALE
  5
56
102
{ACAD_REACTORS
330
40
102
}
330
40
100
AcDbScale
 70
     0
300
3/32" = 1'-0"
140
0.09375
141
12.0
290
     0
  0
SCALE
  5
57
102
{ACAD_REACTORS
330
40
102
}
330
40
100
AcDbScale
 70
     0
300
1/8" = 1'-0"
140
0.125
141
12.0
290
     0
  0
SCALE
  5
58
102
{ACAD_REACTORS
330
40
102
}
330
40
100
AcDbScale
 70
     0
300
3/16" = 1'-0"
140
0.1875
141
12.0
290
     0
  0
SCALE
  5
59
102
{ACAD_REACTORS
330
40
102
}
330
40
100
AcDbScale
 70
     0
300
1/4" = 1'-0"
140
0.25
141
12.0
290
     0
  0
SCALE
  5
5A
102
{ACAD_REACTORS
330
40
102
}
330
40
100
AcDbScale
 70
     0
300
3/8" = 1'-0"
140
0.375
141
12.0
290
     0
  0
SCALE
  5
5B
102
{ACAD_REACTORS
330
40
102
}
330
40
100
AcDbScale
 70
     0
300
1/2" = 1'-0"
140
0.5
141
12.0
290
     0
  0
SCALE
  5
5C
102
{ACAD_REACTORS
330
40
102
}
330
40
100
AcDbScale
 70
     0
300
3/4" = 1'-0"
140
0.75
141
12.0
290
     0
  0
SCALE
  5
5D
102
{ACAD_REACTORS
330
40
102
}
330
40
100
AcDbScale
 70
     0
300
1" = 1'-0"
140
1.0
141
12.0
290
     0
  0
SCALE
  5
5E
102
{ACAD_REACTORS
330
40
102
}
330
40
100
AcDbScale
 70
     0
300
1-1/2" = 1'-0"
140
1.5
141
12.0
290
     0
  0
SCALE
  5
5F
102
{ACAD_REACTORS
330
40
102
}
330
40
100
AcDbScale
 70
     0
300
3" = 1'-0"
140
3.0
141
12.0
290
     0
  0
SCALE
  5
60
102
{ACAD_REACTORS
330
40
102
}
330
40
100
AcDbScale
 70
     0
300
6" = 1'-0"
140
6.0
141
12.0
290
     0
  0
SCALE
  5
61
102
{ACAD_REACTORS
330
40
102
}
330
40
100
AcDbScale
 70
     0
300
1'-0" = 1'-0"
140
12.0
141
12.0
290
     0
  0
TABLESTYLE
  5
3C
102
{ACAD_REACTORS
330
3B
102
}
102
{ACAD_XDICTIONARY
360
1CF
102
}
330
3B
100
AcDbTableStyle
  3
Standard
 70
     0
 71
     0
 40
1.5
 41
1.5
280
     0
281
     0
  7
Standard
140
4.5
170
     2
 62
     0
 63
   257
283
     0
 90
      512
 91
        0
  1

274
    -2
284
     1
 64
     0
275
    -2
285
     1
 65
     0
276
    -2
286
     1
 66
     0
277
    -2
287
     1
 67
     0
278
    -2
288
     1
 68
     0
279
    -2
289
     1
 69
     0
  7
Standard
140
6.0
170
     5
 62
     0
 63
   257
283
     0
 90
      512
 91
        0
  1

274
    -2
284
     1
 64
     0
275
    -2
285
     1
 65
     0
276
    -2
286
     1
 66
     0
277
    -2
287
     1
 67
     0
278
    -2
288
     1
 68
     0
279
    -2
289
     1
 69
     0
  7
Standard
140
4.5
170
     5
 62
     0
 63
   257
283
     0
 90
      512
 91
        0
  1

274
    -2
284
     1
 64
     0
275
    -2
285
     1
 65
     0
276
    -2
286
     1
 66
     0
277
    -2
287
     1
 67
     0
278
    -2
288
     1
 68
     0
279
    -2
289
     1
 69
     0
  0
VISUALSTYLE
  5
2F
102
{ACAD_REACTORS
330
2A
102
}
330
2A
100
AcDbVisualStyle
  2
2dWireframe
 70
     4
177
     3
291
     0
 70
    58
 90
        0
176
     1
 90
        2
176
     1
 90
        0
176
     1
 90
        0
176
     1
 40
-0.6
176
     1
 40
-30.0
176
     1
 62
     7
420
 16777215
176
     1
 90
        1
176
     1
 90
        4
176
     1
 62
     7
176
     1
 62
   257
176
     1
 90
        1
176
     1
 90
        1
176
     1
 40
1.0
176
     1
 90
        0
176
     1
 62
   257
176
     1
 40
1.0
176
     1
 90
        1
176
     1
 90
        6
176
     1
 90
        2
176
     1
 62
     7
176
     1
 90
        5
176
     1
 90
        0
176
     1
 90
        0
176
     1
290
     0
176
     1
 90
        1
176
     1
 40
0.0
176
     1
 90
        0
176
     1
290
     1
176
     1
290
     1
176
     1
290
     0
176
     1
290
     0
176
     1
290
     0
176
     1
290
     0
176
     1
290
     0
176
     1
290
     0
176
     1
290
     0
176
     1
 90
       50
176
     1
 40
0.0
176
     1
 40
1.0
176
     1
 90
        0
176
     1
 62
   178
420
        0
176
     1
 90
       50
176
     1
 90
        3
176
     1
 62
     5
420
      255
176
     1
290
     0
176
     1
 90
       50
176
     1
 90
       50
176
     1
 90
       50
176
     1
290
     0
176
     1
 90
       50
176
     1
 62
   256
176
     0
 40
1.0
176
     0
 90
        2
176
     1
  1
strokes_ogs.tif
176
     1
290
     0
176
     1
 40
1.0
176
     1
 40
1.0
176
     1
  0
VISUALSTYLE
  5
31
102
{ACAD_REACTORS
330
2A
102
}
330
2A
100
AcDbVisualStyle
  2
3D Hidden
 70
     6
177
     3
291
     0
 70
    58
 90
        1
176
     1
 90
        2
176
     1
 90
        2
176
     1
 90
        0
176
     1
 40
-0.6
176
     1
 40
-30.0
176
     1
 62
     7
420
 16777215
176
     1
 90
        2
176
     1
 90
        2
176
     1
 62
     7
176
     1
 62
   257
176
     1
 90
        2
176
     1
 90
        1
176
     1
 40
40.0
176
     1
 90
        0
176
     1
 62
   257
176
     1
 40
1.0
176
     1
 90
        1
176
     1
 90
        6
176
     1
 90
        2
176
     1
 62
     7
176
     1
 90
        3
176
     1
 90
        0
176
     1
 90
        0
176
     1
290
     0
176
     1
 90
        1
176
     1
 40
0.0
176
     1
 90
        0
176
     1
290
     0
176
     1
290
     1
176
     1
290
     1
176
     1
290
     0
176
     1
290
     0
176
     1
290
     0
176
     1
290
     0
176
     1
290
     0
176
     1
290
     0
176
     1
 90
       50
176
     1
 40
0.0
176
     1
 40
1.0
176
     1
 90
        0
176
     1
 62
   178
420
        0
176
     1
 90
       50
176
     1
 90
        3
176
     1
 62
     5
420
      255
176
     1
290
     0
176
     1
 90
       50
176
     1
 90
       50
176
     1
 90
       50
176
     1
290
     0
176
     1
 90
       50
176
     1
 62
   256
176
     0
 40
1.0
176
     0
 90
        2
176
     1
  1
strokes_ogs.tif
176
     1
290
     0
176
     1
 40
1.0
176
     1
 40
1.0
176
     1
  0
VISUALSTYLE
  5
30
102
{ACAD_REACTORS
330
2A
102
}
330
2A
100
AcDbVisualStyle
  2
3dWireframe
 70
     5
177
     3
291
     0
 70
    58
 90
        0
176
     1
 90
        2
176
     1
 90
        0
176
     1
 90
        0
176
     1
 40
-0.6
176
     1
 40
-30.0
176
     1
 62
     7
420
 16777215
176
     1
 90
        1
176
     1
 90
        4
176
     1
 62
     7
176
     1
 62
   257
176
     1
 90
        1
176
     1
 90
        1
176
     1
 40
1.0
176
     1
 90
        0
176
     1
 62
   257
176
     1
 40
1.0
176
     1
 90
        1
176
     1
 90
        6
176
     1
 90
        2
176
     1
 62
     7
176
     1
 90
        5
176
     1
 90
        0
176
     1
 90
        0
176
     1
290
     0
176
     1
 90
        1
176
     1
 40
0.0
176
     1
 90
        0
176
     1
290
     0
176
     1
290
     1
176
     1
290
     1
176
     1
290
     0
176
     1
290
     0
176
     1
290
     0
176
     1
290
     0
176
     1
290
     0
176
     1
290
     0
176
     1
 90
       50
176
     1
 40
0.0
176
     1
 40
1.0
176
     1
 90
        0
176
     1
 62
   178
420
        0
176
     1
 90
       50
176
     1
 90
        3
176
     1
 62
     5
420
      255
176
     1
290
     0
176
     1
 90
       50
176
     1
 90
       50
176
     1
 90
       50
176
     1
290
     0
176
     1
 90
       50
176
     1
 62
   256
176
     0
 40
1.0
176
     0
 90
        2
176
     1
  1
strokes_ogs.tif
176
     1
290
     0
176
     1
 40
1.0
176
     1
 40
1.0
176
     1
  0
VISUALSTYLE
  5
32
102
{ACAD_REACTORS
330
2A
102
}
330
2A
100
AcDbVisualStyle
  2
Basic
 70
     7
177
     3
291
     1
 70
    58
 90
        1
176
     1
 90
        0
176
     1
 90
        1
176
     1
 90
        0
176
     1
 40
-0.6
176
     1
 40
-30.0
176
     1
 62
     7
420
 16777215
176
     1
 90
        0
176
     1
 90
        4
176
     1
 62
     7
176
     1
 62
   257
176
     1
 90
        1
176
     1
 90
        1
176
     1
 40
1.0
176
     1
 90
        8
176
     1
 62
     7
176
     1
 40
1.0
176
     1
 90
        1
176
     1
 90
        6
176
     1
 90
        2
176
     1
 62
     7
176
     1
 90
        5
176
     1
 90
        0
176
     1
 90
        0
176
     1
290
     0
176
     1
 90
        1
176
     1
 40
0.0
176
     1
 90
        0
176
     1
290
     0
176
     1
290
     1
176
     1
290
     1
176
     1
290
     0
176
     1
290
     0
176
     1
290
     0
176
     1
290
     0
176
     1
290
     0
176
     1
290
     0
176
     1
 90
       50
176
     1
 40
0.0
176
     1
 40
1.0
176
     1
 90
        0
176
     1
 62
   178
420
        0
176
     1
 90
       50
176
     1
 90
        3
176
     1
 62
     5
420
      255
176
     1
290
     0
176
     1
 90
       50
176
     1
 90
       50
176
     1
 90
       50
176
     1
290
     0
176
     1
 90
       50
176
     1
 62
   256
176
     0
 40
1.0
176
     0
 90
        2
176
     1
  1
strokes_ogs.tif
176
     1
290
     0
176
     1
 40
1.0
176
     1
 40
1.0
176
     1
  0
VISUALSTYLE
  5
36
102
{ACAD_REACTORS
330
2A
102
}
330
2A
100
AcDbVisualStyle
  2
Brighten
 70
    12
177
     3
291
     1
 70
    58
 90
        2
176
     1
 90
        2
176
     1
 90
        0
176
     1
 90
        0
176
     1
 40
-0.6
176
     1
 40
-30.0
176
     1
 62
     7
420
 16777215
176
     1
 90
        1
176
     1
 90
        4
176
     1
 62
     7
176
     1
 62
   257
176
     1
 90
        1
176
     1
 90
        1
176
     1
 40
1.0
176
     1
 90
        8
176
     1
 62
     7
176
     1
 40
1.0
176
     1
 90
        1
176
     1
 90
        6
176
     1
 90
        2
176
     1
 62
     7
176
     1
 90
        5
176
     1
 90
        0
176
     1
 90
        0
176
     1
290
     0
176
     1
 90
        1
176
     1
 40
50.0
176
     1
 90
        0
176
     1
290
     0
176
     1
290
     1
176
     1
290
     1
176
     1
290
     0
176
     1
290
     0
176
     1
290
     0
176
     1
290
     0
176
     1
290
     0
176
     1
290
     0
176
     1
 90
       50
176
     1
 40
0.0
176
     1
 40
1.0
176
     1
 90
        0
176
     1
 62
   178
420
        0
176
     1
 90
       50
176
     1
 90
        3
176
     1
 62
     5
420
      255
176
     1
290
     0
176
     1
 90
       50
176
     1
 90
       50
176
     1
 90
       50
176
     1
290
     0
176
     1
 90
       50
176
     1
 62
   256
176
     0
 40
1.0
176
     0
 90
        2
176
     1
  1
strokes_ogs.tif
176
     1
290
     0
176
     1
 40
1.0
176
     1
 40
1.0
176
     1
  0
VISUALSTYLE
  5
3A
102
{ACAD_REACTORS
330
2A
102
}
330
2A
100
AcDbVisualStyle
  2
ColorChange
 70
    16
177
     3
291
     1
 70
    58
 90
        2
176
     1
 90
        2
176
     1
 90
        3
176
     1
 90
        0
176
     1
 40
-0.6
176
     1
 40
-30.0
176
     1
 62
     8
420
  8421504
176
     1
 90
        1
176
     1
 90
        4
176
     1
 62
     7
176
     1
 62
   257
176
     1
 90
        1
176
     1
 90
        1
176
     1
 40
1.0
176
     1
 90
        8
176
     1
 62
     8
420
  8421504
176
     1
 40
1.0
176
     1
 90
        1
176
     1
 90
        6
176
     1
 90
        2
176
     1
 62
     7
176
     1
 90
        5
176
     1
 90
        0
176
     1
 90
        0
176
     1
290
     0
176
     1
 90
        1
176
     1
 40
0.0
176
     1
 90
        0
176
     1
290
     0
176
     1
290
     1
176
     1
290
     1
176
     1
290
     0
176
     1
290
     0
176
     1
290
     0
176
     1
290
     0
176
     1
290
     0
176
     1
290
     0
176
     1
 90
       50
176
     1
 40
0.0
176
     1
 40
1.0
176
     1
 90
        0
176
     1
 62
   178
420
        0
176
     1
 90
       50
176
     1
 90
        3
176
     1
 62
     5
420
      255
176
     1
290
     0
176
     1
 90
       50
176
     1
 90
       50
176
     1
 90
       50
176
     1
290
     0
176
     1
 90
       50
176
     1
 62
   256
176
     0
 40
1.0
176
     0
 90
        2
176
     1
  1
strokes_ogs.tif
176
     1
290
     0
176
     1
 40
1.0
176
     1
 40
1.0
176
     1
  0
VISUALSTYLE
  5
34
102
{ACAD_REACTORS
330
2A
102
}
330
2A
100
AcDbVisualStyle
  2
Conceptual
 70
     9
177
     3
291
     0
 70
    58
 90
        3
176
     1
 90
        2
176
     1
 90
        0
176
     1
 90
        0
176
     1
 40
-0.6
176
     1
 40
-30.0
176
     1
 62
     7
420
 16777215
176
     1
 90
        2
176
     1
 90
        2
176
     1
 62
     7
176
     1
 62
   257
176
     1
 90
        1
176
     1
 90
        1
176
     1
 40
40.0
176
     1
 90
        8
176
     1
 62
     7
176
     1
 40
1.0
176
     1
 90
        1
176
     1
 90
        6
176
     1
 90
        2
176
     1
 62
     7
176
     1
 90
        3
176
     1
 90
        0
176
     1
 90
        0
176
     1
290
     0
176
     1
 90
        1
176
     1
 40
0.0
176
     1
 90
        0
176
     1
290
     0
176
     1
290
     1
176
     1
290
     1
176
     1
290
     0
176
     1
290
     0
176
     1
290
     0
176
     1
290
     0
176
     1
290
     0
176
     1
290
     0
176
     1
 90
       50
176
     1
 40
0.0
176
     1
 40
1.0
176
     1
 90
        0
176
     1
 62
   178
420
        0
176
     1
 90
       50
176
     1
 90
        3
176
     1
 62
     5
420
      255
176
     1
290
     0
176
     1
 90
       50
176
     1
 90
       50
176
     1
 90
       50
176
     1
290
     0
176
     1
 90
       50
176
     1
 62
   256
176
     0
 40
1.0
176
     0
 90
        2
176
     1
  1
strokes_ogs.tif
176
     1
290
     0
176
     1
 40
1.0
176
     1
 40
1.0
176
     1
  0
VISUALSTYLE
  5
35
102
{ACAD_REACTORS
330
2A
102
}
330
2A
100
AcDbVisualStyle
  2
Dim
 70
    11
177
     3
291
     1
 70
    58
 90
        2
176
     1
 90
        2
176
     1
 90
        0
176
     1
 90
        0
176
     1
 40
-0.6
176
     1
 40
-30.0
176
     1
 62
     7
420
 16777215
176
     1
 90
        1
176
     1
 90
        4
176
     1
 62
     7
176
     1
 62
   257
176
     1
 90
        1
176
     1
 90
        1
176
     1
 40
1.0
176
     1
 90
        8
176
     1
 62
     7
176
     1
 40
1.0
176
     1
 90
        1
176
     1
 90
        6
176
     1
 90
        2
176
     1
 62
     7
176
     1
 90
        5
176
     1
 90
        0
176
     1
 90
        0
176
     1
290
     0
176
     1
 90
        1
176
     1
 40
-50.0
176
     1
 90
        0
176
     1
290
     0
176
     1
290
     1
176
     1
290
     1
176
     1
290
     0
176
     1
290
     0
176
     1
290
     0
176
     1
290
     0
176
     1
290
     0
176
     1
290
     0
176
     1
 90
       50
176
     1
 40
0.0
176
     1
 40
1.0
176
     1
 90
        0
176
     1
 62
   178
420
        0
176
     1
 90
       50
176
     1
 90
        3
176
     1
 62
     5
420
      255
176
     1
290
     0
176
     1
 90
       50
176
     1
 90
       50
176
     1
 90
       50
176
     1
290
     0
176
     1
 90
       50
176
     1
 62
   256
176
     0
 40
1.0
176
     0
 90
        2
176
     1
  1
strokes_ogs.tif
176
     1
290
     0
176
     1
 40
1.0
176
     1
 40
1.0
176
     1
  0
VISUALSTYLE
  5
7A
102
{ACAD_REACTORS
330
2A
102
}
330
2A
100
AcDbVisualStyle
  2
EdgeColorOff
 70
    22
177
     3
291
     1
 70
    58
 90
        2
176
     0
 90
        2
176
     0
 90
        0
176
     0
 90
        0
176
     0
 40
0.6
176
     0
 40
30.0
176
     0
 62
     7
420
 16777215
176
     0
 90
        1
176
     0
 90
        4
176
     0
 62
     7
176
     0
 62
   257
176
     0
 90
        1
176
     0
 90
        1
176
     0
 40
1.0
176
     0
 90
        8
176
     2
 62
     7
176
     0
 40
1.0
176
     0
 90
        1
176
     0
 90
        6
176
     0
 90
        2
176
     0
 62
     7
176
     0
 90
        5
176
     0
 90
        0
176
     0
 90
        0
176
     0
290
     0
176
     0
 90
        1
176
     0
 40
0.0
176
     0
 90
        0
176
     0
290
     0
176
     0
290
     1
176
     0
290
     1
176
     0
290
     0
176
     0
290
     0
176
     0
290
     0
176
     0
290
     0
176
     0
290
     0
176
     0
290
     0
176
     0
 90
       50
176
     0
 40
0.0
176
     0
 40
1.0
176
     0
 90
        0
176
     0
 62
   178
420
        0
176
     0
 90
       50
176
     0
 90
        3
176
     0
 62
     5
420
      255
176
     0
290
     0
176
     0
 90
       50
176
     0
 90
       50
176
     0
 90
       50
176
     0
290
     0
176
     0
 90
       50
176
     0
 62
   256
176
     0
 40
1.0
176
     0
 90
        2
176
     0
  1
strokes_ogs.tif
176
     0
290
     0
176
     0
 40
1.0
176
     0
 40
1.0
176
     0
  0
VISUALSTYLE
  5
39
102
{ACAD_REACTORS
330
2A
102
}
330
2A
100
AcDbVisualStyle
  2
Facepattern
 70
    15
177
     3
291
     1
 70
    58
 90
        2
176
     1
 90
        2
176
     1
 90
        0
176
     1
 90
        0
176
     1
 40
-0.6
176
     1
 40
-30.0
176
     1
 62
     7
420
 16777215
176
     1
 90
        1
176
     1
 90
        4
176
     1
 62
     7
176
     1
 62
   257
176
     1
 90
        1
176
     1
 90
        1
176
     1
 40
1.0
176
     1
 90
        8
176
     1
 62
     7
176
     1
 40
1.0
176
     1
 90
        1
176
     1
 90
        6
176
     1
 90
        2
176
     1
 62
     7
176
     1
 90
        5
176
     1
 90
        0
176
     1
 90
        0
176
     1
290
     0
176
     1
 90
        1
176
     1
 40
0.0
176
     1
 90
        0
176
     1
290
     0
176
     1
290
     1
176
     1
290
     1
176
     1
290
     0
176
     1
290
     0
176
     1
290
     0
176
     1
290
     0
176
     1
290
     0
176
     1
290
     0
176
     1
 90
       50
176
     1
 40
0.0
176
     1
 40
1.0
176
     1
 90
        0
176
     1
 62
   178
420
        0
176
     1
 90
       50
176
     1
 90
        3
176
     1
 62
     5
420
      255
176
     1
290
     0
176
     1
 90
       50
176
     1
 90
       50
176
     1
 90
       50
176
     1
290
     0
176
     1
 90
       50
176
     1
 62
   256
176
     0
 40
1.0
176
     0
 90
        2
176
     1
  1
strokes_ogs.tif
176
     1
290
     0
176
     1
 40
1.0
176
     1
 40
1.0
176
     1
  0
VISUALSTYLE
  5
2B
102
{ACAD_REACTORS
330
2A
102
}
330
2A
100
AcDbVisualStyle
  2
Flat
 70
     0
177
     3
291
     1
 70
    58
 90
        2
176
     1
 90
        1
176
     1
 90
        1
176
     1
 90
        2
176
     1
 40
-0.6
176
     1
 40
30.0
176
     1
 62
     7
420
 16777215
176
     1
 90
        0
176
     1
 90
        4
176
     1
 62
     7
176
     1
 62
   257
176
     1
 90
        1
176
     1
 90
        1
176
     1
 40
1.0
176
     1
 90
        8
176
     1
 62
     7
176
     1
 40
1.0
176
     1
 90
        1
176
     1
 90
        6
176
     1
 90
        2
176
     1
 62
     7
176
     1
 90
        5
176
     1
 90
        0
176
     1
 90
        0
176
     1
290
     0
176
     1
 90
       13
176
     1
 40
0.0
176
     1
 90
        0
176
     1
290
     0
176
     1
290
     1
176
     1
290
     1
176
     1
290
     0
176
     1
290
     0
176
     1
290
     0
176
     1
290
     0
176
     1
290
     0
176
     1
290
     0
176
     1
 90
       50
176
     1
 40
0.0
176
     1
 40
1.0
176
     1
 90
        0
176
     1
 62
   178
420
        0
176
     1
 90
       50
176
     1
 90
        3
176
     1
 62
     5
420
      255
176
     1
290
     0
176
     1
 90
       50
176
     1
 90
       50
176
     1
 90
       50
176
     1
290
     0
176
     1
 90
       50
176
     1
 62
   256
176
     0
 40
1.0
176
     0
 90
        2
176
     1
  1
strokes_ogs.tif
176
     1
290
     0
176
     1
 40
1.0
176
     1
 40
1.0
176
     1
  0
VISUALSTYLE
  5
2C
102
{ACAD_REACTORS
330
2A
102
}
330
2A
100
AcDbVisualStyle
  2
FlatWithEdges
 70
     1
177
     3
291
     1
 70
    58
 90
        2
176
     1
 90
        1
176
     1
 90
        1
176
     1
 90
        2
176
     1
 40
-0.6
176
     1
 40
30.0
176
     1
 62
     7
420
 16777215
176
     1
 90
        1
176
     1
 90
        4
176
     1
 62
     7
176
     1
 62
   257
176
     1
 90
        1
176
     1
 90
        1
176
     1
 40
1.0
176
     1
 90
        0
176
     1
 62
   257
176
     1
 40
1.0
176
     1
 90
        1
176
     1
 90
        6
176
     1
 90
        2
176
     1
 62
     7
176
     1
 90
        5
176
     1
 90
        0
176
     1
 90
        0
176
     1
290
     0
176
     1
 90
       13
176
     1
 40
0.0
176
     1
 90
        0
176
     1
290
     0
176
     1
290
     1
176
     1
290
     1
176
     1
290
     0
176
     1
290
     0
176
     1
290
     0
176
     1
290
     0
176
     1
290
     0
176
     1
290
     0
176
     1
 90
       50
176
     1
 40
0.0
176
     1
 40
1.0
176
     1
 90
        0
176
     1
 62
   178
420
        0
176
     1
 90
       50
176
     1
 90
        3
176
     1
 62
     5
420
      255
176
     1
290
     0
176
     1
 90
       50
176
     1
 90
       50
176
     1
 90
       50
176
     1
290
     0
176
     1
 90
       50
176
     1
 62
   256
176
     0
 40
1.0
176
     0
 90
        2
176
     1
  1
strokes_ogs.tif
176
     1
290
     0
176
     1
 40
1.0
176
     1
 40
1.0
176
     1
  0
VISUALSTYLE
  5
2D
102
{ACAD_REACTORS
330
2A
102
}
330
2A
100
AcDbVisualStyle
  2
Gouraud
 70
     2
177
     3
291
     1
 70
    58
 90
        2
176
     1
 90
        2
176
     1
 90
        1
176
     1
 90
        2
176
     1
 40
-0.6
176
     1
 40
30.0
176
     1
 62
     7
420
 16777215
176
     1
 90
        0
176
     1
 90
        4
176
     1
 62
     7
176
     1
 62
   257
176
     1
 90
        1
176
     1
 90
        1
176
     1
 40
1.0
176
     1
 90
        0
176
     1
 62
     7
176
     1
 40
1.0
176
     1
 90
        1
176
     1
 90
        6
176
     1
 90
        2
176
     1
 62
     7
176
     1
 90
        5
176
     1
 90
        0
176
     1
 90
        0
176
     1
290
     0
176
     1
 90
       13
176
     1
 40
0.0
176
     1
 90
        0
176
     1
290
     0
176
     1
290
     1
176
     1
290
     1
176
     1
290
     0
176
     1
290
     0
176
     1
290
     0
176
     1
290
     0
176
     1
290
     0
176
     1
290
     0
176
     1
 90
       50
176
     1
 40
0.0
176
     1
 40
1.0
176
     1
 90
        0
176
     1
 62
   178
420
        0
176
     1
 90
       50
176
     1
 90
        3
176
     1
 62
     5
420
      255
176
     1
290
     0
176
     1
 90
       50
176
     1
 90
       50
176
     1
 90
       50
176
     1
290
     0
176
     1
 90
       50
176
     1
 62
   256
176
     0
 40
1.0
176
     0
 90
        2
176
     1
  1
strokes_ogs.tif
176
     1
290
     0
176
     1
 40
1.0
176
     1
 40
1.0
176
     1
  0
VISUALSTYLE
  5
2E
102
{ACAD_REACTORS
330
2A
102
}
330
2A
100
AcDbVisualStyle
  2
GouraudWithEdges
 70
     3
177
     3
291
     1
 70
    58
 90
        2
176
     1
 90
        2
176
     1
 90
        1
176
     1
 90
        2
176
     1
 40
-0.6
176
     1
 40
30.0
176
     1
 62
     7
420
 16777215
176
     1
 90
        1
176
     1
 90
        4
176
     1
 62
     7
176
     1
 62
   257
176
     1
 90
        1
176
     1
 90
        1
176
     1
 40
1.0
176
     1
 90
        0
176
     1
 62
   257
176
     1
 40
1.0
176
     1
 90
        1
176
     1
 90
        6
176
     1
 90
        2
176
     1
 62
     7
176
     1
 90
        5
176
     1
 90
        0
176
     1
 90
        0
176
     1
290
     0
176
     1
 90
       13
176
     1
 40
0.0
176
     1
 90
        0
176
     1
290
     0
176
     1
290
     1
176
     1
290
     1
176
     1
290
     0
176
     1
290
     0
176
     1
290
     0
176
     1
290
     0
176
     1
290
     0
176
     1
290
     0
176
     1
 90
       50
176
     1
 40
0.0
176
     1
 40
1.0
176
     1
 90
        0
176
     1
 62
   178
420
        0
176
     1
 90
       50
176
     1
 90
        3
176
     1
 62
     5
420
      255
176
     1
290
     0
176
     1
 90
       50
176
     1
 90
       50
176
     1
 90
       50
176
     1
290
     0
176
     1
 90
       50
176
     1
 62
   256
176
     0
 40
1.0
176
     0
 90
        2
176
     1
  1
strokes_ogs.tif
176
     1
290
     0
176
     1
 40
1.0
176
     1
 40
1.0
176
     1
  0
VISUALSTYLE
  5
77
102
{ACAD_REACTORS
330
2A
102
}
330
2A
100
AcDbVisualStyle
  2
Hidden
 70
     6
177
     3
291
     0
 70
    58
 90
        1
176
     1
 90
        2
176
     1
 90
        2
176
     1
 90
        0
176
     1
 40
0.6
176
     1
 40
30.0
176
     1
 62
     7
420
 16777215
176
     1
 90
        2
176
     1
 90
        2
176
     1
 62
     7
176
     1
 62
   257
176
     1
 90
        2
176
     1
 90
        1
176
     1
 40
40.0
176
     1
 90
        0
176
     1
 62
   257
176
     1
 40
1.0
176
     1
 90
        1
176
     1
 90
        6
176
     1
 90
        2
176
     1
 62
     7
176
     1
 90
        3
176
     1
 90
        0
176
     1
 90
        0
176
     1
290
     0
176
     1
 90
        1
176
     1
 40
0.0
176
     1
 90
        0
176
     1
290
     0
176
     1
290
     1
176
     1
290
     1
176
     1
290
     0
176
     1
290
     0
176
     1
290
     0
176
     1
290
     0
176
     1
290
     0
176
     1
290
     0
176
     1
 90
       50
176
     1
 40
0.0
176
     1
 40
1.0
176
     1
 90
        0
176
     1
 62
   178
420
        0
176
     1
 90
       50
176
     1
 90
        3
176
     1
 62
     5
420
      255
176
     1
290
     0
176
     1
 90
       50
176
     1
 90
       50
176
     1
 90
       50
176
     1
290
     0
176
     1
 90
       50
176
     1
 62
   256
176
     0
 40
1.0
176
     0
 90
        2
176
     1
  1
strokes_ogs.tif
176
     1
290
     0
176
     1
 40
1.0
176
     1
 40
1.0
176
     1
  0
VISUALSTYLE
  5
78
102
{ACAD_REACTORS
330
2A
102
}
330
2A
100
AcDbVisualStyle
  2
JitterOff
 70
    20
177
     3
291
     1
 70
    58
 90
        2
176
     0
 90
        2
176
     0
 90
        0
176
     0
 90
        0
176
     0
 40
0.6
176
     0
 40
30.0
176
     0
 62
     7
420
 16777215
176
     0
 90
        1
176
     0
 90
        4
176
     0
 62
     7
176
     0
 62
   257
176
     0
 90
        1
176
     0
 90
        1
176
     0
 40
1.0
176
     0
 90
       10
176
     2
 62
     7
176
     0
 40
1.0
176
     0
 90
        1
176
     0
 90
        6
176
     0
 90
        2
176
     0
 62
     7
176
     0
 90
        5
176
     0
 90
        0
176
     0
 90
        0
176
     0
290
     0
176
     0
 90
        1
176
     0
 40
0.0
176
     0
 90
        0
176
     0
290
     0
176
     0
290
     1
176
     0
290
     1
176
     0
290
     0
176
     0
290
     0
176
     0
290
     0
176
     0
290
     0
176
     0
290
     0
176
     0
290
     0
176
     0
 90
       50
176
     0
 40
0.0
176
     0
 40
1.0
176
     0
 90
        0
176
     0
 62
   178
420
        0
176
     0
 90
       50
176
     0
 90
        3
176
     0
 62
     5
420
      255
176
     0
290
     0
176
     0
 90
       50
176
     0
 90
       50
176
     0
 90
       50
176
     0
290
     0
176
     0
 90
       50
176
     0
 62
   256
176
     0
 40
1.0
176
     0
 90
        2
176
     0
  1
strokes_ogs.tif
176
     0
290
     0
176
     0
 40
1.0
176
     0
 40
1.0
176
     0
  0
VISUALSTYLE
  5
38
102
{ACAD_REACTORS
330
2A
102
}
330
2A
100
AcDbVisualStyle
  2
Linepattern
 70
    14
177
     3
291
     1
 70
    58
 90
        2
176
     1
 90
        2
176
     1
 90
        0
176
     1
 90
        0
176
     1
 40
-0.6
176
     1
 40
-30.0
176
     1
 62
     7
420
 16777215
176
     1
 90
        1
176
     1
 90
        4
176
     1
 62
     7
176
     1
 62
   257
176
     1
 90
        7
176
     1
 90
        7
176
     1
 40
1.0
176
     1
 90
        8
176
     1
 62
     7
176
     1
 40
1.0
176
     1
 90
        1
176
     1
 90
        6
176
     1
 90
        2
176
     1
 62
     7
176
     1
 90
        5
176
     1
 90
        0
176
     1
 90
        0
176
     1
290
     0
176
     1
 90
        1
176
     1
 40
0.0
176
     1
 90
        0
176
     1
290
     0
176
     1
290
     1
176
     1
290
     1
176
     1
290
     0
176
     1
290
     0
176
     1
290
     0
176
     1
290
     0
176
     1
290
     0
176
     1
290
     0
176
     1
 90
       50
176
     1
 40
0.0
176
     1
 40
1.0
176
     1
 90
        0
176
     1
 62
   178
420
        0
176
     1
 90
       50
176
     1
 90
        3
176
     1
 62
     5
420
      255
176
     1
290
     0
176
     1
 90
       50
176
     1
 90
       50
176
     1
 90
       50
176
     1
290
     0
176
     1
 90
       50
176
     1
 62
   256
176
     0
 40
1.0
176
     0
 90
        2
176
     1
  1
strokes_ogs.tif
176
     1
290
     0
176
     1
 40
1.0
176
     1
 40
1.0
176
     1
  0
VISUALSTYLE
  5
79
102
{ACAD_REACTORS
330
2A
102
}
330
2A
100
AcDbVisualStyle
  2
OverhangOff
 70
    21
177
     3
291
     1
 70
    58
 90
        2
176
     0
 90
        2
176
     0
 90
        0
176
     0
 90
        0
176
     0
 40
0.6
176
     0
 40
30.0
176
     0
 62
     7
420
 16777215
176
     0
 90
        1
176
     0
 90
        4
176
     0
 62
     7
176
     0
 62
   257
176
     0
 90
        1
176
     0
 90
        1
176
     0
 40
1.0
176
     0
 90
        9
176
     2
 62
     7
176
     0
 40
1.0
176
     0
 90
        1
176
     0
 90
        6
176
     0
 90
        2
176
     0
 62
     7
176
     0
 90
        5
176
     0
 90
        0
176
     0
 90
        0
176
     0
290
     0
176
     0
 90
        1
176
     0
 40
0.0
176
     0
 90
        0
176
     0
290
     0
176
     0
290
     1
176
     0
290
     1
176
     0
290
     0
176
     0
290
     0
176
     0
290
     0
176
     0
290
     0
176
     0
290
     0
176
     0
290
     0
176
     0
 90
       50
176
     0
 40
0.0
176
     0
 40
1.0
176
     0
 90
        0
176
     0
 62
   178
420
        0
176
     0
 90
       50
176
     0
 90
        3
176
     0
 62
     5
420
      255
176
     0
290
     0
176
     0
 90
       50
176
     0
 90
       50
176
     0
 90
       50
176
     0
290
     0
176
     0
 90
       50
176
     0
 62
   256
176
     0
 40
1.0
176
     0
 90
        2
176
     0
  1
strokes_ogs.tif
176
     0
290
     0
176
     0
 40
1.0
176
     0
 40
1.0
176
     0
  0
VISUALSTYLE
  5
33
102
{ACAD_REACTORS
330
2A
102
}
330
2A
100
AcDbVisualStyle
  2
Realistic
 70
     8
177
     3
291
     0
 70
    58
 90
        2
176
     1
 90
        2
176
     1
 90
        0
176
     1
 90
        0
176
     1
 40
-0.6
176
     1
 40
-30.0
176
     1
 62
     7
420
 16777215
176
     1
 90
        1
176
     1
 90
        0
176
     1
 62
     7
176
     1
 62
   257
176
     1
 90
        1
176
     1
 90
        1
176
     1
 40
1.0
176
     1
 90
        8
176
     1
 62
     8
420
  7895160
176
     1
 40
1.0
176
     1
 90
        1
176
     1
 90
        6
176
     1
 90
        2
176
     1
 62
     7
176
     1
 90
        5
176
     1
 90
        0
176
     1
 90
        0
176
     1
290
     0
176
     1
 90
       13
176
     1
 40
0.0
176
     1
 90
        0
176
     1
290
     0
176
     1
290
     1
176
     1
290
     1
176
     1
290
     0
176
     1
290
     0
176
     1
290
     0
176
     1
290
     0
176
     1
290
     0
176
     1
290
     0
176
     1
 90
       50
176
     1
 40
0.0
176
     1
 40
1.0
176
     1
 90
        0
176
     1
 62
   178
420
        0
176
     1
 90
       50
176
     1
 90
        3
176
     1
 62
     5
420
      255
176
     1
290
     0
176
     1
 90
       50
176
     1
 90
       50
176
     1
 90
       50
176
     1
290
     0
176
     1
 90
       50
176
     1
 62
   256
176
     0
 40
1.0
176
     0
 90
        2
176
     1
  1
strokes_ogs.tif
176
     1
290
     0
176
     1
 40
1.0
176
     1
 40
1.0
176
     1
  0
VISUALSTYLE
  5
7F
102
{ACAD_REACTORS
330
2A
102
}
330
2A
100
AcDbVisualStyle
  2
Shaded
 70
    27
177
     3
291
     0
 70
    58
 90
        2
176
     1
 90
        2
176
     1
 90
        1
176
     1
 90
        2
176
     1
 40
0.6
176
     1
 40
30.0
176
     1
 62
     7
420
 16777215
176
     1
 90
        0
176
     1
 90
        4
176
     1
 62
     7
176
     1
 62
   257
176
     1
 90
        1
176
     1
 90
        1
176
     1
 40
1.0
176
     1
 90
        8
176
     1
 62
   257
176
     1
 40
1.0
176
     1
 90
        1
176
     1
 90
        6
176
     1
 90
        2
176
     1
 62
     8
420
  7895160
176
     1
 90
        3
176
     1
 90
        0
176
     1
 90
        0
176
     1
290
     0
176
     1
 90
        5
176
     1
 40
0.0
176
     1
 90
        0
176
     1
290
     0
176
     1
290
     1
176
     1
290
     1
176
     1
290
     0
176
     1
290
     0
176
     1
290
     0
176
     1
290
     0
176
     1
290
     0
176
     1
290
     0
176
     1
 90
       50
176
     1
 40
0.0
176
     1
 40
1.0
176
     1
 90
        0
176
     1
 62
   178
420
        0
176
     1
 90
       50
176
     1
 90
        3
176
     1
 62
     5
420
      255
176
     1
290
     0
176
     1
 90
       50
176
     1
 90
       50
176
     1
 90
       50
176
     1
290
     0
176
     1
 90
       50
176
     1
 62
   256
176
     0
 40
1.0
176
     0
 90
        2
176
     1
  1
strokes_ogs.tif
176
     1
290
     0
176
     1
 40
1.0
176
     1
 40
1.0
176
     1
  0
VISUALSTYLE
  5
7E
102
{ACAD_REACTORS
330
2A
102
}
330
2A
100
AcDbVisualStyle
  2
Shaded with edges
 70
    26
177
     3
291
     0
 70
    58
 90
        2
176
     1
 90
        2
176
     1
 90
        1
176
     1
 90
        2
176
     1
 40
0.6
176
     1
 40
30.0
176
     1
 62
     7
420
 16777215
176
     1
 90
        1
176
     1
 90
       10
176
     1
 62
     7
176
     1
 62
   257
176
     1
 90
        2
176
     1
 90
        1
176
     1
 40
1.0
176
     1
 90
        8
176
     1
 62
   257
176
     1
 40
1.0
176
     1
 90
        1
176
     1
 90
        6
176
     1
 90
        2
176
     1
 62
     7
176
     1
 90
        3
176
     1
 90
        0
176
     1
 90
        0
176
     1
290
     0
176
     1
 90
        5
176
     1
 40
0.0
176
     1
 90
        0
176
     1
290
     0
176
     1
290
     1
176
     1
290
     1
176
     1
290
     0
176
     1
290
     0
176
     1
290
     0
176
     1
290
     0
176
     1
290
     0
176
     1
290
     0
176
     1
 90
       50
176
     1
 40
0.0
176
     1
 40
1.0
176
     1
 90
        0
176
     1
 62
   178
420
        0
176
     1
 90
       50
176
     1
 90
        3
176
     1
 62
     5
420
      255
176
     1
290
     0
176
     1
 90
       50
176
     1
 90
       50
176
     1
 90
       50
176
     1
290
     0
176
     1
 90
       50
176
     1
 62
   256
176
     0
 40
1.0
176
     0
 90
        2
176
     1
  1
strokes_ogs.tif
176
     1
290
     0
176
     1
 40
1.0
176
     1
 40
1.0
176
     1
  0
VISUALSTYLE
  5
7B
102
{ACAD_REACTORS
330
2A
102
}
330
2A
100
AcDbVisualStyle
  2
Shades of Gray
 70
    23
177
     3
291
     0
 70
    58
 90
        2
176
     1
 90
        2
176
     1
 90
        3
176
     1
 90
        0
176
     1
 40
0.6
176
     1
 40
30.0
176
     1
 62
     7
420
 16777215
176
     1
 90
        2
176
     1
 90
        2
176
     1
 62
     7
176
     1
 62
     7
176
     1
 90
        1
176
     1
 90
        1
176
     1
 40
40.0
176
     1
 90
        8
176
     1
 62
     7
176
     1
 40
1.0
176
     1
 90
        1
176
     1
 90
        6
176
     1
 90
        2
176
     1
 62
     7
176
     1
 90
        3
176
     1
 90
        0
176
     1
 90
        0
176
     1
290
     0
176
     1
 90
        1
176
     1
 40
0.0
176
     1
 90
        0
176
     1
290
     0
176
     1
290
     1
176
     1
290
     1
176
     1
290
     0
176
     1
290
     0
176
     1
290
     0
176
     1
290
     0
176
     1
290
     0
176
     1
290
     0
176
     1
 90
       50
176
     1
 40
0.0
176
     1
 40
1.0
176
     1
 90
        0
176
     1
 62
   178
420
        0
176
     1
 90
       50
176
     1
 90
        3
176
     1
 62
     5
420
      255
176
     1
290
     0
176
     1
 90
       50
176
     1
 90
       50
176
     1
 90
       50
176
     1
290
     0
176
     1
 90
       50
176
     1
 62
   256
176
     0
 40
1.0
176
     0
 90
        2
176
     1
  1
strokes_ogs.tif
176
     1
290
     0
176
     1
 40
1.0
176
     1
 40
1.0
176
     1
  0
VISUALSTYLE
  5
7C
102
{ACAD_REACTORS
330
2A
102
}
330
2A
100
AcDbVisualStyle
  2
Sketchy
 70
    24
177
     3
291
     0
 70
    58
 90
        1
176
     1
 90
        2
176
     1
 90
        2
176
     1
 90
        0
176
     1
 40
0.6
176
     1
 40
30.0
176
     1
 62
     7
420
 16777215
176
     1
 90
        2
176
     1
 90
        2
176
     1
 62
     7
176
     1
 62
     7
176
     1
 90
        1
176
     1
 90
        1
176
     1
 40
40.0
176
     1
 90
       11
176
     1
 62
     7
176
     1
 40
1.0
176
     1
 90
        1
176
     1
 90
        6
176
     1
 90
        2
176
     1
 62
     7
176
     1
 90
        6
176
     1
 90
        0
176
     1
 90
        0
176
     1
290
     0
176
     1
 90
        1
176
     1
 40
0.0
176
     1
 90
        0
176
     1
290
     0
176
     1
290
     1
176
     1
290
     1
176
     1
290
     0
176
     1
290
     0
176
     1
290
     0
176
     1
290
     0
176
     1
290
     0
176
     1
290
     0
176
     1
 90
       50
176
     1
 40
0.0
176
     1
 40
1.0
176
     1
 90
        0
176
     1
 62
   178
420
        0
176
     1
 90
       50
176
     1
 90
        3
176
     1
 62
     5
420
      255
176
     1
290
     0
176
     1
 90
       50
176
     1
 90
       50
176
     1
 90
       50
176
     1
290
     0
176
     1
 90
       50
176
     1
 62
   256
176
     0
 40
1.0
176
     0
 90
        2
176
     1
  1
strokes_ogs.tif
176
     1
290
     0
176
     1
 40
1.0
176
     1
 40
1.0
176
     1
  0
VISUALSTYLE
  5
37
102
{ACAD_REACTORS
330
2A
102
}
330
2A
100
AcDbVisualStyle
  2
Thicken
 70
    13
177
     3
291
     1
 70
    58
 90
        2
176
     1
 90
        2
176
     1
 90
        0
176
     1
 90
        0
176
     1
 40
-0.6
176
     1
 40
-30.0
176
     1
 62
     7
420
 16777215
176
     1
 90
        1
176
     1
 90
        4
176
     1
 62
     7
176
     1
 62
   257
176
     1
 90
        1
176
     1
 90
        1
176
     1
 40
1.0
176
     1
 90
       12
176
     1
 62
     7
176
     1
 40
1.0
176
     1
 90
        1
176
     1
 90
        6
176
     1
 90
        2
176
     1
 62
     7
176
     1
 90
        5
176
     1
 90
        0
176
     1
 90
        0
176
     1
290
     0
176
     1
 90
        1
176
     1
 40
0.0
176
     1
 90
        0
176
     1
290
     0
176
     1
290
     1
176
     1
290
     1
176
     1
290
     0
176
     1
290
     0
176
     1
290
     0
176
     1
290
     0
176
     1
290
     0
176
     1
290
     0
176
     1
 90
       50
176
     1
 40
0.0
176
     1
 40
1.0
176
     1
 90
        0
176
     1
 62
   178
420
        0
176
     1
 90
       50
176
     1
 90
        3
176
     1
 62
     5
420
      255
176
     1
290
     0
176
     1
 90
       50
176
     1
 90
       50
176
     1
 90
       50
176
     1
290
     0
176
     1
 90
       50
176
     1
 62
   256
176
     0
 40
1.0
176
     0
 90
        2
176
     1
  1
strokes_ogs.tif
176
     1
290
     0
176
     1
 40
1.0
176
     1
 40
1.0
176
     1
  0
VISUALSTYLE
  5
76
102
{ACAD_REACTORS
330
2A
102
}
330
2A
100
AcDbVisualStyle
  2
Wireframe
 70
     5
177
     3
291
     0
 70
    58
 90
        0
176
     1
 90
        2
176
     1
 90
        0
176
     1
 90
        0
176
     1
 40
0.6
176
     1
 40
30.0
176
     1
 62
     7
420
 16777215
176
     1
 90
        1
176
     1
 90
        4
176
     1
 62
     7
176
     1
 62
   257
176
     1
 90
        1
176
     1
 90
        1
176
     1
 40
1.0
176
     1
 90
        0
176
     1
 62
   257
176
     1
 40
1.0
176
     1
 90
        1
176
     1
 90
        6
176
     1
 90
        2
176
     1
 62
     7
176
     1
 90
        3
176
     1
 90
        0
176
     1
 90
        0
176
     1
290
     0
176
     1
 90
        1
176
     1
 40
0.0
176
     1
 90
        0
176
     1
290
     0
176
     1
290
     1
176
     1
290
     1
176
     1
290
     0
176
     1
290
     0
176
     1
290
     0
176
     1
290
     0
176
     1
290
     0
176
     1
290
     0
176
     1
 90
       50
176
     1
 40
0.0
176
     1
 40
1.0
176
     1
 90
        0
176
     1
 62
   178
420
        0
176
     1
 90
       50
176
     1
 90
        3
176
     1
 62
     5
420
      255
176
     1
290
     0
176
     1
 90
       50
176
     1
 90
       50
176
     1
 90
       50
176
     1
290
     0
176
     1
 90
       50
176
     1
 62
   256
176
     0
 40
1.0
176
     0
 90
        2
176
     1
  1
strokes_ogs.tif
176
     1
290
     0
176
     1
 40
1.0
176
     1
 40
1.0
176
     1
  0
VISUALSTYLE
  5
7D
102
{ACAD_REACTORS
330
2A
102
}
330
2A
100
AcDbVisualStyle
  2
X-Ray
 70
    25
177
     3
291
     0
 70
    58
 90
        2
176
     1
 90
        2
176
     1
 90
        1
176
     1
 90
        1
176
     1
 40
0.5
176
     1
 40
30.0
176
     1
 62
     7
420
 16777215
176
     1
 90
        1
176
     1
 90
        0
176
     1
 62
     7
176
     1
 62
   257
176
     1
 90
        1
176
     1
 90
        1
176
     1
 40
1.0
176
     1
 90
        8
176
     1
 62
     7
176
     1
 40
1.0
176
     1
 90
        1
176
     1
 90
        6
176
     1
 90
        2
176
     1
 62
     7
176
     1
 90
        3
176
     1
 90
        0
176
     1
 90
        0
176
     1
290
     0
176
     1
 90
       13
176
     1
 40
0.0
176
     1
 90
        0
176
     1
290
     0
176
     1
290
     1
176
     1
290
     1
176
     1
290
     0
176
     1
290
     0
176
     1
290
     0
176
     1
290
     0
176
     1
290
     0
176
     1
290
     0
176
     1
 90
       50
176
     1
 40
0.0
176
     1
 40
1.0
176
     1
 90
        0
176
     1
 62
   178
420
        0
176
     1
 90
       50
176
     1
 90
        3
176
     1
 62
     5
420
      255
176
     1
290
     0
176
     1
 90
       50
176
     1
 90
       50
176
     1
 90
       50
176
     1
290
     0
176
     1
 90
       50
176
     1
 62
   256
176
     0
 40
1.0
176
     0
 90
        2
176
     1
  1
strokes_ogs.tif
176
     1
290
     0
176
     1
 40
1.0
176
     1
 40
1.0
176
     1
  0
DICTIONARYVAR
  5
62
102
{ACAD_REACTORS
330
3D
102
}
330
3D
100
DictionaryVariables
280
     0
  1
1:1
  0
DICTIONARYVAR
  5
11E
102
{ACAD_REACTORS
330
3D
102
}
330
3D
100
DictionaryVariables
280
     0
  1
Standard
  0
DICTIONARYVAR
  5
3E
102
{ACAD_REACTORS
330
3D
102
}
330
3D
100
DictionaryVariables
280
     0
  1
Standard
  0
DICTIONARYVAR
  5
14F
102
{ACAD_REACTORS
330
3D
102
}
330
3D
100
DictionaryVariables
280
     0
  1
ByLayer
  0
DICTIONARYVAR
  5
6F
102
{ACAD_REACTORS
330
3D
102
}
330
3D
100
DictionaryVariables
280
     0
  1
0
  0
DICTIONARYVAR
  5
70
102
{ACAD_REACTORS
330
3D
102
}
330
3D
100
DictionaryVariables
280
     0
  1
0
  0
DICTIONARY
  5
1CF
330
3C
100
AcDbDictionary
280
     1
281
     1
  3
ACAD_ROUNDTRIP_2008_TABLESTYLE_CELLSTYLEMAP
360
1D0
  0
CELLSTYLEMAP
  5
1D0
102
{ACAD_REACTORS
330
1CF
102
}
330
1CF
100
AcDbCellStyleMap
 90
        3
300
CELLSTYLE
  1
TABLEFORMAT_BEGIN
 90
        5
170
     1
 91
        0
 92
    32768
 62
   257
 93
        1
300
CONTENTFORMAT
  1
CONTENTFORMAT_BEGIN
 90
        0
 91
        0
 92
      512
 93
        0
300

 40
0.0
140
1.0
 94
        5
 62
     0
340
11
144
6.0
309
CONTENTFORMAT_END
171
     1
301
MARGIN
  1
CELLMARGIN_BEGIN
 40
1.5
 40
1.5
 40
1.5
 40
1.5
 40
0.18
 40
0.18
309
CELLMARGIN_END
 94
        6
 95
        1
302
GRIDFORMAT
  1
GRIDFORMAT_BEGIN
 90
        0
 91
        1
 62
     0
 92
       -2
340
0
 93
        0
 40
0.045
309
GRIDFORMAT_END
 95
        2
302
GRIDFORMAT
  1
GRIDFORMAT_BEGIN
 90
        0
 91
        1
 62
     0
 92
       -2
340
0
 93
        0
 40
0.045
309
GRIDFORMAT_END
 95
        4
302
GRIDFORMAT
  1
GRIDFORMAT_BEGIN
 90
        0
 91
        1
 62
     0
 92
       -2
340
0
 93
        0
 40
0.045
309
GRIDFORMAT_END
 95
        8
302
GRIDFORMAT
  1
GRIDFORMAT_BEGIN
 90
        0
 91
        1
 62
     0
 92
       -2
340
0
 93
        0
 40
0.045
309
GRIDFORMAT_END
 95
       16
302
GRIDFORMAT
  1
GRIDFORMAT_BEGIN
 90
        0
 91
        1
 62
     0
 92
       -2
340
0
 93
        0
 40
0.045
309
GRIDFORMAT_END
 95
       32
302
GRIDFORMAT
  1
GRIDFORMAT_BEGIN
 90
        0
 91
        1
 62
     0
 92
       -2
340
0
 93
        0
 40
0.045
309
GRIDFORMAT_END
309
TABLEFORMAT_END
  1
CELLSTYLE_BEGIN
 90
        1
 91
        1
300
_TITLE
309
CELLSTYLE_END
300
CELLSTYLE
  1
TABLEFORMAT_BEGIN
 90
        5
170
     1
 91
        0
 92
        0
 62
   257
 93
        1
300
CONTENTFORMAT
  1
CONTENTFORMAT_BEGIN
 90
        0
 91
        0
 92
      512
 93
        0
300

 40
0.0
140
1.0
 94
        5
 62
     0
340
11
144
4.5
309
CONTENTFORMAT_END
171
     1
301
MARGIN
  1
CELLMARGIN_BEGIN
 40
1.5
 40
1.5
 40
1.5
 40
1.5
 40
0.18
 40
0.18
309
CELLMARGIN_END
 94
        6
 95
        1
302
GRIDFORMAT
  1
GRIDFORMAT_BEGIN
 90
        0
 91
        1
 62
     0
 92
       -2
340
0
 93
        0
 40
0.045
309
GRIDFORMAT_END
 95
        2
302
GRIDFORMAT
  1
GRIDFORMAT_BEGIN
 90
        0
 91
        1
 62
     0
 92
       -2
340
0
 93
        0
 40
0.045
309
GRIDFORMAT_END
 95
        4
302
GRIDFORMAT
  1
GRIDFORMAT_BEGIN
 90
        0
 91
        1
 62
     0
 92
       -2
340
0
 93
        0
 40
0.045
309
GRIDFORMAT_END
 95
        8
302
GRIDFORMAT
  1
GRIDFORMAT_BEGIN
 90
        0
 91
        1
 62
     0
 92
       -2
340
0
 93
        0
 40
0.045
309
GRIDFORMAT_END
 95
       16
302
GRIDFORMAT
  1
GRIDFORMAT_BEGIN
 90
        0
 91
        1
 62
     0
 92
       -2
340
0
 93
        0
 40
0.045
309
GRIDFORMAT_END
 95
       32
302
GRIDFORMAT
  1
GRIDFORMAT_BEGIN
 90
        0
 91
        1
 62
     0
 92
       -2
340
0
 93
        0
 40
0.045
309
GRIDFORMAT_END
309
TABLEFORMAT_END
  1
CELLSTYLE_BEGIN
 90
        2
 91
        1
300
_HEADER
309
CELLSTYLE_END
300
CELLSTYLE
  1
TABLEFORMAT_BEGIN
 90
        5
170
     1
 91
        0
 92
        0
 62
   257
 93
        1
300
CONTENTFORMAT
  1
CONTENTFORMAT_BEGIN
 90
        0
 91
        0
 92
      512
 93
        0
300

 40
0.0
140
1.0
 94
        2
 62
     0
340
11
144
4.5
309
CONTENTFORMAT_END
171
     1
301
MARGIN
  1
CELLMARGIN_BEGIN
 40
1.5
 40
1.5
 40
1.5
 40
1.5
 40
0.18
 40
0.18
309
CELLMARGIN_END
 94
        6
 95
        1
302
GRIDFORMAT
  1
GRIDFORMAT_BEGIN
 90
        0
 91
        1
 62
     0
 92
       -2
340
0
 93
        0
 40
0.045
309
GRIDFORMAT_END
 95
        2
302
GRIDFORMAT
  1
GRIDFORMAT_BEGIN
 90
        0
 91
        1
 62
     0
 92
       -2
340
0
 93
        0
 40
0.045
309
GRIDFORMAT_END
 95
        4
302
GRIDFORMAT
  1
GRIDFORMAT_BEGIN
 90
        0
 91
        1
 62
     0
 92
       -2
340
0
 93
        0
 40
0.045
309
GRIDFORMAT_END
 95
        8
302
GRIDFORMAT
  1
GRIDFORMAT_BEGIN
 90
        0
 91
        1
 62
     0
 92
       -2
340
0
 93
        0
 40
0.045
309
GRIDFORMAT_END
 95
       16
302
GRIDFORMAT
  1
GRIDFORMAT_BEGIN
 90
        0
 91
        1
 62
     0
 92
       -2
340
0
 93
        0
 40
0.045
309
GRIDFORMAT_END
 95
       32
302
GRIDFORMAT
  1
GRIDFORMAT_BEGIN
 90
        0
 91
        1
 62
     0
 92
       -2
340
0
 93
        0
 40
0.045
309
GRIDFORMAT_END
309
TABLEFORMAT_END
  1
CELLSTYLE_BEGIN
 90
        3
 91
        2
300
_DATA
309
CELLSTYLE_END
  0
ENDSEC
  0
EOF
