  0
SECTION
  2
HEADER
  9
$ACADVER
  1
AC1018
  9
$ACADMAINTVER
 70
     0
  9
$DWGCODEPAGE
  3
ANSI_1252
  9
$INSBASE
 10
0.0
 20
0.0
 30
0.0
  9
$EXTMIN
 10
-439.9999999999999
 20
27.84999999999998
 30
41.3
  9
$EXTMAX
 10
-327.9999999999999
 20
109.15
 30
41.3
  9
$LIMMIN
 10
0.0
 20
0.0
  9
$LIMMAX
 10
12.0
 20
9.0
  9
$ORTHOMODE
 70
     0
  9
$REGENMODE
 70
     1
  9
$FILLMODE
 70
     1
  9
$QTEXTMODE
 70
     0
  9
$MIRRTEXT
 70
     1
  9
$LTSCALE
 40
1.0
  9
$ATTMODE
 70
     1
  9
$TEXTSIZE
 40
0.2
  9
$TRACEWID
 40
0.05
  9
$TEXTSTYLE
  7
Standard
  9
$CLAYER
  8
Default
  9
$CELTYPE
  6
ByLayer
  9
$CECOLOR
 62
   256
  9
$CELTSCALE
 40
1.0
  9
$DISPSILH
 70
     0
  9
$DIMSCALE
 40
1.0
  9
$DIMASZ
 40
0.18
  9
$DIMEXO
 40
0.0625
  9
$DIMDLI
 40
0.38
  9
$DIMRND
 40
0.0
  9
$DIMDLE
 40
0.0
  9
$DIMEXE
 40
0.18
  9
$DIMTP
 40
0.0
  9
$DIMTM
 40
0.0
  9
$DIMTXT
 40
0.18
  9
$DIMCEN
 40
0.09
  9
$DIMTSZ
 40
0.0
  9
$DIMTOL
 70
     0
  9
$DIMLIM
 70
     0
  9
$DIMTIH
 70
     1
  9
$DIMTOH
 70
     1
  9
$DIMSE1
 70
     0
  9
$DIMSE2
 70
     0
  9
$DIMTAD
 70
     0
  9
$DIMZIN
 70
     0
  9
$DIMBLK
  1

  9
$DIMASO
 70
     1
  9
$DIMSHO
 70
     1
  9
$DIMPOST
  1

  9
$DIMAPOST
  1

  9
$DIMALT
 70
     0
  9
$DIMALTD
 70
     2
  9
$DIMALTF
 40
25.4
  9
$DIMLFAC
 40
1.0
  9
$DIMTOFL
 70
     0
  9
$DIMTVP
 40
0.0
  9
$DIMTIX
 70
     0
  9
$DIMSOXD
 70
     0
  9
$DIMSAH
 70
     0
  9
$DIMBLK1
  1

  9
$DIMBLK2
  1

  9
$DIMSTYLE
  2
Standard
  9
$DIMCLRD
 70
     0
  9
$DIMCLRE
 70
     0
  9
$DIMCLRT
 70
     0
  9
$DIMTFAC
 40
1.0
  9
$DIMGAP
 40
0.09
  9
$DIMJUST
 70
     0
  9
$DIMSD1
 70
     0
  9
$DIMSD2
 70
     0
  9
$DIMTOLJ
 70
     1
  9
$DIMTZIN
 70
     0
  9
$DIMALTZ
 70
     0
  9
$DIMALTTZ
 70
     0
  9
$DIMUPT
 70
     0
  9
$DIMDEC
 70
     4
  9
$DIMTDEC
 70
     4
  9
$DIMALTU
 70
     2
  9
$DIMALTTD
 70
     2
  9
$DIMTXSTY
  7
Standard
  9
$DIMAUNIT
 70
     0
  9
$DIMADEC
 70
     0
  9
$DIMALTRND
 40
0.0
  9
$DIMAZIN
 70
     0
  9
$DIMDSEP
 70
    46
  9
$DIMATFIT
 70
     3
  9
$DIMFRAC
 70
     0
  9
$DIMLDRBLK
  1

  9
$DIMLUNIT
 70
     2
  9
$DIMLWD
 70
    -2
  9
$DIMLWE
 70
    -2
  9
$DIMTMOVE
 70
     2
  9
$LUNITS
 70
     2
  9
$LUPREC
 70
     3
  9
$SKETCHINC
 40
0.1
  9
$FILLETRAD
 40
0.5
  9
$AUNITS
 70
     0
  9
$AUPREC
 70
     0
  9
$MENU
  1
.
  9
$ELEVATION
 40
0.0
  9
$PELEVATION
 40
0.0
  9
$THICKNESS
 40
0.0
  9
$LIMCHECK
 70
     0
  9
$CHAMFERA
 40
0.0
  9
$CHAMFERB
 40
0.0
  9
$CHAMFERC
 40
0.0
  9
$CHAMFERD
 40
0.0
  9
$SKPOLY
 70
     0
  9
$TDCREATE
 40
2457575.829126157
  9
$TDUCREATE
 40
2457575.995792824
  9
$TDUPDATE
 40
2457575.829145417
  9
$TDUUPDATE
 40
2457575.995812083
  9
$TDINDWG
 40
0.0000000116
  9
$TDUSRTIMER
 40
0.0000000116
  9
$USRTIMER
 70
     1
  9
$ANGBASE
 50
0.0
  9
$ANGDIR
 70
     0
  9
$PDMODE
 70
     0
  9
$PDSIZE
 40
0.0
  9
$PLINEWID
 40
0.0
  9
$SPLFRAME
 70
     0
  9
$SPLINETYPE
 70
     6
  9
$SPLINESEGS
 70
     8
  9
$HANDSEED
  5
3B4
  9
$SURFTAB1
 70
     6
  9
$SURFTAB2
 70
     6
  9
$SURFTYPE
 70
     6
  9
$SURFU
 70
     6
  9
$SURFV
 70
     6
  9
$UCSBASE
  2

  9
$UCSNAME
  2

  9
$UCSORG
 10
0.0
 20
0.0
 30
0.0
  9
$UCSXDIR
 10
1.0
 20
0.0
 30
0.0
  9
$UCSYDIR
 10
0.0
 20
1.0
 30
0.0
  9
$UCSORTHOREF
  2

  9
$UCSORTHOVIEW
 70
     0
  9
$UCSORGTOP
 10
0.0
 20
0.0
 30
0.0
  9
$UCSORGBOTTOM
 10
0.0
 20
0.0
 30
0.0
  9
$UCSORGLEFT
 10
0.0
 20
0.0
 30
0.0
  9
$UCSORGRIGHT
 10
0.0
 20
0.0
 30
0.0
  9
$UCSORGFRONT
 10
0.0
 20
0.0
 30
0.0
  9
$UCSORGBACK
 10
0.0
 20
0.0
 30
0.0
  9
$PUCSBASE
  2

  9
$PUCSNAME
  2

  9
$PUCSORG
 10
0.0
 20
0.0
 30
0.0
  9
$PUCSXDIR
 10
1.0
 20
0.0
 30
0.0
  9
$PUCSYDIR
 10
0.0
 20
1.0
 30
0.0
  9
$PUCSORTHOREF
  2

  9
$PUCSORTHOVIEW
 70
     0
  9
$PUCSORGTOP
 10
0.0
 20
0.0
 30
0.0
  9
$PUCSORGBOTTOM
 10
0.0
 20
0.0
 30
0.0
  9
$PUCSORGLEFT
 10
0.0
 20
0.0
 30
0.0
  9
$PUCSORGRIGHT
 10
0.0
 20
0.0
 30
0.0
  9
$PUCSORGFRONT
 10
0.0
 20
0.0
 30
0.0
  9
$PUCSORGBACK
 10
0.0
 20
0.0
 30
0.0
  9
$USERI1
 70
     0
  9
$USERI2
 70
     0
  9
$USERI3
 70
     0
  9
$USERI4
 70
     0
  9
$USERI5
 70
     0
  9
$USERR1
 40
0.0
  9
$USERR2
 40
0.0
  9
$USERR3
 40
0.0
  9
$USERR4
 40
0.0
  9
$USERR5
 40
0.0
  9
$WORLDVIEW
 70
     1
  9
$SHADEDGE
 70
     3
  9
$SHADEDIF
 70
    70
  9
$TILEMODE
 70
     1
  9
$MAXACTVP
 70
    64
  9
$PINSBASE
 10
0.0
 20
0.0
 30
0.0
  9
$PLIMCHECK
 70
     0
  9
$PEXTMIN
 10
1.000000000000000E+20
 20
1.000000000000000E+20
 30
1.000000000000000E+20
  9
$PEXTMAX
 10
-1.000000000000000E+20
 20
-1.000000000000000E+20
 30
-1.000000000000000E+20
  9
$PLIMMIN
 10
0.0
 20
0.0
  9
$PLIMMAX
 10
12.0
 20
9.0
  9
$UNITMODE
 70
     0
  9
$VISRETAIN
 70
     1
  9
$PLINEGEN
 70
     0
  9
$PSLTSCALE
 70
     1
  9
$TREEDEPTH
 70
  3020
  9
$CMLSTYLE
  2
Standard
  9
$CMLJUST
 70
     0
  9
$CMLSCALE
 40
1.0
  9
$PROXYGRAPHICS
 70
     1
  9
$MEASUREMENT
 70
     0
  9
$CELWEIGHT
370
    -1
  9
$ENDCAPS
280
     0
  9
$JOINSTYLE
280
     0
  9
$LWDISPLAY
290
     0
  9
$INSUNITS
 70
     4
  9
$HYPERLINKBASE
  1

  9
$STYLESHEET
  1

  9
$XEDIT
290
     1
  9
$CEPSNTYPE
380
     0
  9
$PSTYLEMODE
290
     1
  9
$FINGERPRINTGUID
  2
{BFA0BEB4-B3C9-4CD6-B31C-A50BAF150AF8}
  9
$VERSIONGUID
  2
{FAEB1C32-E019-11D5-929B-00C0DF256EC4}
  9
$EXTNAMES
290
     1
  9
$PSVPSCALE
 40
0.0
  9
$OLESTARTUP
290
     0
  9
$SORTENTS
280
   127
  9
$INDEXCTL
280
     0
  9
$HIDETEXT
280
     1
  9
$XCLIPFRAME
290
     0
  9
$HALOGAP
280
     0
  9
$OBSCOLOR
 70
   257
  9
$OBSLTYPE
280
     0
  9
$INTERSECTIONDISPLAY
280
     0
  9
$INTERSECTIONCOLOR
 70
   257
  9
$DIMASSOC
280
     2
  9
$PROJECTNAME
  1

  0
ENDSEC
  0
SECTION
  2
CLASSES
  0
CLASS
  1
ACDBDICTIONARYWDFLT
  2
AcDbDictionaryWithDefault
  3
ObjectDBX Classes
 90
        0
 91
        4
280
     0
281
     0
  0
CLASS
  1
VISUALSTYLE
  2
AcDbVisualStyle
  3
ObjectDBX Classes
 90
     4095
 91
        4
280
     0
281
     0
  0
CLASS
  1
MATERIAL
  2
AcDbMaterial
  3
ObjectDBX Classes
 90
     1153
 91
        4
280
     0
281
     0
  0
CLASS
  1
SCALE
  2
AcDbScale
  3
ObjectDBX Classes
 90
     1153
 91
        4
280
     0
281
     0
  0
CLASS
  1
SUN
  2
AcDbSun
  3
SCENEOE
 90
     1153
 91
        4
280
     0
281
     0
  0
CLASS
  1
DICTIONARYVAR
  2
AcDbDictionaryVar
  3
ObjectDBX Classes
 90
        0
 91
        4
280
     0
281
     0
  0
ENDSEC
  0
SECTION
  2
TABLES
  0
TABLE
  2
VPORT
  5
8
330
0
100
AcDbSymbolTable
 70
     1
  0
VPORT
  5
29
330
8
100
AcDbSymbolTableRecord
100
AcDbViewportTableRecord
  2
*Active
 70
     0
 10
0.0
 20
0.0
 11
1.0
 21
1.0
 12
-383.9999999999999
 22
68.5
 13
0.0
 23
0.0
 14
0.5
 24
0.5
 15
0.5
 25
0.5
 16
0.0
 26
0.0
 36
1.0
 17
0.0
 27
0.0
 37
0.0
 40
82.92600000000002
 41
1.377613776137761
 42
50.0
 43
0.0
 44
0.0
 50
0.0
 51
0.0
 71
     0
 72
   100
 73
     1
 74
     3
 75
     0
 76
     0
 77
     0
 78
     0
281
     0
 65
     1
110
0.0
120
0.0
130
0.0
111
1.0
121
0.0
131
0.0
112
0.0
122
1.0
132
0.0
 79
     0
146
0.0
  0
ENDTAB
  0
TABLE
  2
LTYPE
  5
5
330
0
100
AcDbSymbolTable
 70
     1
  0
LTYPE
  5
14
330
5
100
AcDbSymbolTableRecord
100
AcDbLinetypeTableRecord
  2
ByBlock
 70
     0
  3

 72
    65
 73
     0
 40
0.0
  0
LTYPE
  5
15
330
5
100
AcDbSymbolTableRecord
100
AcDbLinetypeTableRecord
  2
ByLayer
 70
     0
  3

 72
    65
 73
     0
 40
0.0
  0
LTYPE
  5
16
330
5
100
AcDbSymbolTableRecord
100
AcDbLinetypeTableRecord
  2
Continuous
 70
     0
  3
Solid line
 72
    65
 73
     0
 40
0.0
  0
ENDTAB
  0
TABLE
  2
LAYER
  5
2
330
0
100
AcDbSymbolTable
 70
     2
  0
LAYER
  5
10
330
2
100
AcDbSymbolTableRecord
100
AcDbLayerTableRecord
  2
0
 70
     0
 62
     7
  6
Continuous
370
    -3
390
F
  0
LAYER
  5
6A
330
2
100
AcDbSymbolTableRecord
100
AcDbLayerTableRecord
  2
Default
 70
     0
 62
    18
420
        0
  6
Continuous
370
    -3
390
F
  0
ENDTAB
  0
TABLE
  2
STYLE
  5
3
330
0
100
AcDbSymbolTable
 70
     1
  0
STYLE
  5
11
330
3
100
AcDbSymbolTableRecord
100
AcDbTextStyleTableRecord
  2
Standard
 70
     0
 40
0.0
 41
1.0
 50
0.0
 71
     0
 42
0.2
  3
txt
  4

  0
ENDTAB
  0
TABLE
  2
VIEW
  5
6
330
0
100
AcDbSymbolTable
 70
     0
  0
ENDTAB
  0
TABLE
  2
UCS
  5
7
330
0
100
AcDbSymbolTable
 70
     0
  0
ENDTAB
  0
TABLE
  2
APPID
  5
9
330
0
100
AcDbSymbolTable
 70
     1
  0
APPID
  5
12
330
9
100
AcDbSymbolTableRecord
100
AcDbRegAppTableRecord
  2
ACAD
 70
     0
  0
ENDTAB
  0
TABLE
  2
DIMSTYLE
  5
A
330
0
100
AcDbSymbolTable
 70
     1
100
AcDbDimStyleTable
  0
DIMSTYLE
105
27
330
A
100
AcDbSymbolTableRecord
100
AcDbDimStyleTableRecord
  2
Standard
 70
     0
178
     0
340
11
  0
ENDTAB
  0
TABLE
  2
BLOCK_RECORD
  5
1
330
0
100
AcDbSymbolTable
 70
     1
  0
BLOCK_RECORD
  5
1F
330
1
100
AcDbSymbolTableRecord
100
AcDbBlockTableRecord
  2
*Model_Space
340
22
  0
BLOCK_RECORD
  5
1B
330
1
100
AcDbSymbolTableRecord
100
AcDbBlockTableRecord
  2
*Paper_Space
340
1E
  0
BLOCK_RECORD
  5
23
330
1
100
AcDbSymbolTableRecord
100
AcDbBlockTableRecord
  2
*Paper_Space0
340
26
  0
ENDTAB
  0
ENDSEC
  0
SECTION
  2
BLOCKS
  0
BLOCK
  5
20
330
1F
100
AcDbEntity
  8
0
100
AcDbBlockBegin
  2
*Model_Space
 70
     0
 10
0.0
 20
0.0
 30
0.0
  3
*Model_Space
  1
*Model_Space
  0
ENDBLK
  5
21
330
1F
100
AcDbEntity
  8
0
100
AcDbBlockEnd
  0
BLOCK
  5
1C
330
1B
100
AcDbEntity
 67
     1
  8
0
100
AcDbBlockBegin
  2
*Paper_Space
 70
     0
 10
0.0
 20
0.0
 30
0.0
  3
*Paper_Space
  1
*Paper_Space
  0
ENDBLK
  5
1D
330
1B
100
AcDbEntity
 67
     1
  8
0
100
AcDbBlockEnd
  0
BLOCK
  5
24
330
23
100
AcDbEntity
  8
0
100
AcDbBlockBegin
  2
*Paper_Space0
 70
     0
 10
0.0
 20
0.0
 30
0.0
  3
*Paper_Space0
  1
*Paper_Space0
  0
ENDBLK
  5
25
330
23
100
AcDbEntity
  8
0
100
AcDbBlockEnd
  0
ENDSEC
  0
SECTION
  2
ENTITIES
  0
POLYLINE
  5
6B
330
1F
100
AcDbEntity
  8
Default
100
AcDb2dPolyline
 66
     1
 10
0.0
 20
0.0
 30
41.3
  0
VERTEX
  5
6C
330
6B
100
AcDbEntity
  8
Default
100
AcDbVertex
100
AcDb2dVertex
 10
-342.2647186257615
 20
96.63528137423867
 30
41.3
  0
VERTEX
  5
6D
330
6B
100
AcDbEntity
  8
Default
100
AcDbVertex
100
AcDb2dVertex
 10
-342.263664318913
 20
96.69601820332024
 30
41.3
  0
VERTEX
  5
6E
330
6B
100
AcDbEntity
  8
Default
100
AcDbVertex
100
AcDb2dVertex
 10
-342.2605026687251
 20
96.7566818492534
 30
41.3
  0
VERTEX
  5
6F
330
6B
100
AcDbEntity
  8
Default
100
AcDbVertex
100
AcDb2dVertex
 10
-342.25523748474
 20
96.81719921706974
 30
41.3
  0
VERTEX
  5
70
330
6B
100
AcDbEntity
  8
Default
100
AcDbVertex
100
AcDb2dVertex
 10
-342.2478751110943
 20
96.87749738805456
 30
41.3
  0
VERTEX
  5
71
330
6B
100
AcDbEntity
  8
Default
100
AcDbVertex
100
AcDb2dVertex
 10
-342.2384244188748
 20
96.93750370760833
 30
41.3
  0
VERTEX
  5
72
330
6B
100
AcDbEntity
  8
Default
100
AcDbVertex
100
AcDb2dVertex
 10
-342.2268967954297
 20
96.9971458727897
 30
41.3
  0
VERTEX
  5
73
330
6B
100
AcDbEntity
  8
Default
100
AcDbVertex
100
AcDb2dVertex
 10
-342.2133061306472
 20
97.056352019435
 30
41.3
  0
VERTEX
  5
74
330
6B
100
AcDbEntity
  8
Default
100
AcDbVertex
100
AcDb2dVertex
 10
-342.1976688002199
 20
97.11505080874893
 30
41.3
  0
VERTEX
  5
75
330
6B
100
AcDbEntity
  8
Default
100
AcDbVertex
100
AcDb2dVertex
 10
-342.180003645913
 20
97.17317151326229
 30
41.3
  0
VERTEX
  5
76
330
6B
100
AcDbEntity
  8
Default
100
AcDbVertex
100
AcDb2dVertex
 10
-342.1603319528616
 20
97.23064410205298
 30
41.3
  0
VERTEX
  5
77
330
6B
100
AcDbEntity
  8
Default
100
AcDbVertex
100
AcDb2dVertex
 10
-342.1386774239235
 20
97.28739932512792
 30
41.3
  0
VERTEX
  5
78
330
6B
100
AcDbEntity
  8
Default
100
AcDbVertex
100
AcDb2dVertex
 10
-342.1150661511197
 20
97.34336879686381
 30
41.3
  0
VERTEX
  5
79
330
6B
100
AcDbEntity
  8
Default
100
AcDbVertex
100
AcDb2dVertex
 10
-342.0895265841946
 20
97.39848507840654
 30
41.3
  0
VERTEX
  5
7A
330
6B
100
AcDbEntity
  8
Default
100
AcDbVertex
100
AcDb2dVertex
 10
-342.0620894963374
 20
97.4526817589297
 30
41.3
  0
VERTEX
  5
7B
330
6B
100
AcDbEntity
  8
Default
100
AcDbVertex
100
AcDb2dVertex
 10
-342.0327879471018
 20
97.50589353565451
 30
41.3
  0
VERTEX
  5
7C
330
6B
100
AcDbEntity
  8
Default
100
AcDbVertex
100
AcDb2dVertex
 10
-342.0016572425725
 20
97.55805629253453
 30
41.3
  0
VERTEX
  5
7D
330
6B
100
AcDbEntity
  8
Default
100
AcDbVertex
100
AcDb2dVertex
 10
-341.9687348928238
 20
97.60910717751055
 30
41.3
  0
VERTEX
  5
7E
330
6B
100
AcDbEntity
  8
Default
100
AcDbVertex
100
AcDb2dVertex
 10
-341.9340605667228
 20
97.65898467824239
 30
41.3
  0
VERTEX
  5
7F
330
6B
100
AcDbEntity
  8
Default
100
AcDbVertex
100
AcDb2dVertex
 10
-341.8976760441318
 20
97.70762869622651
 30
41.3
  0
VERTEX
  5
80
330
6B
100
AcDbEntity
  8
Default
100
AcDbVertex
100
AcDb2dVertex
 10
-341.8596251655666
 20
97.75498061920999
 30
41.3
  0
VERTEX
  5
81
330
6B
100
AcDbEntity
  8
Default
100
AcDbVertex
100
AcDb2dVertex
 10
-341.8199537793723
 20
97.80098339181374
 30
41.3
  0
VERTEX
  5
82
330
6B
100
AcDbEntity
  8
Default
100
AcDbVertex
100
AcDb2dVertex
 10
-341.7787096864792
 20
97.84558158427983
 30
41.3
  0
VERTEX
  5
83
330
6B
100
AcDbEntity
  8
Default
100
AcDbVertex
100
AcDb2dVertex
 10
-341.735942582807
 20
97.88872145925997
 30
41.3
  0
VERTEX
  5
84
330
6B
100
AcDbEntity
  8
Default
100
AcDbVertex
100
AcDb2dVertex
 10
-341.6917039993844
 20
97.93035103656484
 30
41.3
  0
VERTEX
  5
85
330
6B
100
AcDbEntity
  8
Default
100
AcDbVertex
100
AcDb2dVertex
 10
-341.646047240259
 20
97.97042015579625
 30
41.3
  0
VERTEX
  5
86
330
6B
100
AcDbEntity
  8
Default
100
AcDbVertex
100
AcDb2dVertex
 10
-341.5990273182694
 20
98.00888053678636
 30
41.3
  0
VERTEX
  5
87
330
6B
100
AcDbEntity
  8
Default
100
AcDbVertex
100
AcDb2dVertex
 10
-341.5507008887593
 20
98.04568583777169
 30
41.3
  0
VERTEX
  5
88
330
6B
100
AcDbEntity
  8
Default
100
AcDbVertex
100
AcDb2dVertex
 10
-341.5011261813123
 20
98.0807917112312
 30
41.3
  0
VERTEX
  5
89
330
6B
100
AcDbEntity
  8
Default
100
AcDbVertex
100
AcDb2dVertex
 10
-341.4503629295895
 20
98.1141558573217
 30
41.3
  0
VERTEX
  5
8A
330
6B
100
AcDbEntity
  8
Default
100
AcDbVertex
100
AcDb2dVertex
 10
-341.3984722993556
 20
98.14573807484578
 30
41.3
  0
VERTEX
  5
8B
330
6B
100
AcDbEntity
  8
Default
100
AcDbVertex
100
AcDb2dVertex
 10
-341.3455168147783
 20
98.17550030969117
 30
41.3
  0
VERTEX
  5
8C
330
6B
100
AcDbEntity
  8
Default
100
AcDbVertex
100
AcDb2dVertex
 10
-341.2915602830918
 20
98.20340670068302
 30
41.3
  0
VERTEX
  5
8D
330
6B
100
AcDbEntity
  8
Default
100
AcDbVertex
100
AcDb2dVertex
 10
-341.2366677177146
 20
98.22942362279372
 30
41.3
  0
VERTEX
  5
8E
330
6B
100
AcDbEntity
  8
Default
100
AcDbVertex
100
AcDb2dVertex
 10
-341.1809052599122
 20
98.2535197276585
 30
41.3
  0
VERTEX
  5
8F
330
6B
100
AcDbEntity
  8
Default
100
AcDbVertex
100
AcDb2dVertex
 10
-341.1243400991032
 20
98.27566598134781
 30
41.3
  0
VERTEX
  5
90
330
6B
100
AcDbEntity
  8
Default
100
AcDbVertex
100
AcDb2dVertex
 10
-341.0670403919007
 20
98.29583569935086
 30
41.3
  0
VERTEX
  5
91
330
6B
100
AcDbEntity
  8
Default
100
AcDbVertex
100
AcDb2dVertex
 10
-341.0090751799889
 20
98.31400457872842
 30
41.3
  0
VERTEX
  5
92
330
6B
100
AcDbEntity
  8
Default
100
AcDbVertex
100
AcDb2dVertex
 10
-340.9505143069335
 20
98.33015072739597
 30
41.3
  0
VERTEX
  5
93
330
6B
100
AcDbEntity
  8
Default
100
AcDbVertex
100
AcDb2dVertex
 10
-340.8914283340252
 20
98.34425469050194
 30
41.3
  0
VERTEX
  5
94
330
6B
100
AcDbEntity
  8
Default
100
AcDbVertex
100
AcDb2dVertex
 10
-340.8318884552594
 20
98.35629947386931
 30
41.3
  0
VERTEX
  5
95
330
6B
100
AcDbEntity
  8
Default
100
AcDbVertex
100
AcDb2dVertex
 10
-340.7719664115526
 20
98.36627056447227
 30
41.3
  0
VERTEX
  5
96
330
6B
100
AcDbEntity
  8
Default
100
AcDbVertex
100
AcDb2dVertex
 10
-340.7117344043002
 20
98.37415594792327
 30
41.3
  0
VERTEX
  5
97
330
6B
100
AcDbEntity
  8
Default
100
AcDbVertex
100
AcDb2dVertex
 10
-340.6512650083798
 20
98.37994612294939
 30
41.3
  0
VERTEX
  5
98
330
6B
100
AcDbEntity
  8
Default
100
AcDbVertex
100
AcDb2dVertex
 10
-340.5906310847035
 20
98.38363411284075
 30
41.3
  0
VERTEX
  5
99
330
6B
100
AcDbEntity
  8
Default
100
AcDbVertex
100
AcDb2dVertex
 10
-340.5299056924269
 20
98.38521547385675
 30
41.3
  0
VERTEX
  5
9A
330
6B
100
AcDbEntity
  8
Default
100
AcDbVertex
100
AcDb2dVertex
 10
-340.4691620009178
 20
98.38468830058052
 30
41.3
  0
VERTEX
  5
9B
330
6B
100
AcDbEntity
  8
Default
100
AcDbVertex
100
AcDb2dVertex
 10
-340.4084732015934
 20
98.38205322821484
 30
41.3
  0
VERTEX
  5
9C
330
6B
100
AcDbEntity
  8
Default
100
AcDbVertex
100
AcDb2dVertex
 10
-340.3479124197299
 20
98.37731343181665
 30
41.3
  0
VERTEX
  5
9D
330
6B
100
AcDbEntity
  8
Default
100
AcDbVertex
100
AcDb2dVertex
 10
-340.2875526263526
 20
98.37047462247143
 30
41.3
  0
VERTEX
  5
9E
330
6B
100
AcDbEntity
  8
Default
100
AcDbVertex
100
AcDb2dVertex
 10
-340.2274665503111
 20
98.3615450404118
 30
41.3
  0
VERTEX
  5
9F
330
6B
100
AcDbEntity
  8
Default
100
AcDbVertex
100
AcDb2dVertex
 10
-340.1677265906473
 20
98.35053544508862
 30
41.3
  0
VERTEX
  5
A0
330
6B
100
AcDbEntity
  8
Default
100
AcDbVertex
100
AcDb2dVertex
 10
-340.1084047293595
 20
98.33745910220678
 30
41.3
  0
VERTEX
  5
A1
330
6B
100
AcDbEntity
  8
Default
100
AcDbVertex
100
AcDb2dVertex
 10
-340.0495724446701
 20
98.32233176774093
 30
41.3
  0
VERTEX
  5
A2
330
6B
100
AcDbEntity
  8
Default
100
AcDbVertex
100
AcDb2dVertex
 10
-339.9913006248999
 20
98.3051716689509
 30
41.3
  0
VERTEX
  5
A3
330
6B
100
AcDbEntity
  8
Default
100
AcDbVertex
100
AcDb2dVertex
 10
-339.9336594830531
 20
98.28599948241917
 30
41.3
  0
VERTEX
  5
A4
330
6B
100
AcDbEntity
  8
Default
100
AcDbVertex
100
AcDb2dVertex
 10
-339.8767184722161
 20
98.26483830913723
 30
41.3
  0
VERTEX
  5
A5
330
6B
100
AcDbEntity
  8
Default
100
AcDbVertex
100
AcDb2dVertex
 10
-339.8205462018718
 20
98.2417136466707
 30
41.3
  0
VERTEX
  5
A6
330
6B
100
AcDbEntity
  8
Default
100
AcDbVertex
100
AcDb2dVertex
 10
-339.7652103552311
 20
98.21665335843674
 30
41.3
  0
VERTEX
  5
A7
330
6B
100
AcDbEntity
  8
Default
100
AcDbVertex
100
AcDb2dVertex
 10
-339.7107776076791
 20
98.18968764013078
 30
41.3
  0
VERTEX
  5
A8
330
6B
100
AcDbEntity
  8
Default
100
AcDbVertex
100
AcDb2dVertex
 10
-339.657313546437
 20
98.16084898334312
 30
41.3
  0
VERTEX
  5
A9
330
6B
100
AcDbEntity
  8
Default
100
AcDbVertex
100
AcDb2dVertex
 10
-339.6048825915345
 20
98.13017213640896
 30
41.3
  0
VERTEX
  5
AA
330
6B
100
AcDbEntity
  8
Default
100
AcDbVertex
100
AcDb2dVertex
 10
-339.5535479181884
 20
98.09769406253957
 30
41.3
  0
VERTEX
  5
AB
330
6B
100
AcDbEntity
  8
Default
100
AcDbVertex
100
AcDb2dVertex
 10
-339.5033713806819
 20
98.06345389528431
 30
41.3
  0
VERTEX
  5
AC
330
6B
100
AcDbEntity
  8
Default
100
AcDbVertex
100
AcDb2dVertex
 10
-339.4544134378344
 20
98.02749289137783
 30
41.3
  0
VERTEX
  5
AD
330
6B
100
AcDbEntity
  8
Default
100
AcDbVertex
100
AcDb2dVertex
 10
-339.406733080154
 20
97.98985438102896
 30
41.3
  0
VERTEX
  5
AE
330
6B
100
AcDbEntity
  8
Default
100
AcDbVertex
100
AcDb2dVertex
 10
-339.3603877587579
 20
97.95058371571108
 30
41.3
  0
VERTEX
  5
AF
330
6B
100
AcDbEntity
  8
Default
100
AcDbVertex
100
AcDb2dVertex
 10
-339.3154333161488
 20
97.90972821351721
 30
41.3
  0
VERTEX
  5
B0
330
6B
100
AcDbEntity
  8
Default
100
AcDbVertex
100
AcDb2dVertex
 10
-339.2719239189284
 20
97.86733710214538
 30
41.3
  0
VERTEX
  5
B1
330
6B
100
AcDbEntity
  8
Default
100
AcDbVertex
100
AcDb2dVertex
 10
-339.2299119925318
 20
97.82346145958304
 30
41.3
  0
VERTEX
  5
B2
330
6B
100
AcDbEntity
  8
Default
100
AcDbVertex
100
AcDb2dVertex
 10
-339.1894481580579
 20
97.77815415256214
 30
41.3
  0
VERTEX
  5
B3
330
6B
100
AcDbEntity
  8
Default
100
AcDbVertex
100
AcDb2dVertex
 10
-339.1505811712757
 20
97.73146977285874
 30
41.3
  0
VERTEX
  5
B4
330
6B
100
AcDbEntity
  8
Default
100
AcDbVertex
100
AcDb2dVertex
 10
-339.1133578638771
 20
97.68346457151429
 30
41.3
  0
VERTEX
  5
B5
330
6B
100
AcDbEntity
  8
Default
100
AcDbVertex
100
AcDb2dVertex
 10
-339.0778230870482
 20
97.6341963910574
 30
41.3
  0
VERTEX
  5
B6
330
6B
100
AcDbEntity
  8
Default
100
AcDbVertex
100
AcDb2dVertex
 10
-339.0440196574274
 20
97.58372459580814
 30
41.3
  0
VERTEX
  5
B7
330
6B
100
AcDbEntity
  8
Default
100
AcDbVertex
100
AcDb2dVertex
 10
-339.0119883055145
 20
97.53211000034865
 30
41.3
  0
VERTEX
  5
B8
330
6B
100
AcDbEntity
  8
Default
100
AcDbVertex
100
AcDb2dVertex
 10
-338.9817676265937
 20
97.47941479624637
 30
41.3
  0
VERTEX
  5
B9
330
6B
100
AcDbEntity
  8
Default
100
AcDbVertex
100
AcDb2dVertex
 10
-338.9533940342293
 20
97.42570247711795
 30
41.3
  0
VERTEX
  5
BA
330
6B
100
AcDbEntity
  8
Default
100
AcDbVertex
100
AcDb2dVertex
 10
-338.9269017163902
 20
97.37103776212439
 30
41.3
  0
VERTEX
  5
BB
330
6B
100
AcDbEntity
  8
Default
100
AcDbVertex
100
AcDb2dVertex
 10
-338.902322594256
 20
97.3154865179896
 30
41.3
  0
VERTEX
  5
BC
330
6B
100
AcDbEntity
  8
Default
100
AcDbVertex
100
AcDb2dVertex
 10
-338.8796862837543
 20
97.25911567963598
 30
41.3
  0
VERTEX
  5
BD
330
6B
100
AcDbEntity
  8
Default
100
AcDbVertex
100
AcDb2dVertex
 10
-338.8590200598763
 20
97.20199316953322
 30
41.3
  0
VERTEX
  5
BE
330
6B
100
AcDbEntity
  8
Default
100
AcDbVertex
100
AcDb2dVertex
 10
-338.8403488238122
 20
97.14418781585684
 30
41.3
  0
VERTEX
  5
BF
330
6B
100
AcDbEntity
  8
Default
100
AcDbVertex
100
AcDb2dVertex
 10
-338.8236950729471
 20
97.0857692695557
 30
41.3
  0
VERTEX
  5
C0
330
6B
100
AcDbEntity
  8
Default
100
AcDbVertex
100
AcDb2dVertex
 10
-338.8090788737537
 20
97.02680792042804
 30
41.3
  0
VERTEX
  5
C1
330
6B
100
AcDbEntity
  8
Default
100
AcDbVertex
100
AcDb2dVertex
 10
-338.7965178376136
 20
96.96737481230721
 30
41.3
  0
VERTEX
  5
C2
330
6B
100
AcDbEntity
  8
Default
100
AcDbVertex
100
AcDb2dVertex
 10
-338.786027099597
 20
96.90754155745941
 30
41.3
  0
VERTEX
  5
C3
330
6B
100
AcDbEntity
  8
Default
100
AcDbVertex
100
AcDb2dVertex
 10
-338.7776193002262
 20
96.84738025029647
 30
41.3
  0
VERTEX
  5
C4
330
6B
100
AcDbEntity
  8
Default
100
AcDbVertex
100
AcDb2dVertex
 10
-338.7713045702445
 20
96.78696338050771
 30
41.3
  0
VERTEX
  5
C5
330
6B
100
AcDbEntity
  8
Default
100
AcDbVertex
100
AcDb2dVertex
 10
-338.7670905184096
 20
96.7263637457155
 30
41.3
  0
VERTEX
  5
C6
330
6B
100
AcDbEntity
  8
Default
100
AcDbVertex
100
AcDb2dVertex
 10
-338.764982222326
 20
96.66565436375986
 30
41.3
  0
VERTEX
  5
C7
330
6B
100
AcDbEntity
  8
Default
100
AcDbVertex
100
AcDb2dVertex
 10
-338.764982222326
 20
96.60490838471749
 30
41.3
  0
VERTEX
  5
C8
330
6B
100
AcDbEntity
  8
Default
100
AcDbVertex
100
AcDb2dVertex
 10
-338.7670905184096
 20
96.54419900276184
 30
41.3
  0
VERTEX
  5
C9
330
6B
100
AcDbEntity
  8
Default
100
AcDbVertex
100
AcDb2dVertex
 10
-338.7713045702445
 20
96.48359936796963
 30
41.3
  0
VERTEX
  5
CA
330
6B
100
AcDbEntity
  8
Default
100
AcDbVertex
100
AcDb2dVertex
 10
-338.7776193002262
 20
96.42318249818088
 30
41.3
  0
VERTEX
  5
CB
330
6B
100
AcDbEntity
  8
Default
100
AcDbVertex
100
AcDb2dVertex
 10
-338.786027099597
 20
96.36302119101794
 30
41.3
  0
VERTEX
  5
CC
330
6B
100
AcDbEntity
  8
Default
100
AcDbVertex
100
AcDb2dVertex
 10
-338.7965178376136
 20
96.30318793617013
 30
41.3
  0
VERTEX
  5
CD
330
6B
100
AcDbEntity
  8
Default
100
AcDbVertex
100
AcDb2dVertex
 10
-338.8090788737537
 20
96.2437548280493
 30
41.3
  0
VERTEX
  5
CE
330
6B
100
AcDbEntity
  8
Default
100
AcDbVertex
100
AcDb2dVertex
 10
-338.8236950729471
 20
96.18479347892165
 30
41.3
  0
VERTEX
  5
CF
330
6B
100
AcDbEntity
  8
Default
100
AcDbVertex
100
AcDb2dVertex
 10
-338.8403488238122
 20
96.12637493262052
 30
41.3
  0
VERTEX
  5
D0
330
6B
100
AcDbEntity
  8
Default
100
AcDbVertex
100
AcDb2dVertex
 10
-338.8590200598763
 20
96.06856957894412
 30
41.3
  0
VERTEX
  5
D1
330
6B
100
AcDbEntity
  8
Default
100
AcDbVertex
100
AcDb2dVertex
 10
-338.8796862837543
 20
96.01144706884136
 30
41.3
  0
VERTEX
  5
D2
330
6B
100
AcDbEntity
  8
Default
100
AcDbVertex
100
AcDb2dVertex
 10
-338.902322594256
 20
95.95507623048775
 30
41.3
  0
VERTEX
  5
D3
330
6B
100
AcDbEntity
  8
Default
100
AcDbVertex
100
AcDb2dVertex
 10
-338.9269017163902
 20
95.89952498635296
 30
41.3
  0
VERTEX
  5
D4
330
6B
100
AcDbEntity
  8
Default
100
AcDbVertex
100
AcDb2dVertex
 10
-338.9533940342293
 20
95.84486027135941
 30
41.3
  0
VERTEX
  5
D5
330
6B
100
AcDbEntity
  8
Default
100
AcDbVertex
100
AcDb2dVertex
 10
-338.9817676265937
 20
95.79114795223097
 30
41.3
  0
VERTEX
  5
D6
330
6B
100
AcDbEntity
  8
Default
100
AcDbVertex
100
AcDb2dVertex
 10
-339.0119883055145
 20
95.7384527481287
 30
41.3
  0
VERTEX
  5
D7
330
6B
100
AcDbEntity
  8
Default
100
AcDbVertex
100
AcDb2dVertex
 10
-339.0440196574274
 20
95.68683815266921
 30
41.3
  0
VERTEX
  5
D8
330
6B
100
AcDbEntity
  8
Default
100
AcDbVertex
100
AcDb2dVertex
 10
-339.0778230870482
 20
95.63636635741994
 30
41.3
  0
VERTEX
  5
D9
330
6B
100
AcDbEntity
  8
Default
100
AcDbVertex
100
AcDb2dVertex
 10
-339.1133578638771
 20
95.58709817696305
 30
41.3
  0
VERTEX
  5
DA
330
6B
100
AcDbEntity
  8
Default
100
AcDbVertex
100
AcDb2dVertex
 10
-339.1505811712757
 20
95.5390929756186
 30
41.3
  0
VERTEX
  5
DB
330
6B
100
AcDbEntity
  8
Default
100
AcDbVertex
100
AcDb2dVertex
 10
-339.1894481580579
 20
95.49240859591521
 30
41.3
  0
VERTEX
  5
DC
330
6B
100
AcDbEntity
  8
Default
100
AcDbVertex
100
AcDb2dVertex
 10
-339.2299119925318
 20
95.4471012888943
 30
41.3
  0
VERTEX
  5
DD
330
6B
100
AcDbEntity
  8
Default
100
AcDbVertex
100
AcDb2dVertex
 10
-339.2719239189284
 20
95.40322564633196
 30
41.3
  0
VERTEX
  5
DE
330
6B
100
AcDbEntity
  8
Default
100
AcDbVertex
100
AcDb2dVertex
 10
-339.3154333161488
 20
95.36083453496013
 30
41.3
  0
VERTEX
  5
DF
330
6B
100
AcDbEntity
  8
Default
100
AcDbVertex
100
AcDb2dVertex
 10
-339.3603877587579
 20
95.31997903276627
 30
41.3
  0
VERTEX
  5
E0
330
6B
100
AcDbEntity
  8
Default
100
AcDbVertex
100
AcDb2dVertex
 10
-339.406733080154
 20
95.28070836744838
 30
41.3
  0
VERTEX
  5
E1
330
6B
100
AcDbEntity
  8
Default
100
AcDbVertex
100
AcDb2dVertex
 10
-339.4544134378344
 20
95.24306985709951
 30
41.3
  0
VERTEX
  5
E2
330
6B
100
AcDbEntity
  8
Default
100
AcDbVertex
100
AcDb2dVertex
 10
-339.5033713806819
 20
95.20710885319303
 30
41.3
  0
VERTEX
  5
E3
330
6B
100
AcDbEntity
  8
Default
100
AcDbVertex
100
AcDb2dVertex
 10
-339.5535479181884
 20
95.17286868593777
 30
41.3
  0
VERTEX
  5
E4
330
6B
100
AcDbEntity
  8
Default
100
AcDbVertex
100
AcDb2dVertex
 10
-339.6048825915345
 20
95.14039061206839
 30
41.3
  0
VERTEX
  5
E5
330
6B
100
AcDbEntity
  8
Default
100
AcDbVertex
100
AcDb2dVertex
 10
-339.657313546437
 20
95.10971376513423
 30
41.3
  0
VERTEX
  5
E6
330
6B
100
AcDbEntity
  8
Default
100
AcDbVertex
100
AcDb2dVertex
 10
-339.7107776076791
 20
95.08087510834656
 30
41.3
  0
VERTEX
  5
E7
330
6B
100
AcDbEntity
  8
Default
100
AcDbVertex
100
AcDb2dVertex
 10
-339.7652103552311
 20
95.0539093900406
 30
41.3
  0
VERTEX
  5
E8
330
6B
100
AcDbEntity
  8
Default
100
AcDbVertex
100
AcDb2dVertex
 10
-339.8205462018718
 20
95.02884910180664
 30
41.3
  0
VERTEX
  5
E9
330
6B
100
AcDbEntity
  8
Default
100
AcDbVertex
100
AcDb2dVertex
 10
-339.876718472216
 20
95.00572443934011
 30
41.3
  0
VERTEX
  5
EA
330
6B
100
AcDbEntity
  8
Default
100
AcDbVertex
100
AcDb2dVertex
 10
-339.9336594830531
 20
94.98456326605817
 30
41.3
  0
VERTEX
  5
EB
330
6B
100
AcDbEntity
  8
Default
100
AcDbVertex
100
AcDb2dVertex
 10
-339.9913006248999
 20
94.96539107952644
 30
41.3
  0
VERTEX
  5
EC
330
6B
100
AcDbEntity
  8
Default
100
AcDbVertex
100
AcDb2dVertex
 10
-340.0495724446701
 20
94.94823098073641
 30
41.3
  0
VERTEX
  5
ED
330
6B
100
AcDbEntity
  8
Default
100
AcDbVertex
100
AcDb2dVertex
 10
-340.1084047293595
 20
94.93310364627057
 30
41.3
  0
VERTEX
  5
EE
330
6B
100
AcDbEntity
  8
Default
100
AcDbVertex
100
AcDb2dVertex
 10
-340.1677265906473
 20
94.92002730338872
 30
41.3
  0
VERTEX
  5
EF
330
6B
100
AcDbEntity
  8
Default
100
AcDbVertex
100
AcDb2dVertex
 10
-340.2274665503111
 20
94.90901770806555
 30
41.3
  0
VERTEX
  5
F0
330
6B
100
AcDbEntity
  8
Default
100
AcDbVertex
100
AcDb2dVertex
 10
-340.2875526263526
 20
94.90008812600591
 30
41.3
  0
VERTEX
  5
F1
330
6B
100
AcDbEntity
  8
Default
100
AcDbVertex
100
AcDb2dVertex
 10
-340.3479124197299
 20
94.8932493166607
 30
41.3
  0
VERTEX
  5
F2
330
6B
100
AcDbEntity
  8
Default
100
AcDbVertex
100
AcDb2dVertex
 10
-340.4084732015934
 20
94.8885095202625
 30
41.3
  0
VERTEX
  5
F3
330
6B
100
AcDbEntity
  8
Default
100
AcDbVertex
100
AcDb2dVertex
 10
-340.4691620009178
 20
94.88587444789682
 30
41.3
  0
VERTEX
  5
F4
330
6B
100
AcDbEntity
  8
Default
100
AcDbVertex
100
AcDb2dVertex
 10
-340.5299056924269
 20
94.8853472746206
 30
41.3
  0
VERTEX
  5
F5
330
6B
100
AcDbEntity
  8
Default
100
AcDbVertex
100
AcDb2dVertex
 10
-340.5906310847035
 20
94.8869286356366
 30
41.3
  0
VERTEX
  5
F6
330
6B
100
AcDbEntity
  8
Default
100
AcDbVertex
100
AcDb2dVertex
 10
-340.6512650083798
 20
94.89061662552795
 30
41.3
  0
VERTEX
  5
F7
330
6B
100
AcDbEntity
  8
Default
100
AcDbVertex
100
AcDb2dVertex
 10
-340.7117344043002
 20
94.89640680055408
 30
41.3
  0
VERTEX
  5
F8
330
6B
100
AcDbEntity
  8
Default
100
AcDbVertex
100
AcDb2dVertex
 10
-340.7719664115526
 20
94.90429218400507
 30
41.3
  0
VERTEX
  5
F9
330
6B
100
AcDbEntity
  8
Default
100
AcDbVertex
100
AcDb2dVertex
 10
-340.8318884552594
 20
94.91426327460803
 30
41.3
  0
VERTEX
  5
FA
330
6B
100
AcDbEntity
  8
Default
100
AcDbVertex
100
AcDb2dVertex
 10
-340.8914283340252
 20
94.9263080579754
 30
41.3
  0
VERTEX
  5
FB
330
6B
100
AcDbEntity
  8
Default
100
AcDbVertex
100
AcDb2dVertex
 10
-340.9505143069335
 20
94.94041202108137
 30
41.3
  0
VERTEX
  5
FC
330
6B
100
AcDbEntity
  8
Default
100
AcDbVertex
100
AcDb2dVertex
 10
-341.0090751799889
 20
94.95655816974893
 30
41.3
  0
VERTEX
  5
FD
330
6B
100
AcDbEntity
  8
Default
100
AcDbVertex
100
AcDb2dVertex
 10
-341.0670403919007
 20
94.97472704912649
 30
41.3
  0
VERTEX
  5
FE
330
6B
100
AcDbEntity
  8
Default
100
AcDbVertex
100
AcDb2dVertex
 10
-341.1243400991032
 20
94.99489676712953
 30
41.3
  0
VERTEX
  5
FF
330
6B
100
AcDbEntity
  8
Default
100
AcDbVertex
100
AcDb2dVertex
 10
-341.1809052599122
 20
95.01704302081885
 30
41.3
  0
VERTEX
  5
100
330
6B
100
AcDbEntity
  8
Default
100
AcDbVertex
100
AcDb2dVertex
 10
-341.2366677177146
 20
95.04113912568363
 30
41.3
  0
VERTEX
  5
101
330
6B
100
AcDbEntity
  8
Default
100
AcDbVertex
100
AcDb2dVertex
 10
-341.2915602830918
 20
95.06715604779433
 30
41.3
  0
VERTEX
  5
102
330
6B
100
AcDbEntity
  8
Default
100
AcDbVertex
100
AcDb2dVertex
 10
-341.3455168147783
 20
95.09506243878617
 30
41.3
  0
VERTEX
  5
103
330
6B
100
AcDbEntity
  8
Default
100
AcDbVertex
100
AcDb2dVertex
 10
-341.3984722993556
 20
95.12482467363157
 30
41.3
  0
VERTEX
  5
104
330
6B
100
AcDbEntity
  8
Default
100
AcDbVertex
100
AcDb2dVertex
 10
-341.4503629295895
 20
95.15640689115564
 30
41.3
  0
VERTEX
  5
105
330
6B
100
AcDbEntity
  8
Default
100
AcDbVertex
100
AcDb2dVertex
 10
-341.5011261813123
 20
95.18977103724615
 30
41.3
  0
VERTEX
  5
106
330
6B
100
AcDbEntity
  8
Default
100
AcDbVertex
100
AcDb2dVertex
 10
-341.5507008887593
 20
95.22487691070566
 30
41.3
  0
VERTEX
  5
107
330
6B
100
AcDbEntity
  8
Default
100
AcDbVertex
100
AcDb2dVertex
 10
-341.5990273182694
 20
95.26168221169098
 30
41.3
  0
VERTEX
  5
108
330
6B
100
AcDbEntity
  8
Default
100
AcDbVertex
100
AcDb2dVertex
 10
-341.646047240259
 20
95.3001425926811
 30
41.3
  0
VERTEX
  5
109
330
6B
100
AcDbEntity
  8
Default
100
AcDbVertex
100
AcDb2dVertex
 10
-341.6917039993844
 20
95.3402117119125
 30
41.3
  0
VERTEX
  5
10A
330
6B
100
AcDbEntity
  8
Default
100
AcDbVertex
100
AcDb2dVertex
 10
-341.735942582807
 20
95.38184128921738
 30
41.3
  0
VERTEX
  5
10B
330
6B
100
AcDbEntity
  8
Default
100
AcDbVertex
100
AcDb2dVertex
 10
-341.7787096864792
 20
95.4249811641975
 30
41.3
  0
VERTEX
  5
10C
330
6B
100
AcDbEntity
  8
Default
100
AcDbVertex
100
AcDb2dVertex
 10
-341.8199537793723
 20
95.4695793566636
 30
41.3
  0
VERTEX
  5
10D
330
6B
100
AcDbEntity
  8
Default
100
AcDbVertex
100
AcDb2dVertex
 10
-341.8596251655666
 20
95.51558212926736
 30
41.3
  0
VERTEX
  5
10E
330
6B
100
AcDbEntity
  8
Default
100
AcDbVertex
100
AcDb2dVertex
 10
-341.8976760441318
 20
95.56293405225082
 30
41.3
  0
VERTEX
  5
10F
330
6B
100
AcDbEntity
  8
Default
100
AcDbVertex
100
AcDb2dVertex
 10
-341.9340605667228
 20
95.61157807023496
 30
41.3
  0
VERTEX
  5
110
330
6B
100
AcDbEntity
  8
Default
100
AcDbVertex
100
AcDb2dVertex
 10
-341.9687348928238
 20
95.6614555709668
 30
41.3
  0
VERTEX
  5
111
330
6B
100
AcDbEntity
  8
Default
100
AcDbVertex
100
AcDb2dVertex
 10
-342.0016572425725
 20
95.71250645594282
 30
41.3
  0
VERTEX
  5
112
330
6B
100
AcDbEntity
  8
Default
100
AcDbVertex
100
AcDb2dVertex
 10
-342.0327879471018
 20
95.76466921282284
 30
41.3
  0
VERTEX
  5
113
330
6B
100
AcDbEntity
  8
Default
100
AcDbVertex
100
AcDb2dVertex
 10
-342.0620894963374
 20
95.81788098954765
 30
41.3
  0
VERTEX
  5
114
330
6B
100
AcDbEntity
  8
Default
100
AcDbVertex
100
AcDb2dVertex
 10
-342.0895265841946
 20
95.87207767007081
 30
41.3
  0
VERTEX
  5
115
330
6B
100
AcDbEntity
  8
Default
100
AcDbVertex
100
AcDb2dVertex
 10
-342.1150661511197
 20
95.92719395161353
 30
41.3
  0
VERTEX
  5
116
330
6B
100
AcDbEntity
  8
Default
100
AcDbVertex
100
AcDb2dVertex
 10
-342.1386774239235
 20
95.98316342334942
 30
41.3
  0
VERTEX
  5
117
330
6B
100
AcDbEntity
  8
Default
100
AcDbVertex
100
AcDb2dVertex
 10
-342.1603319528616
 20
96.03991864642437
 30
41.3
  0
VERTEX
  5
118
330
6B
100
AcDbEntity
  8
Default
100
AcDbVertex
100
AcDb2dVertex
 10
-342.180003645913
 20
96.09739123521506
 30
41.3
  0
VERTEX
  5
119
330
6B
100
AcDbEntity
  8
Default
100
AcDbVertex
100
AcDb2dVertex
 10
-342.1976688002199
 20
96.15551193972841
 30
41.3
  0
VERTEX
  5
11A
330
6B
100
AcDbEntity
  8
Default
100
AcDbVertex
100
AcDb2dVertex
 10
-342.2133061306472
 20
96.21421072904235
 30
41.3
  0
VERTEX
  5
11B
330
6B
100
AcDbEntity
  8
Default
100
AcDbVertex
100
AcDb2dVertex
 10
-342.2268967954297
 20
96.27341687568764
 30
41.3
  0
VERTEX
  5
11C
330
6B
100
AcDbEntity
  8
Default
100
AcDbVertex
100
AcDb2dVertex
 10
-342.2384244188748
 20
96.33305904086902
 30
41.3
  0
VERTEX
  5
11D
330
6B
100
AcDbEntity
  8
Default
100
AcDbVertex
100
AcDb2dVertex
 10
-342.2478751110943
 20
96.39306536042278
 30
41.3
  0
VERTEX
  5
11E
330
6B
100
AcDbEntity
  8
Default
100
AcDbVertex
100
AcDb2dVertex
 10
-342.25523748474
 20
96.45336353140762
 30
41.3
  0
VERTEX
  5
11F
330
6B
100
AcDbEntity
  8
Default
100
AcDbVertex
100
AcDb2dVertex
 10
-342.2605026687251
 20
96.51388089922395
 30
41.3
  0
VERTEX
  5
120
330
6B
100
AcDbEntity
  8
Default
100
AcDbVertex
100
AcDb2dVertex
 10
-342.263664318913
 20
96.5745445451571
 30
41.3
  0
VERTEX
  5
121
330
6B
100
AcDbEntity
  8
Default
100
AcDbVertex
100
AcDb2dVertex
 10
-342.2647186257615
 20
96.63528137423867
 30
41.3
  0
SEQEND
  5
122
330
6B
100
AcDbEntity
  8
Default
  0
POLYLINE
  5
123
330
1F
100
AcDbEntity
  8
Default
100
AcDb2dPolyline
 66
     1
 10
0.0
 20
0.0
 30
41.3
  0
VERTEX
  5
124
330
123
100
AcDbEntity
  8
Default
100
AcDbVertex
100
AcDb2dVertex
 10
-425.7352813742384
 20
40.3647186257613
 30
41.3
  0
VERTEX
  5
125
330
123
100
AcDbEntity
  8
Default
100
AcDbVertex
100
AcDb2dVertex
 10
-425.7363356810869
 20
40.30398179667973
 30
41.3
  0
VERTEX
  5
126
330
123
100
AcDbEntity
  8
Default
100
AcDbVertex
100
AcDb2dVertex
 10
-425.7394973312748
 20
40.24331815074657
 30
41.3
  0
VERTEX
  5
127
330
123
100
AcDbEntity
  8
Default
100
AcDbVertex
100
AcDb2dVertex
 10
-425.7447625152599
 20
40.18280078293024
 30
41.3
  0
VERTEX
  5
128
330
123
100
AcDbEntity
  8
Default
100
AcDbVertex
100
AcDb2dVertex
 10
-425.7521248889056
 20
40.1225026119454
 30
41.3
  0
VERTEX
  5
129
330
123
100
AcDbEntity
  8
Default
100
AcDbVertex
100
AcDb2dVertex
 10
-425.761575581125
 20
40.06249629239164
 30
41.3
  0
VERTEX
  5
12A
330
123
100
AcDbEntity
  8
Default
100
AcDbVertex
100
AcDb2dVertex
 10
-425.7731032045702
 20
40.00285412721028
 30
41.3
  0
VERTEX
  5
12B
330
123
100
AcDbEntity
  8
Default
100
AcDbVertex
100
AcDb2dVertex
 10
-425.7866938693527
 20
39.94364798056498
 30
41.3
  0
VERTEX
  5
12C
330
123
100
AcDbEntity
  8
Default
100
AcDbVertex
100
AcDb2dVertex
 10
-425.80233119978
 20
39.88494919125104
 30
41.3
  0
VERTEX
  5
12D
330
123
100
AcDbEntity
  8
Default
100
AcDbVertex
100
AcDb2dVertex
 10
-425.8199963540869
 20
39.82682848673769
 30
41.3
  0
VERTEX
  5
12E
330
123
100
AcDbEntity
  8
Default
100
AcDbVertex
100
AcDb2dVertex
 10
-425.8396680471383
 20
39.76935589794699
 30
41.3
  0
VERTEX
  5
12F
330
123
100
AcDbEntity
  8
Default
100
AcDbVertex
100
AcDb2dVertex
 10
-425.8613225760764
 20
39.71260067487205
 30
41.3
  0
VERTEX
  5
130
330
123
100
AcDbEntity
  8
Default
100
AcDbVertex
100
AcDb2dVertex
 10
-425.8849338488802
 20
39.65663120313616
 30
41.3
  0
VERTEX
  5
131
330
123
100
AcDbEntity
  8
Default
100
AcDbVertex
100
AcDb2dVertex
 10
-425.9104734158053
 20
39.60151492159343
 30
41.3
  0
VERTEX
  5
132
330
123
100
AcDbEntity
  8
Default
100
AcDbVertex
100
AcDb2dVertex
 10
-425.9379105036625
 20
39.54731824107027
 30
41.3
  0
VERTEX
  5
133
330
123
100
AcDbEntity
  8
Default
100
AcDbVertex
100
AcDb2dVertex
 10
-425.967212052898
 20
39.49410646434548
 30
41.3
  0
VERTEX
  5
134
330
123
100
AcDbEntity
  8
Default
100
AcDbVertex
100
AcDb2dVertex
 10
-425.9983427574273
 20
39.44194370746546
 30
41.3
  0
VERTEX
  5
135
330
123
100
AcDbEntity
  8
Default
100
AcDbVertex
100
AcDb2dVertex
 10
-426.0312651071761
 20
39.39089282248943
 30
41.3
  0
VERTEX
  5
136
330
123
100
AcDbEntity
  8
Default
100
AcDbVertex
100
AcDb2dVertex
 10
-426.0659394332771
 20
39.34101532175758
 30
41.3
  0
VERTEX
  5
137
330
123
100
AcDbEntity
  8
Default
100
AcDbVertex
100
AcDb2dVertex
 10
-426.1023239558681
 20
39.29237130377346
 30
41.3
  0
VERTEX
  5
138
330
123
100
AcDbEntity
  8
Default
100
AcDbVertex
100
AcDb2dVertex
 10
-426.1403748344333
 20
39.24501938078999
 30
41.3
  0
VERTEX
  5
139
330
123
100
AcDbEntity
  8
Default
100
AcDbVertex
100
AcDb2dVertex
 10
-426.1800462206276
 20
39.19901660818623
 30
41.3
  0
VERTEX
  5
13A
330
123
100
AcDbEntity
  8
Default
100
AcDbVertex
100
AcDb2dVertex
 10
-426.2212903135207
 20
39.15441841572014
 30
41.3
  0
VERTEX
  5
13B
330
123
100
AcDbEntity
  8
Default
100
AcDbVertex
100
AcDb2dVertex
 10
-426.2640574171929
 20
39.11127854074001
 30
41.3
  0
VERTEX
  5
13C
330
123
100
AcDbEntity
  8
Default
100
AcDbVertex
100
AcDb2dVertex
 10
-426.3082960006155
 20
39.06964896343513
 30
41.3
  0
VERTEX
  5
13D
330
123
100
AcDbEntity
  8
Default
100
AcDbVertex
100
AcDb2dVertex
 10
-426.3539527597409
 20
39.02957984420373
 30
41.3
  0
VERTEX
  5
13E
330
123
100
AcDbEntity
  8
Default
100
AcDbVertex
100
AcDb2dVertex
 10
-426.4009726817305
 20
38.99111946321362
 30
41.3
  0
VERTEX
  5
13F
330
123
100
AcDbEntity
  8
Default
100
AcDbVertex
100
AcDb2dVertex
 10
-426.4492991112406
 20
38.95431416222829
 30
41.3
  0
VERTEX
  5
140
330
123
100
AcDbEntity
  8
Default
100
AcDbVertex
100
AcDb2dVertex
 10
-426.4988738186876
 20
38.91920828876878
 30
41.3
  0
VERTEX
  5
141
330
123
100
AcDbEntity
  8
Default
100
AcDbVertex
100
AcDb2dVertex
 10
-426.5496370704104
 20
38.88584414267829
 30
41.3
  0
VERTEX
  5
142
330
123
100
AcDbEntity
  8
Default
100
AcDbVertex
100
AcDb2dVertex
 10
-426.6015277006443
 20
38.85426192515421
 30
41.3
  0
VERTEX
  5
143
330
123
100
AcDbEntity
  8
Default
100
AcDbVertex
100
AcDb2dVertex
 10
-426.6544831852216
 20
38.82449969030881
 30
41.3
  0
VERTEX
  5
144
330
123
100
AcDbEntity
  8
Default
100
AcDbVertex
100
AcDb2dVertex
 10
-426.7084397169081
 20
38.79659329931697
 30
41.3
  0
VERTEX
  5
145
330
123
100
AcDbEntity
  8
Default
100
AcDbVertex
100
AcDb2dVertex
 10
-426.7633322822853
 20
38.77057637720628
 30
41.3
  0
VERTEX
  5
146
330
123
100
AcDbEntity
  8
Default
100
AcDbVertex
100
AcDb2dVertex
 10
-426.8190947400877
 20
38.74648027234148
 30
41.3
  0
VERTEX
  5
147
330
123
100
AcDbEntity
  8
Default
100
AcDbVertex
100
AcDb2dVertex
 10
-426.8756599008967
 20
38.72433401865218
 30
41.3
  0
VERTEX
  5
148
330
123
100
AcDbEntity
  8
Default
100
AcDbVertex
100
AcDb2dVertex
 10
-426.9329596080992
 20
38.70416430064913
 30
41.3
  0
VERTEX
  5
149
330
123
100
AcDbEntity
  8
Default
100
AcDbVertex
100
AcDb2dVertex
 10
-426.9909248200109
 20
38.68599542127157
 30
41.3
  0
VERTEX
  5
14A
330
123
100
AcDbEntity
  8
Default
100
AcDbVertex
100
AcDb2dVertex
 10
-427.0494856930664
 20
38.66984927260403
 30
41.3
  0
VERTEX
  5
14B
330
123
100
AcDbEntity
  8
Default
100
AcDbVertex
100
AcDb2dVertex
 10
-427.1085716659747
 20
38.65574530949805
 30
41.3
  0
VERTEX
  5
14C
330
123
100
AcDbEntity
  8
Default
100
AcDbVertex
100
AcDb2dVertex
 10
-427.1681115447405
 20
38.64370052613068
 30
41.3
  0
VERTEX
  5
14D
330
123
100
AcDbEntity
  8
Default
100
AcDbVertex
100
AcDb2dVertex
 10
-427.2280335884473
 20
38.63372943552772
 30
41.3
  0
VERTEX
  5
14E
330
123
100
AcDbEntity
  8
Default
100
AcDbVertex
100
AcDb2dVertex
 10
-427.2882655956997
 20
38.62584405207674
 30
41.3
  0
VERTEX
  5
14F
330
123
100
AcDbEntity
  8
Default
100
AcDbVertex
100
AcDb2dVertex
 10
-427.3487349916201
 20
38.6200538770506
 30
41.3
  0
VERTEX
  5
150
330
123
100
AcDbEntity
  8
Default
100
AcDbVertex
100
AcDb2dVertex
 10
-427.4093689152963
 20
38.61636588715925
 30
41.3
  0
VERTEX
  5
151
330
123
100
AcDbEntity
  8
Default
100
AcDbVertex
100
AcDb2dVertex
 10
-427.470094307573
 20
38.61478452614326
 30
41.3
  0
VERTEX
  5
152
330
123
100
AcDbEntity
  8
Default
100
AcDbVertex
100
AcDb2dVertex
 10
-427.5308379990821
 20
38.61531169941947
 30
41.3
  0
VERTEX
  5
153
330
123
100
AcDbEntity
  8
Default
100
AcDbVertex
100
AcDb2dVertex
 10
-427.5915267984065
 20
38.61794677178516
 30
41.3
  0
VERTEX
  5
154
330
123
100
AcDbEntity
  8
Default
100
AcDbVertex
100
AcDb2dVertex
 10
-427.65208758027
 20
38.62268656818335
 30
41.3
  0
VERTEX
  5
155
330
123
100
AcDbEntity
  8
Default
100
AcDbVertex
100
AcDb2dVertex
 10
-427.7124473736473
 20
38.62952537752858
 30
41.3
  0
VERTEX
  5
156
330
123
100
AcDbEntity
  8
Default
100
AcDbVertex
100
AcDb2dVertex
 10
-427.7725334496888
 20
38.63845495958821
 30
41.3
  0
VERTEX
  5
157
330
123
100
AcDbEntity
  8
Default
100
AcDbVertex
100
AcDb2dVertex
 10
-427.8322734093526
 20
38.64946455491138
 30
41.3
  0
VERTEX
  5
158
330
123
100
AcDbEntity
  8
Default
100
AcDbVertex
100
AcDb2dVertex
 10
-427.8915952706404
 20
38.66254089779323
 30
41.3
  0
VERTEX
  5
159
330
123
100
AcDbEntity
  8
Default
100
AcDbVertex
100
AcDb2dVertex
 10
-427.9504275553298
 20
38.67766823225907
 30
41.3
  0
VERTEX
  5
15A
330
123
100
AcDbEntity
  8
Default
100
AcDbVertex
100
AcDb2dVertex
 10
-428.0086993751
 20
38.6948283310491
 30
41.3
  0
VERTEX
  5
15B
330
123
100
AcDbEntity
  8
Default
100
AcDbVertex
100
AcDb2dVertex
 10
-428.0663405169468
 20
38.71400051758084
 30
41.3
  0
VERTEX
  5
15C
330
123
100
AcDbEntity
  8
Default
100
AcDbVertex
100
AcDb2dVertex
 10
-428.1232815277838
 20
38.73516169086277
 30
41.3
  0
VERTEX
  5
15D
330
123
100
AcDbEntity
  8
Default
100
AcDbVertex
100
AcDb2dVertex
 10
-428.1794537981281
 20
38.75828635332931
 30
41.3
  0
VERTEX
  5
15E
330
123
100
AcDbEntity
  8
Default
100
AcDbVertex
100
AcDb2dVertex
 10
-428.2347896447688
 20
38.78334664156327
 30
41.3
  0
VERTEX
  5
15F
330
123
100
AcDbEntity
  8
Default
100
AcDbVertex
100
AcDb2dVertex
 10
-428.2892223923208
 20
38.81031235986922
 30
41.3
  0
VERTEX
  5
160
330
123
100
AcDbEntity
  8
Default
100
AcDbVertex
100
AcDb2dVertex
 10
-428.3426864535629
 20
38.83915101665691
 30
41.3
  0
VERTEX
  5
161
330
123
100
AcDbEntity
  8
Default
100
AcDbVertex
100
AcDb2dVertex
 10
-428.3951174084654
 20
38.86982786359105
 30
41.3
  0
VERTEX
  5
162
330
123
100
AcDbEntity
  8
Default
100
AcDbVertex
100
AcDb2dVertex
 10
-428.4464520818115
 20
38.90230593746045
 30
41.3
  0
VERTEX
  5
163
330
123
100
AcDbEntity
  8
Default
100
AcDbVertex
100
AcDb2dVertex
 10
-428.496628619318
 20
38.93654610471571
 30
41.3
  0
VERTEX
  5
164
330
123
100
AcDbEntity
  8
Default
100
AcDbVertex
100
AcDb2dVertex
 10
-428.5455865621655
 20
38.97250710862217
 30
41.3
  0
VERTEX
  5
165
330
123
100
AcDbEntity
  8
Default
100
AcDbVertex
100
AcDb2dVertex
 10
-428.5932669198459
 20
39.01014561897106
 30
41.3
  0
VERTEX
  5
166
330
123
100
AcDbEntity
  8
Default
100
AcDbVertex
100
AcDb2dVertex
 10
-428.639612241242
 20
39.04941628428894
 30
41.3
  0
VERTEX
  5
167
330
123
100
AcDbEntity
  8
Default
100
AcDbVertex
100
AcDb2dVertex
 10
-428.6845666838511
 20
39.0902717864828
 30
41.3
  0
VERTEX
  5
168
330
123
100
AcDbEntity
  8
Default
100
AcDbVertex
100
AcDb2dVertex
 10
-428.7280760810715
 20
39.13266289785464
 30
41.3
  0
VERTEX
  5
169
330
123
100
AcDbEntity
  8
Default
100
AcDbVertex
100
AcDb2dVertex
 10
-428.7700880074681
 20
39.17653854041697
 30
41.3
  0
VERTEX
  5
16A
330
123
100
AcDbEntity
  8
Default
100
AcDbVertex
100
AcDb2dVertex
 10
-428.810551841942
 20
39.22184584743788
 30
41.3
  0
VERTEX
  5
16B
330
123
100
AcDbEntity
  8
Default
100
AcDbVertex
100
AcDb2dVertex
 10
-428.8494188287241
 20
39.26853022714127
 30
41.3
  0
VERTEX
  5
16C
330
123
100
AcDbEntity
  8
Default
100
AcDbVertex
100
AcDb2dVertex
 10
-428.8866421361228
 20
39.31653542848572
 30
41.3
  0
VERTEX
  5
16D
330
123
100
AcDbEntity
  8
Default
100
AcDbVertex
100
AcDb2dVertex
 10
-428.9221769129517
 20
39.36580360894263
 30
41.3
  0
VERTEX
  5
16E
330
123
100
AcDbEntity
  8
Default
100
AcDbVertex
100
AcDb2dVertex
 10
-428.9559803425725
 20
39.41627540419189
 30
41.3
  0
VERTEX
  5
16F
330
123
100
AcDbEntity
  8
Default
100
AcDbVertex
100
AcDb2dVertex
 10
-428.9880116944854
 20
39.46788999965136
 30
41.3
  0
VERTEX
  5
170
330
123
100
AcDbEntity
  8
Default
100
AcDbVertex
100
AcDb2dVertex
 10
-429.0182323734062
 20
39.52058520375365
 30
41.3
  0
VERTEX
  5
171
330
123
100
AcDbEntity
  8
Default
100
AcDbVertex
100
AcDb2dVertex
 10
-429.0466059657706
 20
39.57429752288208
 30
41.3
  0
VERTEX
  5
172
330
123
100
AcDbEntity
  8
Default
100
AcDbVertex
100
AcDb2dVertex
 10
-429.0730982836097
 20
39.62896223787564
 30
41.3
  0
VERTEX
  5
173
330
123
100
AcDbEntity
  8
Default
100
AcDbVertex
100
AcDb2dVertex
 10
-429.0976774057439
 20
39.68451348201044
 30
41.3
  0
VERTEX
  5
174
330
123
100
AcDbEntity
  8
Default
100
AcDbVertex
100
AcDb2dVertex
 10
-429.1203137162456
 20
39.74088432036404
 30
41.3
  0
VERTEX
  5
175
330
123
100
AcDbEntity
  8
Default
100
AcDbVertex
100
AcDb2dVertex
 10
-429.1409799401235
 20
39.79800683046681
 30
41.3
  0
VERTEX
  5
176
330
123
100
AcDbEntity
  8
Default
100
AcDbVertex
100
AcDb2dVertex
 10
-429.1596511761877
 20
39.8558121841432
 30
41.3
  0
VERTEX
  5
177
330
123
100
AcDbEntity
  8
Default
100
AcDbVertex
100
AcDb2dVertex
 10
-429.1763049270527
 20
39.91423073044433
 30
41.3
  0
VERTEX
  5
178
330
123
100
AcDbEntity
  8
Default
100
AcDbVertex
100
AcDb2dVertex
 10
-429.1909211262462
 20
39.97319207957199
 30
41.3
  0
VERTEX
  5
179
330
123
100
AcDbEntity
  8
Default
100
AcDbVertex
100
AcDb2dVertex
 10
-429.2034821623863
 20
40.03262518769282
 30
41.3
  0
VERTEX
  5
17A
330
123
100
AcDbEntity
  8
Default
100
AcDbVertex
100
AcDb2dVertex
 10
-429.2139729004028
 20
40.09245844254062
 30
41.3
  0
VERTEX
  5
17B
330
123
100
AcDbEntity
  8
Default
100
AcDbVertex
100
AcDb2dVertex
 10
-429.2223806997737
 20
40.15261974970356
 30
41.3
  0
VERTEX
  5
17C
330
123
100
AcDbEntity
  8
Default
100
AcDbVertex
100
AcDb2dVertex
 10
-429.2286954297554
 20
40.21303661949232
 30
41.3
  0
VERTEX
  5
17D
330
123
100
AcDbEntity
  8
Default
100
AcDbVertex
100
AcDb2dVertex
 10
-429.2329094815902
 20
40.27363625428452
 30
41.3
  0
VERTEX
  5
17E
330
123
100
AcDbEntity
  8
Default
100
AcDbVertex
100
AcDb2dVertex
 10
-429.2350177776739
 20
40.33434563624018
 30
41.3
  0
VERTEX
  5
17F
330
123
100
AcDbEntity
  8
Default
100
AcDbVertex
100
AcDb2dVertex
 10
-429.2350177776739
 20
40.39509161528253
 30
41.3
  0
VERTEX
  5
180
330
123
100
AcDbEntity
  8
Default
100
AcDbVertex
100
AcDb2dVertex
 10
-429.2329094815902
 20
40.45580099723819
 30
41.3
  0
VERTEX
  5
181
330
123
100
AcDbEntity
  8
Default
100
AcDbVertex
100
AcDb2dVertex
 10
-429.2286954297554
 20
40.51640063203039
 30
41.3
  0
VERTEX
  5
182
330
123
100
AcDbEntity
  8
Default
100
AcDbVertex
100
AcDb2dVertex
 10
-429.2223806997737
 20
40.57681750181915
 30
41.3
  0
VERTEX
  5
183
330
123
100
AcDbEntity
  8
Default
100
AcDbVertex
100
AcDb2dVertex
 10
-429.2139729004028
 20
40.63697880898209
 30
41.3
  0
VERTEX
  5
184
330
123
100
AcDbEntity
  8
Default
100
AcDbVertex
100
AcDb2dVertex
 10
-429.2034821623863
 20
40.6968120638299
 30
41.3
  0
VERTEX
  5
185
330
123
100
AcDbEntity
  8
Default
100
AcDbVertex
100
AcDb2dVertex
 10
-429.1909211262462
 20
40.75624517195072
 30
41.3
  0
VERTEX
  5
186
330
123
100
AcDbEntity
  8
Default
100
AcDbVertex
100
AcDb2dVertex
 10
-429.1763049270527
 20
40.81520652107838
 30
41.3
  0
VERTEX
  5
187
330
123
100
AcDbEntity
  8
Default
100
AcDbVertex
100
AcDb2dVertex
 10
-429.1596511761877
 20
40.87362506737951
 30
41.3
  0
VERTEX
  5
188
330
123
100
AcDbEntity
  8
Default
100
AcDbVertex
100
AcDb2dVertex
 10
-429.1409799401235
 20
40.9314304210559
 30
41.3
  0
VERTEX
  5
189
330
123
100
AcDbEntity
  8
Default
100
AcDbVertex
100
AcDb2dVertex
 10
-429.1203137162456
 20
40.98855293115867
 30
41.3
  0
VERTEX
  5
18A
330
123
100
AcDbEntity
  8
Default
100
AcDbVertex
100
AcDb2dVertex
 10
-429.0976774057439
 20
41.04492376951227
 30
41.3
  0
VERTEX
  5
18B
330
123
100
AcDbEntity
  8
Default
100
AcDbVertex
100
AcDb2dVertex
 10
-429.0730982836097
 20
41.10047501364707
 30
41.3
  0
VERTEX
  5
18C
330
123
100
AcDbEntity
  8
Default
100
AcDbVertex
100
AcDb2dVertex
 10
-429.0466059657706
 20
41.15513972864063
 30
41.3
  0
VERTEX
  5
18D
330
123
100
AcDbEntity
  8
Default
100
AcDbVertex
100
AcDb2dVertex
 10
-429.0182323734062
 20
41.20885204776906
 30
41.3
  0
VERTEX
  5
18E
330
123
100
AcDbEntity
  8
Default
100
AcDbVertex
100
AcDb2dVertex
 10
-428.9880116944854
 20
41.26154725187133
 30
41.3
  0
VERTEX
  5
18F
330
123
100
AcDbEntity
  8
Default
100
AcDbVertex
100
AcDb2dVertex
 10
-428.9559803425725
 20
41.3131618473308
 30
41.3
  0
VERTEX
  5
190
330
123
100
AcDbEntity
  8
Default
100
AcDbVertex
100
AcDb2dVertex
 10
-428.9221769129517
 20
41.36363364258007
 30
41.3
  0
VERTEX
  5
191
330
123
100
AcDbEntity
  8
Default
100
AcDbVertex
100
AcDb2dVertex
 10
-428.8866421361228
 20
41.41290182303698
 30
41.3
  0
VERTEX
  5
192
330
123
100
AcDbEntity
  8
Default
100
AcDbVertex
100
AcDb2dVertex
 10
-428.8494188287241
 20
41.46090702438143
 30
41.3
  0
VERTEX
  5
193
330
123
100
AcDbEntity
  8
Default
100
AcDbVertex
100
AcDb2dVertex
 10
-428.810551841942
 20
41.50759140408482
 30
41.3
  0
VERTEX
  5
194
330
123
100
AcDbEntity
  8
Default
100
AcDbVertex
100
AcDb2dVertex
 10
-428.7700880074681
 20
41.55289871110573
 30
41.3
  0
VERTEX
  5
195
330
123
100
AcDbEntity
  8
Default
100
AcDbVertex
100
AcDb2dVertex
 10
-428.7280760810715
 20
41.59677435366806
 30
41.3
  0
VERTEX
  5
196
330
123
100
AcDbEntity
  8
Default
100
AcDbVertex
100
AcDb2dVertex
 10
-428.6845666838511
 20
41.63916546503989
 30
41.3
  0
VERTEX
  5
197
330
123
100
AcDbEntity
  8
Default
100
AcDbVertex
100
AcDb2dVertex
 10
-428.639612241242
 20
41.68002096723376
 30
41.3
  0
VERTEX
  5
198
330
123
100
AcDbEntity
  8
Default
100
AcDbVertex
100
AcDb2dVertex
 10
-428.5932669198459
 20
41.71929163255164
 30
41.3
  0
VERTEX
  5
199
330
123
100
AcDbEntity
  8
Default
100
AcDbVertex
100
AcDb2dVertex
 10
-428.5455865621655
 20
41.75693014290051
 30
41.3
  0
VERTEX
  5
19A
330
123
100
AcDbEntity
  8
Default
100
AcDbVertex
100
AcDb2dVertex
 10
-428.496628619318
 20
41.79289114680697
 30
41.3
  0
VERTEX
  5
19B
330
123
100
AcDbEntity
  8
Default
100
AcDbVertex
100
AcDb2dVertex
 10
-428.4464520818115
 20
41.82713131406224
 30
41.3
  0
VERTEX
  5
19C
330
123
100
AcDbEntity
  8
Default
100
AcDbVertex
100
AcDb2dVertex
 10
-428.3951174084654
 20
41.85960938793163
 30
41.3
  0
VERTEX
  5
19D
330
123
100
AcDbEntity
  8
Default
100
AcDbVertex
100
AcDb2dVertex
 10
-428.3426864535629
 20
41.89028623486578
 30
41.3
  0
VERTEX
  5
19E
330
123
100
AcDbEntity
  8
Default
100
AcDbVertex
100
AcDb2dVertex
 10
-428.2892223923208
 20
41.91912489165346
 30
41.3
  0
VERTEX
  5
19F
330
123
100
AcDbEntity
  8
Default
100
AcDbVertex
100
AcDb2dVertex
 10
-428.2347896447688
 20
41.94609060995941
 30
41.3
  0
VERTEX
  5
1A0
330
123
100
AcDbEntity
  8
Default
100
AcDbVertex
100
AcDb2dVertex
 10
-428.1794537981281
 20
41.97115089819337
 30
41.3
  0
VERTEX
  5
1A1
330
123
100
AcDbEntity
  8
Default
100
AcDbVertex
100
AcDb2dVertex
 10
-428.1232815277839
 20
41.99427556065989
 30
41.3
  0
VERTEX
  5
1A2
330
123
100
AcDbEntity
  8
Default
100
AcDbVertex
100
AcDb2dVertex
 10
-428.0663405169468
 20
42.01543673394183
 30
41.3
  0
VERTEX
  5
1A3
330
123
100
AcDbEntity
  8
Default
100
AcDbVertex
100
AcDb2dVertex
 10
-428.0086993751
 20
42.03460892047357
 30
41.3
  0
VERTEX
  5
1A4
330
123
100
AcDbEntity
  8
Default
100
AcDbVertex
100
AcDb2dVertex
 10
-427.9504275553298
 20
42.0517690192636
 30
41.3
  0
VERTEX
  5
1A5
330
123
100
AcDbEntity
  8
Default
100
AcDbVertex
100
AcDb2dVertex
 10
-427.8915952706404
 20
42.06689635372944
 30
41.3
  0
VERTEX
  5
1A6
330
123
100
AcDbEntity
  8
Default
100
AcDbVertex
100
AcDb2dVertex
 10
-427.8322734093526
 20
42.07997269661129
 30
41.3
  0
VERTEX
  5
1A7
330
123
100
AcDbEntity
  8
Default
100
AcDbVertex
100
AcDb2dVertex
 10
-427.7725334496888
 20
42.09098229193446
 30
41.3
  0
VERTEX
  5
1A8
330
123
100
AcDbEntity
  8
Default
100
AcDbVertex
100
AcDb2dVertex
 10
-427.7124473736473
 20
42.09991187399409
 30
41.3
  0
VERTEX
  5
1A9
330
123
100
AcDbEntity
  8
Default
100
AcDbVertex
100
AcDb2dVertex
 10
-427.65208758027
 20
42.1067506833393
 30
41.3
  0
VERTEX
  5
1AA
330
123
100
AcDbEntity
  8
Default
100
AcDbVertex
100
AcDb2dVertex
 10
-427.5915267984065
 20
42.1114904797375
 30
41.3
  0
VERTEX
  5
1AB
330
123
100
AcDbEntity
  8
Default
100
AcDbVertex
100
AcDb2dVertex
 10
-427.5308379990821
 20
42.11412555210318
 30
41.3
  0
VERTEX
  5
1AC
330
123
100
AcDbEntity
  8
Default
100
AcDbVertex
100
AcDb2dVertex
 10
-427.470094307573
 20
42.11465272537939
 30
41.3
  0
VERTEX
  5
1AD
330
123
100
AcDbEntity
  8
Default
100
AcDbVertex
100
AcDb2dVertex
 10
-427.4093689152963
 20
42.1130713643634
 30
41.3
  0
VERTEX
  5
1AE
330
123
100
AcDbEntity
  8
Default
100
AcDbVertex
100
AcDb2dVertex
 10
-427.3487349916201
 20
42.10938337447205
 30
41.3
  0
VERTEX
  5
1AF
330
123
100
AcDbEntity
  8
Default
100
AcDbVertex
100
AcDb2dVertex
 10
-427.2882655956997
 20
42.10359319944592
 30
41.3
  0
VERTEX
  5
1B0
330
123
100
AcDbEntity
  8
Default
100
AcDbVertex
100
AcDb2dVertex
 10
-427.2280335884473
 20
42.09570781599492
 30
41.3
  0
VERTEX
  5
1B1
330
123
100
AcDbEntity
  8
Default
100
AcDbVertex
100
AcDb2dVertex
 10
-427.1681115447405
 20
42.08573672539197
 30
41.3
  0
VERTEX
  5
1B2
330
123
100
AcDbEntity
  8
Default
100
AcDbVertex
100
AcDb2dVertex
 10
-427.1085716659747
 20
42.07369194202459
 30
41.3
  0
VERTEX
  5
1B3
330
123
100
AcDbEntity
  8
Default
100
AcDbVertex
100
AcDb2dVertex
 10
-427.0494856930664
 20
42.05958797891861
 30
41.3
  0
VERTEX
  5
1B4
330
123
100
AcDbEntity
  8
Default
100
AcDbVertex
100
AcDb2dVertex
 10
-426.9909248200109
 20
42.04344183025107
 30
41.3
  0
VERTEX
  5
1B5
330
123
100
AcDbEntity
  8
Default
100
AcDbVertex
100
AcDb2dVertex
 10
-426.9329596080992
 20
42.02527295087351
 30
41.3
  0
VERTEX
  5
1B6
330
123
100
AcDbEntity
  8
Default
100
AcDbVertex
100
AcDb2dVertex
 10
-426.8756599008967
 20
42.00510323287046
 30
41.3
  0
VERTEX
  5
1B7
330
123
100
AcDbEntity
  8
Default
100
AcDbVertex
100
AcDb2dVertex
 10
-426.8190947400877
 20
41.98295697918115
 30
41.3
  0
VERTEX
  5
1B8
330
123
100
AcDbEntity
  8
Default
100
AcDbVertex
100
AcDb2dVertex
 10
-426.7633322822853
 20
41.95886087431635
 30
41.3
  0
VERTEX
  5
1B9
330
123
100
AcDbEntity
  8
Default
100
AcDbVertex
100
AcDb2dVertex
 10
-426.7084397169081
 20
41.93284395220566
 30
41.3
  0
VERTEX
  5
1BA
330
123
100
AcDbEntity
  8
Default
100
AcDbVertex
100
AcDb2dVertex
 10
-426.6544831852216
 20
41.90493756121382
 30
41.3
  0
VERTEX
  5
1BB
330
123
100
AcDbEntity
  8
Default
100
AcDbVertex
100
AcDb2dVertex
 10
-426.6015277006443
 20
41.87517532636841
 30
41.3
  0
VERTEX
  5
1BC
330
123
100
AcDbEntity
  8
Default
100
AcDbVertex
100
AcDb2dVertex
 10
-426.5496370704104
 20
41.84359310884434
 30
41.3
  0
VERTEX
  5
1BD
330
123
100
AcDbEntity
  8
Default
100
AcDbVertex
100
AcDb2dVertex
 10
-426.4988738186876
 20
41.81022896275385
 30
41.3
  0
VERTEX
  5
1BE
330
123
100
AcDbEntity
  8
Default
100
AcDbVertex
100
AcDb2dVertex
 10
-426.4492991112406
 20
41.77512308929433
 30
41.3
  0
VERTEX
  5
1BF
330
123
100
AcDbEntity
  8
Default
100
AcDbVertex
100
AcDb2dVertex
 10
-426.4009726817305
 20
41.738317788309
 30
41.3
  0
VERTEX
  5
1C0
330
123
100
AcDbEntity
  8
Default
100
AcDbVertex
100
AcDb2dVertex
 10
-426.3539527597409
 20
41.69985740731888
 30
41.3
  0
VERTEX
  5
1C1
330
123
100
AcDbEntity
  8
Default
100
AcDbVertex
100
AcDb2dVertex
 10
-426.3082960006155
 20
41.65978828808748
 30
41.3
  0
VERTEX
  5
1C2
330
123
100
AcDbEntity
  8
Default
100
AcDbVertex
100
AcDb2dVertex
 10
-426.2640574171929
 20
41.6181587107826
 30
41.3
  0
VERTEX
  5
1C3
330
123
100
AcDbEntity
  8
Default
100
AcDbVertex
100
AcDb2dVertex
 10
-426.2212903135207
 20
41.57501883580247
 30
41.3
  0
VERTEX
  5
1C4
330
123
100
AcDbEntity
  8
Default
100
AcDbVertex
100
AcDb2dVertex
 10
-426.1800462206276
 20
41.53042064333638
 30
41.3
  0
VERTEX
  5
1C5
330
123
100
AcDbEntity
  8
Default
100
AcDbVertex
100
AcDb2dVertex
 10
-426.1403748344333
 20
41.48441787073262
 30
41.3
  0
VERTEX
  5
1C6
330
123
100
AcDbEntity
  8
Default
100
AcDbVertex
100
AcDb2dVertex
 10
-426.1023239558681
 20
41.43706594774915
 30
41.3
  0
VERTEX
  5
1C7
330
123
100
AcDbEntity
  8
Default
100
AcDbVertex
100
AcDb2dVertex
 10
-426.0659394332771
 20
41.38842192976503
 30
41.3
  0
VERTEX
  5
1C8
330
123
100
AcDbEntity
  8
Default
100
AcDbVertex
100
AcDb2dVertex
 10
-426.0312651071761
 20
41.33854442903318
 30
41.3
  0
VERTEX
  5
1C9
330
123
100
AcDbEntity
  8
Default
100
AcDbVertex
100
AcDb2dVertex
 10
-425.9983427574273
 20
41.28749354405716
 30
41.3
  0
VERTEX
  5
1CA
330
123
100
AcDbEntity
  8
Default
100
AcDbVertex
100
AcDb2dVertex
 10
-425.967212052898
 20
41.23533078717713
 30
41.3
  0
VERTEX
  5
1CB
330
123
100
AcDbEntity
  8
Default
100
AcDbVertex
100
AcDb2dVertex
 10
-425.9379105036625
 20
41.18211901045233
 30
41.3
  0
VERTEX
  5
1CC
330
123
100
AcDbEntity
  8
Default
100
AcDbVertex
100
AcDb2dVertex
 10
-425.9104734158053
 20
41.12792232992916
 30
41.3
  0
VERTEX
  5
1CD
330
123
100
AcDbEntity
  8
Default
100
AcDbVertex
100
AcDb2dVertex
 10
-425.8849338488802
 20
41.07280604838644
 30
41.3
  0
VERTEX
  5
1CE
330
123
100
AcDbEntity
  8
Default
100
AcDbVertex
100
AcDb2dVertex
 10
-425.8613225760764
 20
41.01683657665055
 30
41.3
  0
VERTEX
  5
1CF
330
123
100
AcDbEntity
  8
Default
100
AcDbVertex
100
AcDb2dVertex
 10
-425.8396680471383
 20
40.96008135357561
 30
41.3
  0
VERTEX
  5
1D0
330
123
100
AcDbEntity
  8
Default
100
AcDbVertex
100
AcDb2dVertex
 10
-425.8199963540869
 20
40.90260876478491
 30
41.3
  0
VERTEX
  5
1D1
330
123
100
AcDbEntity
  8
Default
100
AcDbVertex
100
AcDb2dVertex
 10
-425.80233119978
 20
40.84448806027156
 30
41.3
  0
VERTEX
  5
1D2
330
123
100
AcDbEntity
  8
Default
100
AcDbVertex
100
AcDb2dVertex
 10
-425.7866938693527
 20
40.78578927095762
 30
41.3
  0
VERTEX
  5
1D3
330
123
100
AcDbEntity
  8
Default
100
AcDbVertex
100
AcDb2dVertex
 10
-425.7731032045702
 20
40.72658312431232
 30
41.3
  0
VERTEX
  5
1D4
330
123
100
AcDbEntity
  8
Default
100
AcDbVertex
100
AcDb2dVertex
 10
-425.761575581125
 20
40.66694095913095
 30
41.3
  0
VERTEX
  5
1D5
330
123
100
AcDbEntity
  8
Default
100
AcDbVertex
100
AcDb2dVertex
 10
-425.7521248889056
 20
40.6069346395772
 30
41.3
  0
VERTEX
  5
1D6
330
123
100
AcDbEntity
  8
Default
100
AcDbVertex
100
AcDb2dVertex
 10
-425.7447625152599
 20
40.54663646859236
 30
41.3
  0
VERTEX
  5
1D7
330
123
100
AcDbEntity
  8
Default
100
AcDbVertex
100
AcDb2dVertex
 10
-425.7394973312748
 20
40.48611910077603
 30
41.3
  0
VERTEX
  5
1D8
330
123
100
AcDbEntity
  8
Default
100
AcDbVertex
100
AcDb2dVertex
 10
-425.7363356810869
 20
40.42545545484287
 30
41.3
  0
VERTEX
  5
1D9
330
123
100
AcDbEntity
  8
Default
100
AcDbVertex
100
AcDb2dVertex
 10
-425.7352813742384
 20
40.3647186257613
 30
41.3
  0
SEQEND
  5
1DA
330
123
100
AcDbEntity
  8
Default
  0
POLYLINE
  5
1DB
330
1F
100
AcDbEntity
  8
Default
100
AcDb2dPolyline
 66
     1
 10
0.0
 20
0.0
 30
41.3
  0
VERTEX
  5
1DC
330
1DB
100
AcDbEntity
  8
Default
100
AcDbVertex
100
AcDb2dVertex
 10
-342.2647186257615
 20
40.3647186257613
 30
41.3
  0
VERTEX
  5
1DD
330
1DB
100
AcDbEntity
  8
Default
100
AcDbVertex
100
AcDb2dVertex
 10
-342.263664318913
 20
40.42545545484287
 30
41.3
  0
VERTEX
  5
1DE
330
1DB
100
AcDbEntity
  8
Default
100
AcDbVertex
100
AcDb2dVertex
 10
-342.2605026687251
 20
40.48611910077603
 30
41.3
  0
VERTEX
  5
1DF
330
1DB
100
AcDbEntity
  8
Default
100
AcDbVertex
100
AcDb2dVertex
 10
-342.25523748474
 20
40.54663646859236
 30
41.3
  0
VERTEX
  5
1E0
330
1DB
100
AcDbEntity
  8
Default
100
AcDbVertex
100
AcDb2dVertex
 10
-342.2478751110943
 20
40.6069346395772
 30
41.3
  0
VERTEX
  5
1E1
330
1DB
100
AcDbEntity
  8
Default
100
AcDbVertex
100
AcDb2dVertex
 10
-342.2384244188748
 20
40.66694095913095
 30
41.3
  0
VERTEX
  5
1E2
330
1DB
100
AcDbEntity
  8
Default
100
AcDbVertex
100
AcDb2dVertex
 10
-342.2268967954297
 20
40.72658312431232
 30
41.3
  0
VERTEX
  5
1E3
330
1DB
100
AcDbEntity
  8
Default
100
AcDbVertex
100
AcDb2dVertex
 10
-342.2133061306472
 20
40.78578927095762
 30
41.3
  0
VERTEX
  5
1E4
330
1DB
100
AcDbEntity
  8
Default
100
AcDbVertex
100
AcDb2dVertex
 10
-342.1976688002199
 20
40.84448806027156
 30
41.3
  0
VERTEX
  5
1E5
330
1DB
100
AcDbEntity
  8
Default
100
AcDbVertex
100
AcDb2dVertex
 10
-342.180003645913
 20
40.90260876478491
 30
41.3
  0
VERTEX
  5
1E6
330
1DB
100
AcDbEntity
  8
Default
100
AcDbVertex
100
AcDb2dVertex
 10
-342.1603319528616
 20
40.9600813535756
 30
41.3
  0
VERTEX
  5
1E7
330
1DB
100
AcDbEntity
  8
Default
100
AcDbVertex
100
AcDb2dVertex
 10
-342.1386774239235
 20
41.01683657665055
 30
41.3
  0
VERTEX
  5
1E8
330
1DB
100
AcDbEntity
  8
Default
100
AcDbVertex
100
AcDb2dVertex
 10
-342.1150661511197
 20
41.07280604838644
 30
41.3
  0
VERTEX
  5
1E9
330
1DB
100
AcDbEntity
  8
Default
100
AcDbVertex
100
AcDb2dVertex
 10
-342.0895265841946
 20
41.12792232992916
 30
41.3
  0
VERTEX
  5
1EA
330
1DB
100
AcDbEntity
  8
Default
100
AcDbVertex
100
AcDb2dVertex
 10
-342.0620894963374
 20
41.18211901045233
 30
41.3
  0
VERTEX
  5
1EB
330
1DB
100
AcDbEntity
  8
Default
100
AcDbVertex
100
AcDb2dVertex
 10
-342.0327879471018
 20
41.23533078717713
 30
41.3
  0
VERTEX
  5
1EC
330
1DB
100
AcDbEntity
  8
Default
100
AcDbVertex
100
AcDb2dVertex
 10
-342.0016572425725
 20
41.28749354405716
 30
41.3
  0
VERTEX
  5
1ED
330
1DB
100
AcDbEntity
  8
Default
100
AcDbVertex
100
AcDb2dVertex
 10
-341.9687348928238
 20
41.33854442903318
 30
41.3
  0
VERTEX
  5
1EE
330
1DB
100
AcDbEntity
  8
Default
100
AcDbVertex
100
AcDb2dVertex
 10
-341.9340605667228
 20
41.38842192976503
 30
41.3
  0
VERTEX
  5
1EF
330
1DB
100
AcDbEntity
  8
Default
100
AcDbVertex
100
AcDb2dVertex
 10
-341.8976760441318
 20
41.43706594774915
 30
41.3
  0
VERTEX
  5
1F0
330
1DB
100
AcDbEntity
  8
Default
100
AcDbVertex
100
AcDb2dVertex
 10
-341.8596251655666
 20
41.48441787073262
 30
41.3
  0
VERTEX
  5
1F1
330
1DB
100
AcDbEntity
  8
Default
100
AcDbVertex
100
AcDb2dVertex
 10
-341.8199537793723
 20
41.53042064333638
 30
41.3
  0
VERTEX
  5
1F2
330
1DB
100
AcDbEntity
  8
Default
100
AcDbVertex
100
AcDb2dVertex
 10
-341.7787096864792
 20
41.57501883580247
 30
41.3
  0
VERTEX
  5
1F3
330
1DB
100
AcDbEntity
  8
Default
100
AcDbVertex
100
AcDb2dVertex
 10
-341.735942582807
 20
41.6181587107826
 30
41.3
  0
VERTEX
  5
1F4
330
1DB
100
AcDbEntity
  8
Default
100
AcDbVertex
100
AcDb2dVertex
 10
-341.6917039993844
 20
41.65978828808748
 30
41.3
  0
VERTEX
  5
1F5
330
1DB
100
AcDbEntity
  8
Default
100
AcDbVertex
100
AcDb2dVertex
 10
-341.646047240259
 20
41.69985740731888
 30
41.3
  0
VERTEX
  5
1F6
330
1DB
100
AcDbEntity
  8
Default
100
AcDbVertex
100
AcDb2dVertex
 10
-341.5990273182694
 20
41.738317788309
 30
41.3
  0
VERTEX
  5
1F7
330
1DB
100
AcDbEntity
  8
Default
100
AcDbVertex
100
AcDb2dVertex
 10
-341.5507008887593
 20
41.77512308929433
 30
41.3
  0
VERTEX
  5
1F8
330
1DB
100
AcDbEntity
  8
Default
100
AcDbVertex
100
AcDb2dVertex
 10
-341.5011261813123
 20
41.81022896275385
 30
41.3
  0
VERTEX
  5
1F9
330
1DB
100
AcDbEntity
  8
Default
100
AcDbVertex
100
AcDb2dVertex
 10
-341.4503629295895
 20
41.84359310884434
 30
41.3
  0
VERTEX
  5
1FA
330
1DB
100
AcDbEntity
  8
Default
100
AcDbVertex
100
AcDb2dVertex
 10
-341.3984722993556
 20
41.87517532636841
 30
41.3
  0
VERTEX
  5
1FB
330
1DB
100
AcDbEntity
  8
Default
100
AcDbVertex
100
AcDb2dVertex
 10
-341.3455168147783
 20
41.90493756121382
 30
41.3
  0
VERTEX
  5
1FC
330
1DB
100
AcDbEntity
  8
Default
100
AcDbVertex
100
AcDb2dVertex
 10
-341.2915602830918
 20
41.93284395220566
 30
41.3
  0
VERTEX
  5
1FD
330
1DB
100
AcDbEntity
  8
Default
100
AcDbVertex
100
AcDb2dVertex
 10
-341.2366677177146
 20
41.95886087431635
 30
41.3
  0
VERTEX
  5
1FE
330
1DB
100
AcDbEntity
  8
Default
100
AcDbVertex
100
AcDb2dVertex
 10
-341.1809052599122
 20
41.98295697918115
 30
41.3
  0
VERTEX
  5
1FF
330
1DB
100
AcDbEntity
  8
Default
100
AcDbVertex
100
AcDb2dVertex
 10
-341.1243400991032
 20
42.00510323287046
 30
41.3
  0
VERTEX
  5
200
330
1DB
100
AcDbEntity
  8
Default
100
AcDbVertex
100
AcDb2dVertex
 10
-341.0670403919007
 20
42.02527295087351
 30
41.3
  0
VERTEX
  5
201
330
1DB
100
AcDbEntity
  8
Default
100
AcDbVertex
100
AcDb2dVertex
 10
-341.0090751799889
 20
42.04344183025107
 30
41.3
  0
VERTEX
  5
202
330
1DB
100
AcDbEntity
  8
Default
100
AcDbVertex
100
AcDb2dVertex
 10
-340.9505143069335
 20
42.05958797891861
 30
41.3
  0
VERTEX
  5
203
330
1DB
100
AcDbEntity
  8
Default
100
AcDbVertex
100
AcDb2dVertex
 10
-340.8914283340252
 20
42.07369194202459
 30
41.3
  0
VERTEX
  5
204
330
1DB
100
AcDbEntity
  8
Default
100
AcDbVertex
100
AcDb2dVertex
 10
-340.8318884552594
 20
42.08573672539196
 30
41.3
  0
VERTEX
  5
205
330
1DB
100
AcDbEntity
  8
Default
100
AcDbVertex
100
AcDb2dVertex
 10
-340.7719664115526
 20
42.09570781599492
 30
41.3
  0
VERTEX
  5
206
330
1DB
100
AcDbEntity
  8
Default
100
AcDbVertex
100
AcDb2dVertex
 10
-340.7117344043002
 20
42.10359319944592
 30
41.3
  0
VERTEX
  5
207
330
1DB
100
AcDbEntity
  8
Default
100
AcDbVertex
100
AcDb2dVertex
 10
-340.6512650083798
 20
42.10938337447205
 30
41.3
  0
VERTEX
  5
208
330
1DB
100
AcDbEntity
  8
Default
100
AcDbVertex
100
AcDb2dVertex
 10
-340.5906310847035
 20
42.1130713643634
 30
41.3
  0
VERTEX
  5
209
330
1DB
100
AcDbEntity
  8
Default
100
AcDbVertex
100
AcDb2dVertex
 10
-340.5299056924269
 20
42.11465272537939
 30
41.3
  0
VERTEX
  5
20A
330
1DB
100
AcDbEntity
  8
Default
100
AcDbVertex
100
AcDb2dVertex
 10
-340.4691620009178
 20
42.11412555210318
 30
41.3
  0
VERTEX
  5
20B
330
1DB
100
AcDbEntity
  8
Default
100
AcDbVertex
100
AcDb2dVertex
 10
-340.4084732015934
 20
42.1114904797375
 30
41.3
  0
VERTEX
  5
20C
330
1DB
100
AcDbEntity
  8
Default
100
AcDbVertex
100
AcDb2dVertex
 10
-340.3479124197299
 20
42.1067506833393
 30
41.3
  0
VERTEX
  5
20D
330
1DB
100
AcDbEntity
  8
Default
100
AcDbVertex
100
AcDb2dVertex
 10
-340.2875526263526
 20
42.09991187399409
 30
41.3
  0
VERTEX
  5
20E
330
1DB
100
AcDbEntity
  8
Default
100
AcDbVertex
100
AcDb2dVertex
 10
-340.2274665503111
 20
42.09098229193446
 30
41.3
  0
VERTEX
  5
20F
330
1DB
100
AcDbEntity
  8
Default
100
AcDbVertex
100
AcDb2dVertex
 10
-340.1677265906473
 20
42.07997269661129
 30
41.3
  0
VERTEX
  5
210
330
1DB
100
AcDbEntity
  8
Default
100
AcDbVertex
100
AcDb2dVertex
 10
-340.1084047293595
 20
42.06689635372944
 30
41.3
  0
VERTEX
  5
211
330
1DB
100
AcDbEntity
  8
Default
100
AcDbVertex
100
AcDb2dVertex
 10
-340.0495724446701
 20
42.0517690192636
 30
41.3
  0
VERTEX
  5
212
330
1DB
100
AcDbEntity
  8
Default
100
AcDbVertex
100
AcDb2dVertex
 10
-339.9913006248999
 20
42.03460892047357
 30
41.3
  0
VERTEX
  5
213
330
1DB
100
AcDbEntity
  8
Default
100
AcDbVertex
100
AcDb2dVertex
 10
-339.9336594830531
 20
42.01543673394183
 30
41.3
  0
VERTEX
  5
214
330
1DB
100
AcDbEntity
  8
Default
100
AcDbVertex
100
AcDb2dVertex
 10
-339.8767184722161
 20
41.99427556065989
 30
41.3
  0
VERTEX
  5
215
330
1DB
100
AcDbEntity
  8
Default
100
AcDbVertex
100
AcDb2dVertex
 10
-339.8205462018718
 20
41.97115089819337
 30
41.3
  0
VERTEX
  5
216
330
1DB
100
AcDbEntity
  8
Default
100
AcDbVertex
100
AcDb2dVertex
 10
-339.7652103552311
 20
41.94609060995941
 30
41.3
  0
VERTEX
  5
217
330
1DB
100
AcDbEntity
  8
Default
100
AcDbVertex
100
AcDb2dVertex
 10
-339.7107776076791
 20
41.91912489165346
 30
41.3
  0
VERTEX
  5
218
330
1DB
100
AcDbEntity
  8
Default
100
AcDbVertex
100
AcDb2dVertex
 10
-339.657313546437
 20
41.89028623486578
 30
41.3
  0
VERTEX
  5
219
330
1DB
100
AcDbEntity
  8
Default
100
AcDbVertex
100
AcDb2dVertex
 10
-339.6048825915345
 20
41.85960938793163
 30
41.3
  0
VERTEX
  5
21A
330
1DB
100
AcDbEntity
  8
Default
100
AcDbVertex
100
AcDb2dVertex
 10
-339.5535479181884
 20
41.82713131406224
 30
41.3
  0
VERTEX
  5
21B
330
1DB
100
AcDbEntity
  8
Default
100
AcDbVertex
100
AcDb2dVertex
 10
-339.5033713806819
 20
41.79289114680697
 30
41.3
  0
VERTEX
  5
21C
330
1DB
100
AcDbEntity
  8
Default
100
AcDbVertex
100
AcDb2dVertex
 10
-339.4544134378344
 20
41.75693014290051
 30
41.3
  0
VERTEX
  5
21D
330
1DB
100
AcDbEntity
  8
Default
100
AcDbVertex
100
AcDb2dVertex
 10
-339.406733080154
 20
41.71929163255164
 30
41.3
  0
VERTEX
  5
21E
330
1DB
100
AcDbEntity
  8
Default
100
AcDbVertex
100
AcDb2dVertex
 10
-339.3603877587579
 20
41.68002096723376
 30
41.3
  0
VERTEX
  5
21F
330
1DB
100
AcDbEntity
  8
Default
100
AcDbVertex
100
AcDb2dVertex
 10
-339.3154333161488
 20
41.63916546503989
 30
41.3
  0
VERTEX
  5
220
330
1DB
100
AcDbEntity
  8
Default
100
AcDbVertex
100
AcDb2dVertex
 10
-339.2719239189284
 20
41.59677435366806
 30
41.3
  0
VERTEX
  5
221
330
1DB
100
AcDbEntity
  8
Default
100
AcDbVertex
100
AcDb2dVertex
 10
-339.2299119925318
 20
41.55289871110573
 30
41.3
  0
VERTEX
  5
222
330
1DB
100
AcDbEntity
  8
Default
100
AcDbVertex
100
AcDb2dVertex
 10
-339.1894481580579
 20
41.50759140408482
 30
41.3
  0
VERTEX
  5
223
330
1DB
100
AcDbEntity
  8
Default
100
AcDbVertex
100
AcDb2dVertex
 10
-339.1505811712757
 20
41.46090702438143
 30
41.3
  0
VERTEX
  5
224
330
1DB
100
AcDbEntity
  8
Default
100
AcDbVertex
100
AcDb2dVertex
 10
-339.1133578638771
 20
41.41290182303698
 30
41.3
  0
VERTEX
  5
225
330
1DB
100
AcDbEntity
  8
Default
100
AcDbVertex
100
AcDb2dVertex
 10
-339.0778230870482
 20
41.36363364258007
 30
41.3
  0
VERTEX
  5
226
330
1DB
100
AcDbEntity
  8
Default
100
AcDbVertex
100
AcDb2dVertex
 10
-339.0440196574274
 20
41.3131618473308
 30
41.3
  0
VERTEX
  5
227
330
1DB
100
AcDbEntity
  8
Default
100
AcDbVertex
100
AcDb2dVertex
 10
-339.0119883055145
 20
41.26154725187133
 30
41.3
  0
VERTEX
  5
228
330
1DB
100
AcDbEntity
  8
Default
100
AcDbVertex
100
AcDb2dVertex
 10
-338.9817676265937
 20
41.20885204776906
 30
41.3
  0
VERTEX
  5
229
330
1DB
100
AcDbEntity
  8
Default
100
AcDbVertex
100
AcDb2dVertex
 10
-338.9533940342293
 20
41.15513972864063
 30
41.3
  0
VERTEX
  5
22A
330
1DB
100
AcDbEntity
  8
Default
100
AcDbVertex
100
AcDb2dVertex
 10
-338.9269017163902
 20
41.10047501364707
 30
41.3
  0
VERTEX
  5
22B
330
1DB
100
AcDbEntity
  8
Default
100
AcDbVertex
100
AcDb2dVertex
 10
-338.902322594256
 20
41.04492376951227
 30
41.3
  0
VERTEX
  5
22C
330
1DB
100
AcDbEntity
  8
Default
100
AcDbVertex
100
AcDb2dVertex
 10
-338.8796862837543
 20
40.98855293115867
 30
41.3
  0
VERTEX
  5
22D
330
1DB
100
AcDbEntity
  8
Default
100
AcDbVertex
100
AcDb2dVertex
 10
-338.8590200598763
 20
40.9314304210559
 30
41.3
  0
VERTEX
  5
22E
330
1DB
100
AcDbEntity
  8
Default
100
AcDbVertex
100
AcDb2dVertex
 10
-338.8403488238122
 20
40.87362506737951
 30
41.3
  0
VERTEX
  5
22F
330
1DB
100
AcDbEntity
  8
Default
100
AcDbVertex
100
AcDb2dVertex
 10
-338.8236950729471
 20
40.81520652107838
 30
41.3
  0
VERTEX
  5
230
330
1DB
100
AcDbEntity
  8
Default
100
AcDbVertex
100
AcDb2dVertex
 10
-338.8090788737537
 20
40.75624517195072
 30
41.3
  0
VERTEX
  5
231
330
1DB
100
AcDbEntity
  8
Default
100
AcDbVertex
100
AcDb2dVertex
 10
-338.7965178376136
 20
40.6968120638299
 30
41.3
  0
VERTEX
  5
232
330
1DB
100
AcDbEntity
  8
Default
100
AcDbVertex
100
AcDb2dVertex
 10
-338.786027099597
 20
40.63697880898209
 30
41.3
  0
VERTEX
  5
233
330
1DB
100
AcDbEntity
  8
Default
100
AcDbVertex
100
AcDb2dVertex
 10
-338.7776193002262
 20
40.57681750181915
 30
41.3
  0
VERTEX
  5
234
330
1DB
100
AcDbEntity
  8
Default
100
AcDbVertex
100
AcDb2dVertex
 10
-338.7713045702445
 20
40.51640063203039
 30
41.3
  0
VERTEX
  5
235
330
1DB
100
AcDbEntity
  8
Default
100
AcDbVertex
100
AcDb2dVertex
 10
-338.7670905184096
 20
40.45580099723819
 30
41.3
  0
VERTEX
  5
236
330
1DB
100
AcDbEntity
  8
Default
100
AcDbVertex
100
AcDb2dVertex
 10
-338.764982222326
 20
40.39509161528253
 30
41.3
  0
VERTEX
  5
237
330
1DB
100
AcDbEntity
  8
Default
100
AcDbVertex
100
AcDb2dVertex
 10
-338.764982222326
 20
40.33434563624018
 30
41.3
  0
VERTEX
  5
238
330
1DB
100
AcDbEntity
  8
Default
100
AcDbVertex
100
AcDb2dVertex
 10
-338.7670905184096
 20
40.27363625428452
 30
41.3
  0
VERTEX
  5
239
330
1DB
100
AcDbEntity
  8
Default
100
AcDbVertex
100
AcDb2dVertex
 10
-338.7713045702445
 20
40.21303661949232
 30
41.3
  0
VERTEX
  5
23A
330
1DB
100
AcDbEntity
  8
Default
100
AcDbVertex
100
AcDb2dVertex
 10
-338.7776193002262
 20
40.15261974970356
 30
41.3
  0
VERTEX
  5
23B
330
1DB
100
AcDbEntity
  8
Default
100
AcDbVertex
100
AcDb2dVertex
 10
-338.786027099597
 20
40.09245844254062
 30
41.3
  0
VERTEX
  5
23C
330
1DB
100
AcDbEntity
  8
Default
100
AcDbVertex
100
AcDb2dVertex
 10
-338.7965178376136
 20
40.03262518769282
 30
41.3
  0
VERTEX
  5
23D
330
1DB
100
AcDbEntity
  8
Default
100
AcDbVertex
100
AcDb2dVertex
 10
-338.8090788737537
 20
39.97319207957199
 30
41.3
  0
VERTEX
  5
23E
330
1DB
100
AcDbEntity
  8
Default
100
AcDbVertex
100
AcDb2dVertex
 10
-338.8236950729471
 20
39.91423073044433
 30
41.3
  0
VERTEX
  5
23F
330
1DB
100
AcDbEntity
  8
Default
100
AcDbVertex
100
AcDb2dVertex
 10
-338.8403488238122
 20
39.8558121841432
 30
41.3
  0
VERTEX
  5
240
330
1DB
100
AcDbEntity
  8
Default
100
AcDbVertex
100
AcDb2dVertex
 10
-338.8590200598763
 20
39.79800683046681
 30
41.3
  0
VERTEX
  5
241
330
1DB
100
AcDbEntity
  8
Default
100
AcDbVertex
100
AcDb2dVertex
 10
-338.8796862837543
 20
39.74088432036404
 30
41.3
  0
VERTEX
  5
242
330
1DB
100
AcDbEntity
  8
Default
100
AcDbVertex
100
AcDb2dVertex
 10
-338.902322594256
 20
39.68451348201044
 30
41.3
  0
VERTEX
  5
243
330
1DB
100
AcDbEntity
  8
Default
100
AcDbVertex
100
AcDb2dVertex
 10
-338.9269017163902
 20
39.62896223787564
 30
41.3
  0
VERTEX
  5
244
330
1DB
100
AcDbEntity
  8
Default
100
AcDbVertex
100
AcDb2dVertex
 10
-338.9533940342293
 20
39.57429752288208
 30
41.3
  0
VERTEX
  5
245
330
1DB
100
AcDbEntity
  8
Default
100
AcDbVertex
100
AcDb2dVertex
 10
-338.9817676265937
 20
39.52058520375365
 30
41.3
  0
VERTEX
  5
246
330
1DB
100
AcDbEntity
  8
Default
100
AcDbVertex
100
AcDb2dVertex
 10
-339.0119883055145
 20
39.46788999965136
 30
41.3
  0
VERTEX
  5
247
330
1DB
100
AcDbEntity
  8
Default
100
AcDbVertex
100
AcDb2dVertex
 10
-339.0440196574274
 20
39.41627540419189
 30
41.3
  0
VERTEX
  5
248
330
1DB
100
AcDbEntity
  8
Default
100
AcDbVertex
100
AcDb2dVertex
 10
-339.0778230870482
 20
39.36580360894263
 30
41.3
  0
VERTEX
  5
249
330
1DB
100
AcDbEntity
  8
Default
100
AcDbVertex
100
AcDb2dVertex
 10
-339.1133578638771
 20
39.31653542848572
 30
41.3
  0
VERTEX
  5
24A
330
1DB
100
AcDbEntity
  8
Default
100
AcDbVertex
100
AcDb2dVertex
 10
-339.1505811712757
 20
39.26853022714127
 30
41.3
  0
VERTEX
  5
24B
330
1DB
100
AcDbEntity
  8
Default
100
AcDbVertex
100
AcDb2dVertex
 10
-339.1894481580579
 20
39.22184584743788
 30
41.3
  0
VERTEX
  5
24C
330
1DB
100
AcDbEntity
  8
Default
100
AcDbVertex
100
AcDb2dVertex
 10
-339.2299119925318
 20
39.17653854041697
 30
41.3
  0
VERTEX
  5
24D
330
1DB
100
AcDbEntity
  8
Default
100
AcDbVertex
100
AcDb2dVertex
 10
-339.2719239189284
 20
39.13266289785464
 30
41.3
  0
VERTEX
  5
24E
330
1DB
100
AcDbEntity
  8
Default
100
AcDbVertex
100
AcDb2dVertex
 10
-339.3154333161488
 20
39.0902717864828
 30
41.3
  0
VERTEX
  5
24F
330
1DB
100
AcDbEntity
  8
Default
100
AcDbVertex
100
AcDb2dVertex
 10
-339.3603877587579
 20
39.04941628428894
 30
41.3
  0
VERTEX
  5
250
330
1DB
100
AcDbEntity
  8
Default
100
AcDbVertex
100
AcDb2dVertex
 10
-339.406733080154
 20
39.01014561897106
 30
41.3
  0
VERTEX
  5
251
330
1DB
100
AcDbEntity
  8
Default
100
AcDbVertex
100
AcDb2dVertex
 10
-339.4544134378344
 20
38.97250710862217
 30
41.3
  0
VERTEX
  5
252
330
1DB
100
AcDbEntity
  8
Default
100
AcDbVertex
100
AcDb2dVertex
 10
-339.5033713806819
 20
38.93654610471571
 30
41.3
  0
VERTEX
  5
253
330
1DB
100
AcDbEntity
  8
Default
100
AcDbVertex
100
AcDb2dVertex
 10
-339.5535479181884
 20
38.90230593746045
 30
41.3
  0
VERTEX
  5
254
330
1DB
100
AcDbEntity
  8
Default
100
AcDbVertex
100
AcDb2dVertex
 10
-339.6048825915345
 20
38.86982786359105
 30
41.3
  0
VERTEX
  5
255
330
1DB
100
AcDbEntity
  8
Default
100
AcDbVertex
100
AcDb2dVertex
 10
-339.657313546437
 20
38.83915101665691
 30
41.3
  0
VERTEX
  5
256
330
1DB
100
AcDbEntity
  8
Default
100
AcDbVertex
100
AcDb2dVertex
 10
-339.7107776076791
 20
38.81031235986922
 30
41.3
  0
VERTEX
  5
257
330
1DB
100
AcDbEntity
  8
Default
100
AcDbVertex
100
AcDb2dVertex
 10
-339.7652103552311
 20
38.78334664156327
 30
41.3
  0
VERTEX
  5
258
330
1DB
100
AcDbEntity
  8
Default
100
AcDbVertex
100
AcDb2dVertex
 10
-339.8205462018718
 20
38.75828635332931
 30
41.3
  0
VERTEX
  5
259
330
1DB
100
AcDbEntity
  8
Default
100
AcDbVertex
100
AcDb2dVertex
 10
-339.876718472216
 20
38.73516169086277
 30
41.3
  0
VERTEX
  5
25A
330
1DB
100
AcDbEntity
  8
Default
100
AcDbVertex
100
AcDb2dVertex
 10
-339.9336594830531
 20
38.71400051758084
 30
41.3
  0
VERTEX
  5
25B
330
1DB
100
AcDbEntity
  8
Default
100
AcDbVertex
100
AcDb2dVertex
 10
-339.9913006248999
 20
38.6948283310491
 30
41.3
  0
VERTEX
  5
25C
330
1DB
100
AcDbEntity
  8
Default
100
AcDbVertex
100
AcDb2dVertex
 10
-340.0495724446701
 20
38.67766823225907
 30
41.3
  0
VERTEX
  5
25D
330
1DB
100
AcDbEntity
  8
Default
100
AcDbVertex
100
AcDb2dVertex
 10
-340.1084047293595
 20
38.66254089779323
 30
41.3
  0
VERTEX
  5
25E
330
1DB
100
AcDbEntity
  8
Default
100
AcDbVertex
100
AcDb2dVertex
 10
-340.1677265906473
 20
38.64946455491138
 30
41.3
  0
VERTEX
  5
25F
330
1DB
100
AcDbEntity
  8
Default
100
AcDbVertex
100
AcDb2dVertex
 10
-340.2274665503111
 20
38.63845495958821
 30
41.3
  0
VERTEX
  5
260
330
1DB
100
AcDbEntity
  8
Default
100
AcDbVertex
100
AcDb2dVertex
 10
-340.2875526263526
 20
38.62952537752858
 30
41.3
  0
VERTEX
  5
261
330
1DB
100
AcDbEntity
  8
Default
100
AcDbVertex
100
AcDb2dVertex
 10
-340.3479124197299
 20
38.62268656818335
 30
41.3
  0
VERTEX
  5
262
330
1DB
100
AcDbEntity
  8
Default
100
AcDbVertex
100
AcDb2dVertex
 10
-340.4084732015934
 20
38.61794677178516
 30
41.3
  0
VERTEX
  5
263
330
1DB
100
AcDbEntity
  8
Default
100
AcDbVertex
100
AcDb2dVertex
 10
-340.4691620009178
 20
38.61531169941947
 30
41.3
  0
VERTEX
  5
264
330
1DB
100
AcDbEntity
  8
Default
100
AcDbVertex
100
AcDb2dVertex
 10
-340.5299056924269
 20
38.61478452614326
 30
41.3
  0
VERTEX
  5
265
330
1DB
100
AcDbEntity
  8
Default
100
AcDbVertex
100
AcDb2dVertex
 10
-340.5906310847035
 20
38.61636588715925
 30
41.3
  0
VERTEX
  5
266
330
1DB
100
AcDbEntity
  8
Default
100
AcDbVertex
100
AcDb2dVertex
 10
-340.6512650083798
 20
38.6200538770506
 30
41.3
  0
VERTEX
  5
267
330
1DB
100
AcDbEntity
  8
Default
100
AcDbVertex
100
AcDb2dVertex
 10
-340.7117344043002
 20
38.62584405207674
 30
41.3
  0
VERTEX
  5
268
330
1DB
100
AcDbEntity
  8
Default
100
AcDbVertex
100
AcDb2dVertex
 10
-340.7719664115526
 20
38.63372943552772
 30
41.3
  0
VERTEX
  5
269
330
1DB
100
AcDbEntity
  8
Default
100
AcDbVertex
100
AcDb2dVertex
 10
-340.8318884552594
 20
38.64370052613067
 30
41.3
  0
VERTEX
  5
26A
330
1DB
100
AcDbEntity
  8
Default
100
AcDbVertex
100
AcDb2dVertex
 10
-340.8914283340252
 20
38.65574530949805
 30
41.3
  0
VERTEX
  5
26B
330
1DB
100
AcDbEntity
  8
Default
100
AcDbVertex
100
AcDb2dVertex
 10
-340.9505143069335
 20
38.66984927260403
 30
41.3
  0
VERTEX
  5
26C
330
1DB
100
AcDbEntity
  8
Default
100
AcDbVertex
100
AcDb2dVertex
 10
-341.0090751799889
 20
38.68599542127157
 30
41.3
  0
VERTEX
  5
26D
330
1DB
100
AcDbEntity
  8
Default
100
AcDbVertex
100
AcDb2dVertex
 10
-341.0670403919007
 20
38.70416430064913
 30
41.3
  0
VERTEX
  5
26E
330
1DB
100
AcDbEntity
  8
Default
100
AcDbVertex
100
AcDb2dVertex
 10
-341.1243400991032
 20
38.72433401865218
 30
41.3
  0
VERTEX
  5
26F
330
1DB
100
AcDbEntity
  8
Default
100
AcDbVertex
100
AcDb2dVertex
 10
-341.1809052599122
 20
38.74648027234148
 30
41.3
  0
VERTEX
  5
270
330
1DB
100
AcDbEntity
  8
Default
100
AcDbVertex
100
AcDb2dVertex
 10
-341.2366677177146
 20
38.77057637720628
 30
41.3
  0
VERTEX
  5
271
330
1DB
100
AcDbEntity
  8
Default
100
AcDbVertex
100
AcDb2dVertex
 10
-341.2915602830918
 20
38.79659329931697
 30
41.3
  0
VERTEX
  5
272
330
1DB
100
AcDbEntity
  8
Default
100
AcDbVertex
100
AcDb2dVertex
 10
-341.3455168147783
 20
38.82449969030881
 30
41.3
  0
VERTEX
  5
273
330
1DB
100
AcDbEntity
  8
Default
100
AcDbVertex
100
AcDb2dVertex
 10
-341.3984722993556
 20
38.85426192515421
 30
41.3
  0
VERTEX
  5
274
330
1DB
100
AcDbEntity
  8
Default
100
AcDbVertex
100
AcDb2dVertex
 10
-341.4503629295895
 20
38.88584414267829
 30
41.3
  0
VERTEX
  5
275
330
1DB
100
AcDbEntity
  8
Default
100
AcDbVertex
100
AcDb2dVertex
 10
-341.5011261813123
 20
38.91920828876878
 30
41.3
  0
VERTEX
  5
276
330
1DB
100
AcDbEntity
  8
Default
100
AcDbVertex
100
AcDb2dVertex
 10
-341.5507008887593
 20
38.95431416222829
 30
41.3
  0
VERTEX
  5
277
330
1DB
100
AcDbEntity
  8
Default
100
AcDbVertex
100
AcDb2dVertex
 10
-341.5990273182694
 20
38.99111946321362
 30
41.3
  0
VERTEX
  5
278
330
1DB
100
AcDbEntity
  8
Default
100
AcDbVertex
100
AcDb2dVertex
 10
-341.646047240259
 20
39.02957984420373
 30
41.3
  0
VERTEX
  5
279
330
1DB
100
AcDbEntity
  8
Default
100
AcDbVertex
100
AcDb2dVertex
 10
-341.6917039993844
 20
39.06964896343513
 30
41.3
  0
VERTEX
  5
27A
330
1DB
100
AcDbEntity
  8
Default
100
AcDbVertex
100
AcDb2dVertex
 10
-341.735942582807
 20
39.11127854074001
 30
41.3
  0
VERTEX
  5
27B
330
1DB
100
AcDbEntity
  8
Default
100
AcDbVertex
100
AcDb2dVertex
 10
-341.7787096864792
 20
39.15441841572014
 30
41.3
  0
VERTEX
  5
27C
330
1DB
100
AcDbEntity
  8
Default
100
AcDbVertex
100
AcDb2dVertex
 10
-341.8199537793723
 20
39.19901660818623
 30
41.3
  0
VERTEX
  5
27D
330
1DB
100
AcDbEntity
  8
Default
100
AcDbVertex
100
AcDb2dVertex
 10
-341.8596251655666
 20
39.24501938078999
 30
41.3
  0
VERTEX
  5
27E
330
1DB
100
AcDbEntity
  8
Default
100
AcDbVertex
100
AcDb2dVertex
 10
-341.8976760441318
 20
39.29237130377346
 30
41.3
  0
VERTEX
  5
27F
330
1DB
100
AcDbEntity
  8
Default
100
AcDbVertex
100
AcDb2dVertex
 10
-341.9340605667228
 20
39.34101532175758
 30
41.3
  0
VERTEX
  5
280
330
1DB
100
AcDbEntity
  8
Default
100
AcDbVertex
100
AcDb2dVertex
 10
-341.9687348928238
 20
39.39089282248943
 30
41.3
  0
VERTEX
  5
281
330
1DB
100
AcDbEntity
  8
Default
100
AcDbVertex
100
AcDb2dVertex
 10
-342.0016572425725
 20
39.44194370746546
 30
41.3
  0
VERTEX
  5
282
330
1DB
100
AcDbEntity
  8
Default
100
AcDbVertex
100
AcDb2dVertex
 10
-342.0327879471018
 20
39.49410646434548
 30
41.3
  0
VERTEX
  5
283
330
1DB
100
AcDbEntity
  8
Default
100
AcDbVertex
100
AcDb2dVertex
 10
-342.0620894963374
 20
39.54731824107027
 30
41.3
  0
VERTEX
  5
284
330
1DB
100
AcDbEntity
  8
Default
100
AcDbVertex
100
AcDb2dVertex
 10
-342.0895265841946
 20
39.60151492159343
 30
41.3
  0
VERTEX
  5
285
330
1DB
100
AcDbEntity
  8
Default
100
AcDbVertex
100
AcDb2dVertex
 10
-342.1150661511197
 20
39.65663120313616
 30
41.3
  0
VERTEX
  5
286
330
1DB
100
AcDbEntity
  8
Default
100
AcDbVertex
100
AcDb2dVertex
 10
-342.1386774239235
 20
39.71260067487205
 30
41.3
  0
VERTEX
  5
287
330
1DB
100
AcDbEntity
  8
Default
100
AcDbVertex
100
AcDb2dVertex
 10
-342.1603319528616
 20
39.76935589794699
 30
41.3
  0
VERTEX
  5
288
330
1DB
100
AcDbEntity
  8
Default
100
AcDbVertex
100
AcDb2dVertex
 10
-342.180003645913
 20
39.82682848673769
 30
41.3
  0
VERTEX
  5
289
330
1DB
100
AcDbEntity
  8
Default
100
AcDbVertex
100
AcDb2dVertex
 10
-342.1976688002199
 20
39.88494919125104
 30
41.3
  0
VERTEX
  5
28A
330
1DB
100
AcDbEntity
  8
Default
100
AcDbVertex
100
AcDb2dVertex
 10
-342.2133061306472
 20
39.94364798056498
 30
41.3
  0
VERTEX
  5
28B
330
1DB
100
AcDbEntity
  8
Default
100
AcDbVertex
100
AcDb2dVertex
 10
-342.2268967954297
 20
40.00285412721028
 30
41.3
  0
VERTEX
  5
28C
330
1DB
100
AcDbEntity
  8
Default
100
AcDbVertex
100
AcDb2dVertex
 10
-342.2384244188748
 20
40.06249629239164
 30
41.3
  0
VERTEX
  5
28D
330
1DB
100
AcDbEntity
  8
Default
100
AcDbVertex
100
AcDb2dVertex
 10
-342.2478751110943
 20
40.1225026119454
 30
41.3
  0
VERTEX
  5
28E
330
1DB
100
AcDbEntity
  8
Default
100
AcDbVertex
100
AcDb2dVertex
 10
-342.25523748474
 20
40.18280078293024
 30
41.3
  0
VERTEX
  5
28F
330
1DB
100
AcDbEntity
  8
Default
100
AcDbVertex
100
AcDb2dVertex
 10
-342.2605026687251
 20
40.24331815074657
 30
41.3
  0
VERTEX
  5
290
330
1DB
100
AcDbEntity
  8
Default
100
AcDbVertex
100
AcDb2dVertex
 10
-342.263664318913
 20
40.30398179667973
 30
41.3
  0
VERTEX
  5
291
330
1DB
100
AcDbEntity
  8
Default
100
AcDbVertex
100
AcDb2dVertex
 10
-342.2647186257615
 20
40.3647186257613
 30
41.3
  0
SEQEND
  5
292
330
1DB
100
AcDbEntity
  8
Default
  0
POLYLINE
  5
293
330
1F
100
AcDbEntity
  8
Default
100
AcDb2dPolyline
 66
     1
 10
0.0
 20
0.0
 30
41.3
  0
VERTEX
  5
294
330
293
100
AcDbEntity
  8
Default
100
AcDbVertex
100
AcDb2dVertex
 10
-439.9999999999999
 20
88.15000000000008
 30
41.3
  0
VERTEX
  5
295
330
293
100
AcDbEntity
  8
Default
100
AcDbVertex
100
AcDb2dVertex
 10
-439.9999999999999
 20
48.84999999999997
 30
41.3
  0
SEQEND
  5
296
330
293
100
AcDbEntity
  8
Default
  0
POLYLINE
  5
297
330
1F
100
AcDbEntity
  8
Default
100
AcDb2dPolyline
 66
     1
 10
0.0
 20
0.0
 30
41.3
  0
VERTEX
  5
298
330
297
100
AcDbEntity
  8
Default
100
AcDbVertex
100
AcDb2dVertex
 10
-439.9999999999999
 20
48.84999999999997
 30
41.3
  0
VERTEX
  5
299
330
297
100
AcDbEntity
  8
Default
100
AcDbVertex
100
AcDb2dVertex
 10
-439.9877574696896
 20
48.13303668609465
 30
41.3
  0
VERTEX
  5
29A
330
297
100
AcDbEntity
  8
Default
100
AcDbVertex
100
AcDb2dVertex
 10
-439.9510441530012
 20
47.41690931934188
 30
41.3
  0
VERTEX
  5
29B
330
297
100
AcDbEntity
  8
Default
100
AcDbVertex
100
AcDb2dVertex
 10
-439.8899028560199
 20
46.70245287221726
 30
41.3
  0
VERTEX
  5
29C
330
297
100
AcDbEntity
  8
Default
100
AcDbVertex
100
AcDb2dVertex
 10
-439.8044048667629
 20
45.9905003689788
 30
41.3
  0
VERTEX
  5
29D
330
297
100
AcDbEntity
  8
Default
100
AcDbVertex
100
AcDb2dVertex
 10
-439.6946498720611
 20
45.28188191439798
 30
41.3
  0
VERTEX
  5
29E
330
297
100
AcDbEntity
  8
Default
100
AcDbVertex
100
AcDb2dVertex
 10
-439.5607658413287
 20
44.57742372589467
 30
41.3
  0
VERTEX
  5
29F
330
297
100
AcDbEntity
  8
Default
100
AcDbVertex
100
AcDb2dVertex
 10
-439.4029088773567
 20
43.87794717020459
 30
41.3
  0
VERTEX
  5
2A0
330
297
100
AcDbEntity
  8
Default
100
AcDbVertex
100
AcDb2dVertex
 10
-439.2212630343037
 20
43.18426780570247
 30
41.3
  0
VERTEX
  5
2A1
330
297
100
AcDbEntity
  8
Default
100
AcDbVertex
100
AcDb2dVertex
 10
-439.0160401030973
 20
42.49719443149739
 30
41.3
  0
VERTEX
  5
2A2
330
297
100
AcDbEntity
  8
Default
100
AcDbVertex
100
AcDb2dVertex
 10
-438.7874793644952
 20
41.81752814440927
 30
41.3
  0
VERTEX
  5
2A3
330
297
100
AcDbEntity
  8
Default
100
AcDbVertex
100
AcDb2dVertex
 10
-438.5358473100944
 20
41.1460614049258
 30
41.3
  0
VERTEX
  5
2A4
330
297
100
AcDbEntity
  8
Default
100
AcDbVertex
100
AcDb2dVertex
 10
-438.2614373316144
 20
40.48357711322891
 30
41.3
  0
VERTEX
  5
2A5
330
297
100
AcDbEntity
  8
Default
100
AcDbVertex
100
AcDb2dVertex
 10
-437.9645693788152
 20
39.83084769636826
 30
41.3
  0
VERTEX
  5
2A6
330
297
100
AcDbEntity
  8
Default
100
AcDbVertex
100
AcDb2dVertex
 10
-437.6455895864498
 20
39.18863420764578
 30
41.3
  0
VERTEX
  5
2A7
330
297
100
AcDbEntity
  8
Default
100
AcDbVertex
100
AcDb2dVertex
 10
-437.3048698706878
 20
38.55768543926163
 30
41.3
  0
VERTEX
  5
2A8
330
297
100
AcDbEntity
  8
Default
100
AcDbVertex
100
AcDb2dVertex
 10
-436.9428074954762
 20
37.93873704925588
 30
41.3
  0
VERTEX
  5
2A9
330
297
100
AcDbEntity
  8
Default
100
AcDbVertex
100
AcDb2dVertex
 10
-436.5598246093489
 20
37.3325107037643
 30
41.3
  0
VERTEX
  5
2AA
330
297
100
AcDbEntity
  8
Default
100
AcDbVertex
100
AcDb2dVertex
 10
-436.1563677532192
 20
36.73971323558778
 30
41.3
  0
VERTEX
  5
2AB
330
297
100
AcDbEntity
  8
Default
100
AcDbVertex
100
AcDb2dVertex
 10
-435.732907339734
 20
36.161035820057
 30
41.3
  0
VERTEX
  5
2AC
330
297
100
AcDbEntity
  8
Default
100
AcDbVertex
100
AcDb2dVertex
 10
-435.2899371047928
 20
35.59715316915288
 30
41.3
  0
VERTEX
  5
2AD
330
297
100
AcDbEntity
  8
Default
100
AcDbVertex
100
AcDb2dVertex
 10
-434.8279735318745
 20
35.04872274482257
 30
41.3
  0
VERTEX
  5
2AE
330
297
100
AcDbEntity
  8
Default
100
AcDbVertex
100
AcDb2dVertex
 10
-434.3475552498406
 20
34.51638399240825
 30
41.3
  0
VERTEX
  5
2AF
330
297
100
AcDbEntity
  8
Default
100
AcDbVertex
100
AcDb2dVertex
 10
-433.8492424049174
 20
34.00075759508249
 30
41.3
  0
VERTEX
  5
2B0
330
297
100
AcDbEntity
  8
Default
100
AcDbVertex
100
AcDb2dVertex
 10
-433.3336160075917
 20
33.50244475015938
 30
41.3
  0
VERTEX
  5
2B1
330
297
100
AcDbEntity
  8
Default
100
AcDbVertex
100
AcDb2dVertex
 10
-432.8012772551774
 20
33.0220264681254
 30
41.3
  0
VERTEX
  5
2B2
330
297
100
AcDbEntity
  8
Default
100
AcDbVertex
100
AcDb2dVertex
 10
-432.2528468308471
 20
32.56006289520717
 30
41.3
  0
VERTEX
  5
2B3
330
297
100
AcDbEntity
  8
Default
100
AcDbVertex
100
AcDb2dVertex
 10
-431.688964179943
 20
32.117092660266
 30
41.3
  0
VERTEX
  5
2B4
330
297
100
AcDbEntity
  8
Default
100
AcDbVertex
100
AcDb2dVertex
 10
-431.1102867644122
 20
31.69363224678072
 30
41.3
  0
VERTEX
  5
2B5
330
297
100
AcDbEntity
  8
Default
100
AcDbVertex
100
AcDb2dVertex
 10
-430.5174892962356
 20
31.29017539065106
 30
41.3
  0
VERTEX
  5
2B6
330
297
100
AcDbEntity
  8
Default
100
AcDbVertex
100
AcDb2dVertex
 10
-429.9112629507441
 20
30.90719250452374
 30
41.3
  0
VERTEX
  5
2B7
330
297
100
AcDbEntity
  8
Default
100
AcDbVertex
100
AcDb2dVertex
 10
-429.2923145607383
 20
30.54513012931222
 30
41.3
  0
VERTEX
  5
2B8
330
297
100
AcDbEntity
  8
Default
100
AcDbVertex
100
AcDb2dVertex
 10
-428.6613657923542
 20
30.20441041355012
 30
41.3
  0
VERTEX
  5
2B9
330
297
100
AcDbEntity
  8
Default
100
AcDbVertex
100
AcDb2dVertex
 10
-428.0191523036317
 20
29.88543062118481
 30
41.3
  0
VERTEX
  5
2BA
330
297
100
AcDbEntity
  8
Default
100
AcDbVertex
100
AcDb2dVertex
 10
-427.366422886771
 20
29.58856266838549
 30
41.3
  0
VERTEX
  5
2BB
330
297
100
AcDbEntity
  8
Default
100
AcDbVertex
100
AcDb2dVertex
 10
-426.7039385950741
 20
29.31415268990551
 30
41.3
  0
VERTEX
  5
2BC
330
297
100
AcDbEntity
  8
Default
100
AcDbVertex
100
AcDb2dVertex
 10
-426.0324718555907
 20
29.06252063550477
 30
41.3
  0
VERTEX
  5
2BD
330
297
100
AcDbEntity
  8
Default
100
AcDbVertex
100
AcDb2dVertex
 10
-425.3528055685026
 20
28.83395989690262
 30
41.3
  0
VERTEX
  5
2BE
330
297
100
AcDbEntity
  8
Default
100
AcDbVertex
100
AcDb2dVertex
 10
-424.6657321942974
 20
28.62873696569622
 30
41.3
  0
VERTEX
  5
2BF
330
297
100
AcDbEntity
  8
Default
100
AcDbVertex
100
AcDb2dVertex
 10
-423.9720528297954
 20
28.44709112264323
 30
41.3
  0
VERTEX
  5
2C0
330
297
100
AcDbEntity
  8
Default
100
AcDbVertex
100
AcDb2dVertex
 10
-423.2725762741053
 20
28.28923415867122
 30
41.3
  0
VERTEX
  5
2C1
330
297
100
AcDbEntity
  8
Default
100
AcDbVertex
100
AcDb2dVertex
 10
-422.568118085602
 20
28.15535012793886
 30
41.3
  0
VERTEX
  5
2C2
330
297
100
AcDbEntity
  8
Default
100
AcDbVertex
100
AcDb2dVertex
 10
-421.8594996310212
 20
28.04559513323705
 30
41.3
  0
VERTEX
  5
2C3
330
297
100
AcDbEntity
  8
Default
100
AcDbVertex
100
AcDb2dVertex
 10
-421.1475471277827
 20
27.96009714398001
 30
41.3
  0
VERTEX
  5
2C4
330
297
100
AcDbEntity
  8
Default
100
AcDbVertex
100
AcDb2dVertex
 10
-420.433090680658
 20
27.89895584699868
 30
41.3
  0
VERTEX
  5
2C5
330
297
100
AcDbEntity
  8
Default
100
AcDbVertex
100
AcDb2dVertex
 10
-419.7169633139053
 20
27.86224253031035
 30
41.3
  0
VERTEX
  5
2C6
330
297
100
AcDbEntity
  8
Default
100
AcDbVertex
100
AcDb2dVertex
 10
-418.9999999999999
 20
27.85
 30
41.3
  0
SEQEND
  5
2C7
330
297
100
AcDbEntity
  8
Default
  0
POLYLINE
  5
2C8
330
1F
100
AcDbEntity
  8
Default
100
AcDb2dPolyline
 66
     1
 10
0.0
 20
0.0
 30
41.3
  0
VERTEX
  5
2C9
330
2C8
100
AcDbEntity
  8
Default
100
AcDbVertex
100
AcDb2dVertex
 10
-418.9999999999999
 20
27.84999999999998
 30
41.3
  0
VERTEX
  5
2CA
330
2C8
100
AcDbEntity
  8
Default
100
AcDbVertex
100
AcDb2dVertex
 10
-348.9999999999999
 20
27.84999999999999
 30
41.3
  0
SEQEND
  5
2CB
330
2C8
100
AcDbEntity
  8
Default
  0
POLYLINE
  5
2CC
330
1F
100
AcDbEntity
  8
Default
100
AcDb2dPolyline
 66
     1
 10
0.0
 20
0.0
 30
41.3
  0
VERTEX
  5
2CD
330
2CC
100
AcDbEntity
  8
Default
100
AcDbVertex
100
AcDb2dVertex
 10
-348.9999999999999
 20
27.84999999999999
 30
41.3
  0
VERTEX
  5
2CE
330
2CC
100
AcDbEntity
  8
Default
100
AcDbVertex
100
AcDb2dVertex
 10
-348.2830366860946
 20
27.86224253031034
 30
41.3
  0
VERTEX
  5
2CF
330
2CC
100
AcDbEntity
  8
Default
100
AcDbVertex
100
AcDb2dVertex
 10
-347.5669093193418
 20
27.89895584699866
 30
41.3
  0
VERTEX
  5
2D0
330
2CC
100
AcDbEntity
  8
Default
100
AcDbVertex
100
AcDb2dVertex
 10
-346.8524528722172
 20
27.96009714397999
 30
41.3
  0
VERTEX
  5
2D1
330
2CC
100
AcDbEntity
  8
Default
100
AcDbVertex
100
AcDb2dVertex
 10
-346.1405003689787
 20
28.04559513323704
 30
41.3
  0
VERTEX
  5
2D2
330
2CC
100
AcDbEntity
  8
Default
100
AcDbVertex
100
AcDb2dVertex
 10
-345.4318819143979
 20
28.15535012793885
 30
41.3
  0
VERTEX
  5
2D3
330
2CC
100
AcDbEntity
  8
Default
100
AcDbVertex
100
AcDb2dVertex
 10
-344.7274237258947
 20
28.28923415867119
 30
41.3
  0
VERTEX
  5
2D4
330
2CC
100
AcDbEntity
  8
Default
100
AcDbVertex
100
AcDb2dVertex
 10
-344.0279471702045
 20
28.4470911226432
 30
41.3
  0
VERTEX
  5
2D5
330
2CC
100
AcDbEntity
  8
Default
100
AcDbVertex
100
AcDb2dVertex
 10
-343.3342678057024
 20
28.62873696569618
 30
41.3
  0
VERTEX
  5
2D6
330
2CC
100
AcDbEntity
  8
Default
100
AcDbVertex
100
AcDb2dVertex
 10
-342.6471944314973
 20
28.83395989690259
 30
41.3
  0
VERTEX
  5
2D7
330
2CC
100
AcDbEntity
  8
Default
100
AcDbVertex
100
AcDb2dVertex
 10
-341.9675281444092
 20
29.06252063550474
 30
41.3
  0
VERTEX
  5
2D8
330
2CC
100
AcDbEntity
  8
Default
100
AcDbVertex
100
AcDb2dVertex
 10
-341.2960614049258
 20
29.31415268990547
 30
41.3
  0
VERTEX
  5
2D9
330
2CC
100
AcDbEntity
  8
Default
100
AcDbVertex
100
AcDb2dVertex
 10
-340.6335771132289
 20
29.58856266838545
 30
41.3
  0
VERTEX
  5
2DA
330
2CC
100
AcDbEntity
  8
Default
100
AcDbVertex
100
AcDb2dVertex
 10
-339.9808476963682
 20
29.88543062118477
 30
41.3
  0
VERTEX
  5
2DB
330
2CC
100
AcDbEntity
  8
Default
100
AcDbVertex
100
AcDb2dVertex
 10
-339.3386342076457
 20
30.20441041355008
 30
41.3
  0
VERTEX
  5
2DC
330
2CC
100
AcDbEntity
  8
Default
100
AcDbVertex
100
AcDb2dVertex
 10
-338.7076854392616
 20
30.54513012931218
 30
41.3
  0
VERTEX
  5
2DD
330
2CC
100
AcDbEntity
  8
Default
100
AcDbVertex
100
AcDb2dVertex
 10
-338.0887370492558
 20
30.9071925045237
 30
41.3
  0
VERTEX
  5
2DE
330
2CC
100
AcDbEntity
  8
Default
100
AcDbVertex
100
AcDb2dVertex
 10
-337.4825107037643
 20
31.29017539065103
 30
41.3
  0
VERTEX
  5
2DF
330
2CC
100
AcDbEntity
  8
Default
100
AcDbVertex
100
AcDb2dVertex
 10
-336.8897132355877
 20
31.69363224678068
 30
41.3
  0
VERTEX
  5
2E0
330
2CC
100
AcDbEntity
  8
Default
100
AcDbVertex
100
AcDb2dVertex
 10
-336.3110358200569
 20
32.11709266026596
 30
41.3
  0
VERTEX
  5
2E1
330
2CC
100
AcDbEntity
  8
Default
100
AcDbVertex
100
AcDb2dVertex
 10
-335.7471531691529
 20
32.56006289520714
 30
41.3
  0
VERTEX
  5
2E2
330
2CC
100
AcDbEntity
  8
Default
100
AcDbVertex
100
AcDb2dVertex
 10
-335.1987227448225
 20
33.02202646812538
 30
41.3
  0
VERTEX
  5
2E3
330
2CC
100
AcDbEntity
  8
Default
100
AcDbVertex
100
AcDb2dVertex
 10
-334.6663839924082
 20
33.50244475015936
 30
41.3
  0
VERTEX
  5
2E4
330
2CC
100
AcDbEntity
  8
Default
100
AcDbVertex
100
AcDb2dVertex
 10
-334.1507575950824
 20
34.00075759508247
 30
41.3
  0
VERTEX
  5
2E5
330
2CC
100
AcDbEntity
  8
Default
100
AcDbVertex
100
AcDb2dVertex
 10
-333.6524447501593
 20
34.51638399240822
 30
41.3
  0
VERTEX
  5
2E6
330
2CC
100
AcDbEntity
  8
Default
100
AcDbVertex
100
AcDb2dVertex
 10
-333.1720264681253
 20
35.04872274482254
 30
41.3
  0
VERTEX
  5
2E7
330
2CC
100
AcDbEntity
  8
Default
100
AcDbVertex
100
AcDb2dVertex
 10
-332.7100628952071
 20
35.59715316915286
 30
41.3
  0
VERTEX
  5
2E8
330
2CC
100
AcDbEntity
  8
Default
100
AcDbVertex
100
AcDb2dVertex
 10
-332.2670926602659
 20
36.16103582005698
 30
41.3
  0
VERTEX
  5
2E9
330
2CC
100
AcDbEntity
  8
Default
100
AcDbVertex
100
AcDb2dVertex
 10
-331.8436322467806
 20
36.73971323558776
 30
41.3
  0
VERTEX
  5
2EA
330
2CC
100
AcDbEntity
  8
Default
100
AcDbVertex
100
AcDb2dVertex
 10
-331.4401753906509
 20
37.33251070376428
 30
41.3
  0
VERTEX
  5
2EB
330
2CC
100
AcDbEntity
  8
Default
100
AcDbVertex
100
AcDb2dVertex
 10
-331.0571925045236
 20
37.93873704925586
 30
41.3
  0
VERTEX
  5
2EC
330
2CC
100
AcDbEntity
  8
Default
100
AcDbVertex
100
AcDb2dVertex
 10
-330.6951301293121
 20
38.55768543926162
 30
41.3
  0
VERTEX
  5
2ED
330
2CC
100
AcDbEntity
  8
Default
100
AcDbVertex
100
AcDb2dVertex
 10
-330.35441041355
 20
39.18863420764578
 30
41.3
  0
VERTEX
  5
2EE
330
2CC
100
AcDbEntity
  8
Default
100
AcDbVertex
100
AcDb2dVertex
 10
-330.0354306211847
 20
39.83084769636827
 30
41.3
  0
VERTEX
  5
2EF
330
2CC
100
AcDbEntity
  8
Default
100
AcDbVertex
100
AcDb2dVertex
 10
-329.7385626683854
 20
40.4835771132289
 30
41.3
  0
VERTEX
  5
2F0
330
2CC
100
AcDbEntity
  8
Default
100
AcDbVertex
100
AcDb2dVertex
 10
-329.4641526899054
 20
41.1460614049258
 30
41.3
  0
VERTEX
  5
2F1
330
2CC
100
AcDbEntity
  8
Default
100
AcDbVertex
100
AcDb2dVertex
 10
-329.2125206355047
 20
41.81752814440927
 30
41.3
  0
VERTEX
  5
2F2
330
2CC
100
AcDbEntity
  8
Default
100
AcDbVertex
100
AcDb2dVertex
 10
-328.9839598969025
 20
42.4971944314974
 30
41.3
  0
VERTEX
  5
2F3
330
2CC
100
AcDbEntity
  8
Default
100
AcDbVertex
100
AcDb2dVertex
 10
-328.7787369656962
 20
43.18426780570248
 30
41.3
  0
VERTEX
  5
2F4
330
2CC
100
AcDbEntity
  8
Default
100
AcDbVertex
100
AcDb2dVertex
 10
-328.5970911226431
 20
43.87794717020461
 30
41.3
  0
VERTEX
  5
2F5
330
2CC
100
AcDbEntity
  8
Default
100
AcDbVertex
100
AcDb2dVertex
 10
-328.4392341586711
 20
44.57742372589468
 30
41.3
  0
VERTEX
  5
2F6
330
2CC
100
AcDbEntity
  8
Default
100
AcDbVertex
100
AcDb2dVertex
 10
-328.3053501279388
 20
45.28188191439799
 30
41.3
  0
VERTEX
  5
2F7
330
2CC
100
AcDbEntity
  8
Default
100
AcDbVertex
100
AcDb2dVertex
 10
-328.195595133237
 20
45.99050036897881
 30
41.3
  0
VERTEX
  5
2F8
330
2CC
100
AcDbEntity
  8
Default
100
AcDbVertex
100
AcDb2dVertex
 10
-328.1100971439799
 20
46.70245287221728
 30
41.3
  0
VERTEX
  5
2F9
330
2CC
100
AcDbEntity
  8
Default
100
AcDbVertex
100
AcDb2dVertex
 10
-328.0489558469986
 20
47.41690931934191
 30
41.3
  0
VERTEX
  5
2FA
330
2CC
100
AcDbEntity
  8
Default
100
AcDbVertex
100
AcDb2dVertex
 10
-328.0122425303103
 20
48.13303668609467
 30
41.3
  0
VERTEX
  5
2FB
330
2CC
100
AcDbEntity
  8
Default
100
AcDbVertex
100
AcDb2dVertex
 10
-327.9999999999999
 20
48.84999999999977
 30
41.3
  0
SEQEND
  5
2FC
330
2CC
100
AcDbEntity
  8
Default
  0
POLYLINE
  5
2FD
330
1F
100
AcDbEntity
  8
Default
100
AcDb2dPolyline
 66
     1
 10
0.0
 20
0.0
 30
41.3
  0
VERTEX
  5
2FE
330
2FD
100
AcDbEntity
  8
Default
100
AcDbVertex
100
AcDb2dVertex
 10
-327.9999999999999
 20
48.85
 30
41.3
  0
VERTEX
  5
2FF
330
2FD
100
AcDbEntity
  8
Default
100
AcDbVertex
100
AcDb2dVertex
 10
-327.9999999999999
 20
88.15000000000006
 30
41.3
  0
SEQEND
  5
300
330
2FD
100
AcDbEntity
  8
Default
  0
POLYLINE
  5
301
330
1F
100
AcDbEntity
  8
Default
100
AcDb2dPolyline
 66
     1
 10
0.0
 20
0.0
 30
41.3
  0
VERTEX
  5
302
330
301
100
AcDbEntity
  8
Default
100
AcDbVertex
100
AcDb2dVertex
 10
-327.9999999999999
 20
88.15000000000006
 30
41.3
  0
VERTEX
  5
303
330
301
100
AcDbEntity
  8
Default
100
AcDbVertex
100
AcDb2dVertex
 10
-328.0122425303103
 20
88.86696331390539
 30
41.3
  0
VERTEX
  5
304
330
301
100
AcDbEntity
  8
Default
100
AcDbVertex
100
AcDb2dVertex
 10
-328.0489558469986
 20
89.58309068065815
 30
41.3
  0
VERTEX
  5
305
330
301
100
AcDbEntity
  8
Default
100
AcDbVertex
100
AcDb2dVertex
 10
-328.1100971439799
 20
90.29754712778278
 30
41.3
  0
VERTEX
  5
306
330
301
100
AcDbEntity
  8
Default
100
AcDbVertex
100
AcDb2dVertex
 10
-328.195595133237
 20
91.00949963102123
 30
41.3
  0
VERTEX
  5
307
330
301
100
AcDbEntity
  8
Default
100
AcDbVertex
100
AcDb2dVertex
 10
-328.3053501279388
 20
91.71811808560206
 30
41.3
  0
VERTEX
  5
308
330
301
100
AcDbEntity
  8
Default
100
AcDbVertex
100
AcDb2dVertex
 10
-328.4392341586712
 20
92.42257627410535
 30
41.3
  0
VERTEX
  5
309
330
301
100
AcDbEntity
  8
Default
100
AcDbVertex
100
AcDb2dVertex
 10
-328.5970911226432
 20
93.12205282979542
 30
41.3
  0
VERTEX
  5
30A
330
301
100
AcDbEntity
  8
Default
100
AcDbVertex
100
AcDb2dVertex
 10
-328.7787369656962
 20
93.81573219429755
 30
41.3
  0
VERTEX
  5
30B
330
301
100
AcDbEntity
  8
Default
100
AcDbVertex
100
AcDb2dVertex
 10
-328.9839598969025
 20
94.50280556850264
 30
41.3
  0
VERTEX
  5
30C
330
301
100
AcDbEntity
  8
Default
100
AcDbVertex
100
AcDb2dVertex
 10
-329.2125206355047
 20
95.18247185559075
 30
41.3
  0
VERTEX
  5
30D
330
301
100
AcDbEntity
  8
Default
100
AcDbVertex
100
AcDb2dVertex
 10
-329.4641526899055
 20
95.85393859507423
 30
41.3
  0
VERTEX
  5
30E
330
301
100
AcDbEntity
  8
Default
100
AcDbVertex
100
AcDb2dVertex
 10
-329.7385626683854
 20
96.51642288677111
 30
41.3
  0
VERTEX
  5
30F
330
301
100
AcDbEntity
  8
Default
100
AcDbVertex
100
AcDb2dVertex
 10
-330.0354306211848
 20
97.16915230363175
 30
41.3
  0
VERTEX
  5
310
330
301
100
AcDbEntity
  8
Default
100
AcDbVertex
100
AcDb2dVertex
 10
-330.3544104135501
 20
97.81136579235422
 30
41.3
  0
VERTEX
  5
311
330
301
100
AcDbEntity
  8
Default
100
AcDbVertex
100
AcDb2dVertex
 10
-330.6951301293122
 20
98.4423145607384
 30
41.3
  0
VERTEX
  5
312
330
301
100
AcDbEntity
  8
Default
100
AcDbVertex
100
AcDb2dVertex
 10
-331.0571925045236
 20
99.06126295074415
 30
41.3
  0
VERTEX
  5
313
330
301
100
AcDbEntity
  8
Default
100
AcDbVertex
100
AcDb2dVertex
 10
-331.4401753906509
 20
99.66748929623573
 30
41.3
  0
VERTEX
  5
314
330
301
100
AcDbEntity
  8
Default
100
AcDbVertex
100
AcDb2dVertex
 10
-331.8436322467806
 20
100.2602867644122
 30
41.3
  0
VERTEX
  5
315
330
301
100
AcDbEntity
  8
Default
100
AcDbVertex
100
AcDb2dVertex
 10
-332.2670926602659
 20
100.838964179943
 30
41.3
  0
VERTEX
  5
316
330
301
100
AcDbEntity
  8
Default
100
AcDbVertex
100
AcDb2dVertex
 10
-332.7100628952071
 20
101.4028468308471
 30
41.3
  0
VERTEX
  5
317
330
301
100
AcDbEntity
  8
Default
100
AcDbVertex
100
AcDb2dVertex
 10
-333.1720264681253
 20
101.9512772551774
 30
41.3
  0
VERTEX
  5
318
330
301
100
AcDbEntity
  8
Default
100
AcDbVertex
100
AcDb2dVertex
 10
-333.6524447501593
 20
102.4836160075917
 30
41.3
  0
VERTEX
  5
319
330
301
100
AcDbEntity
  8
Default
100
AcDbVertex
100
AcDb2dVertex
 10
-334.1507575950824
 20
102.9992424049175
 30
41.3
  0
VERTEX
  5
31A
330
301
100
AcDbEntity
  8
Default
100
AcDbVertex
100
AcDb2dVertex
 10
-334.6663839924082
 20
103.4975552498406
 30
41.3
  0
VERTEX
  5
31B
330
301
100
AcDbEntity
  8
Default
100
AcDbVertex
100
AcDb2dVertex
 10
-335.1987227448225
 20
103.9779735318746
 30
41.3
  0
VERTEX
  5
31C
330
301
100
AcDbEntity
  8
Default
100
AcDbVertex
100
AcDb2dVertex
 10
-335.7471531691528
 20
104.4399371047928
 30
41.3
  0
VERTEX
  5
31D
330
301
100
AcDbEntity
  8
Default
100
AcDbVertex
100
AcDb2dVertex
 10
-336.3110358200569
 20
104.882907339734
 30
41.3
  0
VERTEX
  5
31E
330
301
100
AcDbEntity
  8
Default
100
AcDbVertex
100
AcDb2dVertex
 10
-336.8897132355877
 20
105.3063677532193
 30
41.3
  0
VERTEX
  5
31F
330
301
100
AcDbEntity
  8
Default
100
AcDbVertex
100
AcDb2dVertex
 10
-337.4825107037642
 20
105.7098246093489
 30
41.3
  0
VERTEX
  5
320
330
301
100
AcDbEntity
  8
Default
100
AcDbVertex
100
AcDb2dVertex
 10
-338.0887370492558
 20
106.0928074954763
 30
41.3
  0
VERTEX
  5
321
330
301
100
AcDbEntity
  8
Default
100
AcDbVertex
100
AcDb2dVertex
 10
-338.7076854392615
 20
106.4548698706878
 30
41.3
  0
VERTEX
  5
322
330
301
100
AcDbEntity
  8
Default
100
AcDbVertex
100
AcDb2dVertex
 10
-339.3386342076457
 20
106.7955895864499
 30
41.3
  0
VERTEX
  5
323
330
301
100
AcDbEntity
  8
Default
100
AcDbVertex
100
AcDb2dVertex
 10
-339.9808476963682
 20
107.1145693788152
 30
41.3
  0
VERTEX
  5
324
330
301
100
AcDbEntity
  8
Default
100
AcDbVertex
100
AcDb2dVertex
 10
-340.6335771132289
 20
107.4114373316145
 30
41.3
  0
VERTEX
  5
325
330
301
100
AcDbEntity
  8
Default
100
AcDbVertex
100
AcDb2dVertex
 10
-341.2960614049257
 20
107.6858473100945
 30
41.3
  0
VERTEX
  5
326
330
301
100
AcDbEntity
  8
Default
100
AcDbVertex
100
AcDb2dVertex
 10
-341.9675281444092
 20
107.9374793644952
 30
41.3
  0
VERTEX
  5
327
330
301
100
AcDbEntity
  8
Default
100
AcDbVertex
100
AcDb2dVertex
 10
-342.6471944314973
 20
108.1660401030974
 30
41.3
  0
VERTEX
  5
328
330
301
100
AcDbEntity
  8
Default
100
AcDbVertex
100
AcDb2dVertex
 10
-343.3342678057024
 20
108.3712630343038
 30
41.3
  0
VERTEX
  5
329
330
301
100
AcDbEntity
  8
Default
100
AcDbVertex
100
AcDb2dVertex
 10
-344.0279471702045
 20
108.5529088773567
 30
41.3
  0
VERTEX
  5
32A
330
301
100
AcDbEntity
  8
Default
100
AcDbVertex
100
AcDb2dVertex
 10
-344.7274237258946
 20
108.7107658413288
 30
41.3
  0
VERTEX
  5
32B
330
301
100
AcDbEntity
  8
Default
100
AcDbVertex
100
AcDb2dVertex
 10
-345.4318819143979
 20
108.8446498720611
 30
41.3
  0
VERTEX
  5
32C
330
301
100
AcDbEntity
  8
Default
100
AcDbVertex
100
AcDb2dVertex
 10
-346.1405003689787
 20
108.9544048667629
 30
41.3
  0
VERTEX
  5
32D
330
301
100
AcDbEntity
  8
Default
100
AcDbVertex
100
AcDb2dVertex
 10
-346.8524528722172
 20
109.0399028560199
 30
41.3
  0
VERTEX
  5
32E
330
301
100
AcDbEntity
  8
Default
100
AcDbVertex
100
AcDb2dVertex
 10
-347.5669093193418
 20
109.1010441530013
 30
41.3
  0
VERTEX
  5
32F
330
301
100
AcDbEntity
  8
Default
100
AcDbVertex
100
AcDb2dVertex
 10
-348.2830366860946
 20
109.1377574696896
 30
41.3
  0
VERTEX
  5
330
330
301
100
AcDbEntity
  8
Default
100
AcDbVertex
100
AcDb2dVertex
 10
-348.9999999999997
 20
109.1499999999999
 30
41.3
  0
SEQEND
  5
331
330
301
100
AcDbEntity
  8
Default
  0
POLYLINE
  5
332
330
1F
100
AcDbEntity
  8
Default
100
AcDb2dPolyline
 66
     1
 10
0.0
 20
0.0
 30
41.3
  0
VERTEX
  5
333
330
332
100
AcDbEntity
  8
Default
100
AcDbVertex
100
AcDb2dVertex
 10
-348.9999999999999
 20
109.15
 30
41.3
  0
VERTEX
  5
334
330
332
100
AcDbEntity
  8
Default
100
AcDbVertex
100
AcDb2dVertex
 10
-418.9999999999999
 20
109.15
 30
41.3
  0
SEQEND
  5
335
330
332
100
AcDbEntity
  8
Default
  0
POLYLINE
  5
336
330
1F
100
AcDbEntity
  8
Default
100
AcDb2dPolyline
 66
     1
 10
0.0
 20
0.0
 30
41.3
  0
VERTEX
  5
337
330
336
100
AcDbEntity
  8
Default
100
AcDbVertex
100
AcDb2dVertex
 10
-418.9999999999999
 20
109.15
 30
41.3
  0
VERTEX
  5
338
330
336
100
AcDbEntity
  8
Default
100
AcDbVertex
100
AcDb2dVertex
 10
-419.7169633139052
 20
109.1377574696897
 30
41.3
  0
VERTEX
  5
339
330
336
100
AcDbEntity
  8
Default
100
AcDbVertex
100
AcDb2dVertex
 10
-420.433090680658
 20
109.1010441530013
 30
41.3
  0
VERTEX
  5
33A
330
336
100
AcDbEntity
  8
Default
100
AcDbVertex
100
AcDb2dVertex
 10
-421.1475471277827
 20
109.03990285602
 30
41.3
  0
VERTEX
  5
33B
330
336
100
AcDbEntity
  8
Default
100
AcDbVertex
100
AcDb2dVertex
 10
-421.8594996310211
 20
108.9544048667629
 30
41.3
  0
VERTEX
  5
33C
330
336
100
AcDbEntity
  8
Default
100
AcDbVertex
100
AcDb2dVertex
 10
-422.568118085602
 20
108.8446498720611
 30
41.3
  0
VERTEX
  5
33D
330
336
100
AcDbEntity
  8
Default
100
AcDbVertex
100
AcDb2dVertex
 10
-423.2725762741052
 20
108.7107658413288
 30
41.3
  0
VERTEX
  5
33E
330
336
100
AcDbEntity
  8
Default
100
AcDbVertex
100
AcDb2dVertex
 10
-423.9720528297953
 20
108.5529088773568
 30
41.3
  0
VERTEX
  5
33F
330
336
100
AcDbEntity
  8
Default
100
AcDbVertex
100
AcDb2dVertex
 10
-424.6657321942974
 20
108.3712630343038
 30
41.3
  0
VERTEX
  5
340
330
336
100
AcDbEntity
  8
Default
100
AcDbVertex
100
AcDb2dVertex
 10
-425.3528055685025
 20
108.1660401030974
 30
41.3
  0
VERTEX
  5
341
330
336
100
AcDbEntity
  8
Default
100
AcDbVertex
100
AcDb2dVertex
 10
-426.0324718555906
 20
107.9374793644952
 30
41.3
  0
VERTEX
  5
342
330
336
100
AcDbEntity
  8
Default
100
AcDbVertex
100
AcDb2dVertex
 10
-426.7039385950741
 20
107.6858473100945
 30
41.3
  0
VERTEX
  5
343
330
336
100
AcDbEntity
  8
Default
100
AcDbVertex
100
AcDb2dVertex
 10
-427.366422886771
 20
107.4114373316145
 30
41.3
  0
VERTEX
  5
344
330
336
100
AcDbEntity
  8
Default
100
AcDbVertex
100
AcDb2dVertex
 10
-428.0191523036316
 20
107.1145693788152
 30
41.3
  0
VERTEX
  5
345
330
336
100
AcDbEntity
  8
Default
100
AcDbVertex
100
AcDb2dVertex
 10
-428.6613657923541
 20
106.7955895864499
 30
41.3
  0
VERTEX
  5
346
330
336
100
AcDbEntity
  8
Default
100
AcDbVertex
100
AcDb2dVertex
 10
-429.2923145607383
 20
106.4548698706878
 30
41.3
  0
VERTEX
  5
347
330
336
100
AcDbEntity
  8
Default
100
AcDbVertex
100
AcDb2dVertex
 10
-429.911262950744
 20
106.0928074954763
 30
41.3
  0
VERTEX
  5
348
330
336
100
AcDbEntity
  8
Default
100
AcDbVertex
100
AcDb2dVertex
 10
-430.5174892962356
 20
105.7098246093489
 30
41.3
  0
VERTEX
  5
349
330
336
100
AcDbEntity
  8
Default
100
AcDbVertex
100
AcDb2dVertex
 10
-431.1102867644121
 20
105.3063677532193
 30
41.3
  0
VERTEX
  5
34A
330
336
100
AcDbEntity
  8
Default
100
AcDbVertex
100
AcDb2dVertex
 10
-431.6889641799429
 20
104.882907339734
 30
41.3
  0
VERTEX
  5
34B
330
336
100
AcDbEntity
  8
Default
100
AcDbVertex
100
AcDb2dVertex
 10
-432.252846830847
 20
104.4399371047928
 30
41.3
  0
VERTEX
  5
34C
330
336
100
AcDbEntity
  8
Default
100
AcDbVertex
100
AcDb2dVertex
 10
-432.8012772551774
 20
103.9779735318746
 30
41.3
  0
VERTEX
  5
34D
330
336
100
AcDbEntity
  8
Default
100
AcDbVertex
100
AcDb2dVertex
 10
-433.3336160075916
 20
103.4975552498406
 30
41.3
  0
VERTEX
  5
34E
330
336
100
AcDbEntity
  8
Default
100
AcDbVertex
100
AcDb2dVertex
 10
-433.8492424049174
 20
102.9992424049175
 30
41.3
  0
VERTEX
  5
34F
330
336
100
AcDbEntity
  8
Default
100
AcDbVertex
100
AcDb2dVertex
 10
-434.3475552498405
 20
102.4836160075917
 30
41.3
  0
VERTEX
  5
350
330
336
100
AcDbEntity
  8
Default
100
AcDbVertex
100
AcDb2dVertex
 10
-434.8279735318745
 20
101.9512772551774
 30
41.3
  0
VERTEX
  5
351
330
336
100
AcDbEntity
  8
Default
100
AcDbVertex
100
AcDb2dVertex
 10
-435.2899371047927
 20
101.4028468308471
 30
41.3
  0
VERTEX
  5
352
330
336
100
AcDbEntity
  8
Default
100
AcDbVertex
100
AcDb2dVertex
 10
-435.7329073397339
 20
100.838964179943
 30
41.3
  0
VERTEX
  5
353
330
336
100
AcDbEntity
  8
Default
100
AcDbVertex
100
AcDb2dVertex
 10
-436.1563677532192
 20
100.2602867644122
 30
41.3
  0
VERTEX
  5
354
330
336
100
AcDbEntity
  8
Default
100
AcDbVertex
100
AcDb2dVertex
 10
-436.5598246093488
 20
99.6674892962357
 30
41.3
  0
VERTEX
  5
355
330
336
100
AcDbEntity
  8
Default
100
AcDbVertex
100
AcDb2dVertex
 10
-436.9428074954761
 20
99.06126295074412
 30
41.3
  0
VERTEX
  5
356
330
336
100
AcDbEntity
  8
Default
100
AcDbVertex
100
AcDb2dVertex
 10
-437.3048698706876
 20
98.44231456073838
 30
41.3
  0
VERTEX
  5
357
330
336
100
AcDbEntity
  8
Default
100
AcDbVertex
100
AcDb2dVertex
 10
-437.6455895864498
 20
97.81136579235422
 30
41.3
  0
VERTEX
  5
358
330
336
100
AcDbEntity
  8
Default
100
AcDbVertex
100
AcDb2dVertex
 10
-437.9645693788151
 20
97.16915230363176
 30
41.3
  0
VERTEX
  5
359
330
336
100
AcDbEntity
  8
Default
100
AcDbVertex
100
AcDb2dVertex
 10
-438.2614373316144
 20
96.51642288677111
 30
41.3
  0
VERTEX
  5
35A
330
336
100
AcDbEntity
  8
Default
100
AcDbVertex
100
AcDb2dVertex
 10
-438.5358473100944
 20
95.85393859507424
 30
41.3
  0
VERTEX
  5
35B
330
336
100
AcDbEntity
  8
Default
100
AcDbVertex
100
AcDb2dVertex
 10
-438.7874793644951
 20
95.18247185559075
 30
41.3
  0
VERTEX
  5
35C
330
336
100
AcDbEntity
  8
Default
100
AcDbVertex
100
AcDb2dVertex
 10
-439.0160401030973
 20
94.50280556850264
 30
41.3
  0
VERTEX
  5
35D
330
336
100
AcDbEntity
  8
Default
100
AcDbVertex
100
AcDb2dVertex
 10
-439.2212630343037
 20
93.81573219429755
 30
41.3
  0
VERTEX
  5
35E
330
336
100
AcDbEntity
  8
Default
100
AcDbVertex
100
AcDb2dVertex
 10
-439.4029088773567
 20
93.12205282979544
 30
41.3
  0
VERTEX
  5
35F
330
336
100
AcDbEntity
  8
Default
100
AcDbVertex
100
AcDb2dVertex
 10
-439.5607658413287
 20
92.42257627410537
 30
41.3
  0
VERTEX
  5
360
330
336
100
AcDbEntity
  8
Default
100
AcDbVertex
100
AcDb2dVertex
 10
-439.6946498720611
 20
91.71811808560206
 30
41.3
  0
VERTEX
  5
361
330
336
100
AcDbEntity
  8
Default
100
AcDbVertex
100
AcDb2dVertex
 10
-439.8044048667629
 20
91.00949963102124
 30
41.3
  0
VERTEX
  5
362
330
336
100
AcDbEntity
  8
Default
100
AcDbVertex
100
AcDb2dVertex
 10
-439.8899028560199
 20
90.29754712778279
 30
41.3
  0
VERTEX
  5
363
330
336
100
AcDbEntity
  8
Default
100
AcDbVertex
100
AcDb2dVertex
 10
-439.9510441530012
 20
89.58309068065816
 30
41.3
  0
VERTEX
  5
364
330
336
100
AcDbEntity
  8
Default
100
AcDbVertex
100
AcDb2dVertex
 10
-439.9877574696896
 20
88.8669633139054
 30
41.3
  0
VERTEX
  5
365
330
336
100
AcDbEntity
  8
Default
100
AcDbVertex
100
AcDb2dVertex
 10
-439.9999999999999
 20
88.14999999999976
 30
41.3
  0
SEQEND
  5
366
330
336
100
AcDbEntity
  8
Default
  0
POLYLINE
  5
367
330
1F
100
AcDbEntity
  8
Default
100
AcDb2dPolyline
 66
     1
 10
0.0
 20
0.0
 30
41.3
  0
VERTEX
  5
368
330
367
100
AcDbEntity
  8
Default
100
AcDbVertex
100
AcDb2dVertex
 10
-360.0000000000668
 20
70.64999999999999
 30
41.3
  0
VERTEX
  5
369
330
367
100
AcDbEntity
  8
Default
100
AcDbVertex
100
AcDb2dVertex
 10
-360.0000000000668
 20
86.14999999999999
 30
41.3
  0
SEQEND
  5
36A
330
367
100
AcDbEntity
  8
Default
  0
POLYLINE
  5
36B
330
1F
100
AcDbEntity
  8
Default
100
AcDb2dPolyline
 66
     1
 10
0.0
 20
0.0
 30
41.3
  0
VERTEX
  5
36C
330
36B
100
AcDbEntity
  8
Default
100
AcDbVertex
100
AcDb2dVertex
 10
-360.0000000000668
 20
86.14999999999999
 30
41.3
  0
VERTEX
  5
36D
330
36B
100
AcDbEntity
  8
Default
100
AcDbVertex
100
AcDb2dVertex
 10
-330.7000000000668
 20
86.14999999999999
 30
41.3
  0
SEQEND
  5
36E
330
36B
100
AcDbEntity
  8
Default
  0
POLYLINE
  5
36F
330
1F
100
AcDbEntity
  8
Default
100
AcDb2dPolyline
 66
     1
 10
0.0
 20
0.0
 30
41.3
  0
VERTEX
  5
370
330
36F
100
AcDbEntity
  8
Default
100
AcDbVertex
100
AcDb2dVertex
 10
-330.7000000000668
 20
86.14999999999999
 30
41.3
  0
VERTEX
  5
371
330
36F
100
AcDbEntity
  8
Default
100
AcDbVertex
100
AcDb2dVertex
 10
-330.7000000000668
 20
70.64999999999999
 30
41.3
  0
SEQEND
  5
372
330
36F
100
AcDbEntity
  8
Default
  0
POLYLINE
  5
373
330
1F
100
AcDbEntity
  8
Default
100
AcDb2dPolyline
 66
     1
 10
0.0
 20
0.0
 30
41.3
  0
VERTEX
  5
374
330
373
100
AcDbEntity
  8
Default
100
AcDbVertex
100
AcDb2dVertex
 10
-330.7000000000668
 20
70.64999999999999
 30
41.3
  0
VERTEX
  5
375
330
373
100
AcDbEntity
  8
Default
100
AcDbVertex
100
AcDb2dVertex
 10
-360.0000000000668
 20
70.64999999999999
 30
41.3
  0
SEQEND
  5
376
330
373
100
AcDbEntity
  8
Default
  0
ENDSEC
  0
SECTION
  2
OBJECTS
  0
DICTIONARY
  5
C
330
0
100
AcDbDictionary
281
     1
  3
ACAD_DETAILVIEWSTYLE
350
3B2
  3
ACAD_GROUP
350
D
  3
ACAD_LAYOUT
350
1A
  3
ACAD_MATERIAL
350
43
  3
ACAD_MLEADERSTYLE
350
3B1
  3
ACAD_MLINESTYLE
350
17
  3
ACAD_PLOTSETTINGS
350
19
  3
ACAD_PLOTSTYLENAME
350
E
  3
ACAD_SCALELIST
350
47
  3
ACAD_SECTIONVIEWSTYLE
350
3B3
  3
ACAD_TABLESTYLE
350
3B0
  3
ACAD_VISUALSTYLE
350
2A
  3
AcDbVariableDictionary
350
377
  0
DICTIONARY
  5
3B2
102
{ACAD_REACTORS
330
C
102
}
330
C
100
AcDbDictionary
281
     1
  0
DICTIONARY
  5
D
102
{ACAD_REACTORS
330
C
102
}
330
C
100
AcDbDictionary
281
     1
  0
DICTIONARY
  5
1A
102
{ACAD_REACTORS
330
C
102
}
330
C
100
AcDbDictionary
281
     1
  3
Layout1
350
1E
  3
Layout2
350
26
  3
Model
350
22
  0
DICTIONARY
  5
43
102
{ACAD_REACTORS
330
C
102
}
330
C
100
AcDbDictionary
281
     1
  3
ByBlock
350
45
  3
ByLayer
350
44
  3
Global
350
46
  0
DICTIONARY
  5
3B1
102
{ACAD_REACTORS
330
C
102
}
330
C
100
AcDbDictionary
281
     1
  0
DICTIONARY
  5
17
102
{ACAD_REACTORS
330
C
102
}
330
C
100
AcDbDictionary
281
     1
  3
Standard
350
18
  0
DICTIONARY
  5
19
102
{ACAD_REACTORS
330
C
102
}
330
C
100
AcDbDictionary
281
     1
  0
ACDBDICTIONARYWDFLT
  5
E
102
{ACAD_REACTORS
330
C
102
}
330
C
100
AcDbDictionary
281
     1
  3
Normal
350
F
100
AcDbDictionaryWithDefault
340
F
  0
DICTIONARY
  5
47
102
{ACAD_REACTORS
330
C
102
}
330
C
100
AcDbDictionary
281
     1
  3
A0
350
48
  3
A1
350
49
  3
A2
350
4A
  3
A3
350
4B
  3
A4
350
4C
  3
A5
350
4D
  3
A6
350
4E
  3
A7
350
4F
  3
A8
350
50
  3
A9
350
51
  3
B0
350
52
  3
B1
350
53
  3
B2
350
54
  3
B3
350
55
  3
B4
350
56
  3
B5
350
57
  3
B6
350
58
  3
B7
350
59
  3
B8
350
5A
  3
B9
350
5B
  3
C0
350
5C
  3
C1
350
5D
  3
C2
350
5E
  3
C3
350
5F
  3
C4
350
60
  3
C5
350
61
  3
C6
350
62
  3
C7
350
63
  3
C8
350
64
  3
C9
350
65
  3
D0
350
66
  3
D1
350
67
  3
D2
350
68
  0
DICTIONARY
  5
3B3
102
{ACAD_REACTORS
330
C
102
}
330
C
100
AcDbDictionary
281
     1
  0
DICTIONARY
  5
3B0
102
{ACAD_REACTORS
330
C
102
}
330
C
100
AcDbDictionary
281
     1
  0
DICTIONARY
  5
2A
102
{ACAD_REACTORS
330
C
102
}
330
C
100
AcDbDictionary
281
     1
  3
2dWireframe
350
2F
  3
Basic
350
32
  3
Brighten
350
36
  3
ColorChange
350
3A
  3
Conceptual
350
34
  3
Dim
350
35
  3
EdgeColorOff
350
3D
  3
Facepattern
350
39
  3
Flat
350
2B
  3
FlatWithEdges
350
2C
  3
Gouraud
350
2D
  3
GouraudWithEdges
350
2E
  3
Hidden
350
31
  3
JitterOff
350
3B
  3
Linepattern
350
38
  3
OverhangOff
350
3C
  3
Realistic
350
33
  3
Shaded
350
42
  3
Shaded with edges
350
41
  3
Shades of Gray
350
3E
  3
Sketchy
350
3F
  3
Thicken
350
37
  3
Wireframe
350
30
  3
X-Ray
350
40
  0
DICTIONARY
  5
377
102
{ACAD_REACTORS
330
C
102
}
330
C
100
AcDbDictionary
281
     1
  3
CANNOSCALE
350
378
  3
MSLTSCALE
350
379
  0
LAYOUT
  5
1E
102
{ACAD_REACTORS
330
1A
102
}
330
1A
100
AcDbPlotSettings
  1

  2
none_device
  4

  6

 40
0.0
 41
0.0
 42
0.0
 43
0.0
 44
0.0
 45
0.0
 46
0.0
 47
0.0
 48
0.0
 49
0.0
140
0.0
141
0.0
142
1.0
143
1.0
 70
   688
 72
     0
 73
     0
 74
     5
  7

 75
    16
 76
     0
 77
     2
 78
   300
147
1.0
148
0.0
149
0.0
100
AcDbLayout
  1
Layout1
 70
     1
 71
     1
 10
0.0
 20
0.0
 11
12.0
 21
9.0
 12
0.0
 22
0.0
 32
0.0
 14
1.000000000000000E+20
 24
1.000000000000000E+20
 34
1.000000000000000E+20
 15
-1.000000000000000E+20
 25
-1.000000000000000E+20
 35
-1.000000000000000E+20
146
0.0
 13
0.0
 23
0.0
 33
0.0
 16
1.0
 26
0.0
 36
0.0
 17
0.0
 27
1.0
 37
0.0
 76
     0
330
1B
  0
LAYOUT
  5
26
102
{ACAD_REACTORS
330
1A
102
}
330
1A
100
AcDbPlotSettings
  1

  2
none_device
  4

  6

 40
0.0
 41
0.0
 42
0.0
 43
0.0
 44
0.0
 45
0.0
 46
0.0
 47
0.0
 48
0.0
 49
0.0
140
0.0
141
0.0
142
1.0
143
1.0
 70
   688
 72
     0
 73
     0
 74
     5
  7

 75
    16
 76
     0
 77
     2
 78
   300
147
1.0
148
0.0
149
0.0
100
AcDbLayout
  1
Layout2
 70
     1
 71
     2
 10
0.0
 20
0.0
 11
0.0
 21
0.0
 12
0.0
 22
0.0
 32
0.0
 14
0.0
 24
0.0
 34
0.0
 15
0.0
 25
0.0
 35
0.0
146
0.0
 13
0.0
 23
0.0
 33
0.0
 16
1.0
 26
0.0
 36
0.0
 17
0.0
 27
1.0
 37
0.0
 76
     0
330
23
  0
LAYOUT
  5
22
102
{ACAD_REACTORS
330
1A
102
}
330
1A
100
AcDbPlotSettings
  1

  2
none_device
  4
Letter_(8.50_x_11.00_Inches)
  6

 40
6.35
 41
6.35
 42
6.35000508
 43
6.35000508
 44
215.9
 45
279.4
 46
0.0
 47
0.0
 48
0.0
 49
0.0
140
0.0
141
0.0
142
1.0
143
1.0
 70
  1712
 72
     0
 73
     0
 74
     0
  7

 75
     0
 76
     0
 77
     2
 78
   300
147
1.0
148
0.0
149
0.0
100
AcDbLayout
  1
Model
 70
     1
 71
     0
 10
0.0
 20
0.0
 11
12.0
 21
9.0
 12
0.0
 22
0.0
 32
0.0
 14
-439.9999999999999
 24
27.84999999999998
 34
41.3
 15
-327.9999999999999
 25
109.15
 35
41.3
146
0.0
 13
0.0
 23
0.0
 33
0.0
 16
1.0
 26
0.0
 36
0.0
 17
0.0
 27
1.0
 37
0.0
 76
     0
330
1F
331
29
  0
MATERIAL
  5
45
102
{ACAD_REACTORS
330
43
102
}
102
{ACAD_XDICTIONARY
360
3AC
102
}
330
43
100
AcDbMaterial
  1
ByBlock
  0
MATERIAL
  5
44
102
{ACAD_REACTORS
330
43
102
}
102
{ACAD_XDICTIONARY
360
3AA
102
}
330
43
100
AcDbMaterial
  1
ByLayer
  0
MATERIAL
  5
46
102
{ACAD_REACTORS
330
43
102
}
102
{ACAD_XDICTIONARY
360
3AE
102
}
330
43
100
AcDbMaterial
  1
Global
  0
MLINESTYLE
  5
18
102
{ACAD_REACTORS
330
17
102
}
330
17
100
AcDbMlineStyle
  2
Standard
 70
     0
  3

 62
   256
 51
90.0
 52
90.0
 71
     2
 49
0.5
 62
   256
  6
BYLAYER
 49
-0.5
 62
   256
  6
BYLAYER
  0
ACDBPLACEHOLDER
  5
F
102
{ACAD_REACTORS
330
E
102
}
330
E
  0
SCALE
  5
48
102
{ACAD_REACTORS
330
47
102
}
330
47
100
AcDbScale
 70
     0
300
1:1
140
1.0
141
1.0
290
     1
  0
SCALE
  5
49
102
{ACAD_REACTORS
330
47
102
}
330
47
100
AcDbScale
 70
     0
300
1:2
140
1.0
141
2.0
290
     0
  0
SCALE
  5
4A
102
{ACAD_REACTORS
330
47
102
}
330
47
100
AcDbScale
 70
     0
300
1:4
140
1.0
141
4.0
290
     0
  0
SCALE
  5
4B
102
{ACAD_REACTORS
330
47
102
}
330
47
100
AcDbScale
 70
     0
300
1:5
140
1.0
141
5.0
290
     0
  0
SCALE
  5
4C
102
{ACAD_REACTORS
330
47
102
}
330
47
100
AcDbScale
 70
     0
300
1:8
140
1.0
141
8.0
290
     0
  0
SCALE
  5
4D
102
{ACAD_REACTORS
330
47
102
}
330
47
100
AcDbScale
 70
     0
300
1:10
140
1.0
141
10.0
290
     0
  0
SCALE
  5
4E
102
{ACAD_REACTORS
330
47
102
}
330
47
100
AcDbScale
 70
     0
300
1:16
140
1.0
141
16.0
290
     0
  0
SCALE
  5
4F
102
{ACAD_REACTORS
330
47
102
}
330
47
100
AcDbScale
 70
     0
300
1:20
140
1.0
141
20.0
290
     0
  0
SCALE
  5
50
102
{ACAD_REACTORS
330
47
102
}
330
47
100
AcDbScale
 70
     0
300
1:30
140
1.0
141
30.0
290
     0
  0
SCALE
  5
51
102
{ACAD_REACTORS
330
47
102
}
330
47
100
AcDbScale
 70
     0
300
1:40
140
1.0
141
40.0
290
     0
  0
SCALE
  5
52
102
{ACAD_REACTORS
330
47
102
}
330
47
100
AcDbScale
 70
     0
300
1:50
140
1.0
141
50.0
290
     0
  0
SCALE
  5
53
102
{ACAD_REACTORS
330
47
102
}
330
47
100
AcDbScale
 70
     0
300
1:100
140
1.0
141
100.0
290
     0
  0
SCALE
  5
54
102
{ACAD_REACTORS
330
47
102
}
330
47
100
AcDbScale
 70
     0
300
2:1
140
2.0
141
1.0
290
     0
  0
SCALE
  5
55
102
{ACAD_REACTORS
330
47
102
}
330
47
100
AcDbScale
 70
     0
300
4:1
140
4.0
141
1.0
290
     0
  0
SCALE
  5
56
102
{ACAD_REACTORS
330
47
102
}
330
47
100
AcDbScale
 70
     0
300
8:1
140
8.0
141
1.0
290
     0
  0
SCALE
  5
57
102
{ACAD_REACTORS
330
47
102
}
330
47
100
AcDbScale
 70
     0
300
10:1
140
10.0
141
1.0
290
     0
  0
SCALE
  5
58
102
{ACAD_REACTORS
330
47
102
}
330
47
100
AcDbScale
 70
     0
300
100:1
140
100.0
141
1.0
290
     0
  0
SCALE
  5
59
102
{ACAD_REACTORS
330
47
102
}
330
47
100
AcDbScale
 70
     0
300
1/128" = 1'-0"
140
0.0078125
141
12.0
290
     0
  0
SCALE
  5
5A
102
{ACAD_REACTORS
330
47
102
}
330
47
100
AcDbScale
 70
     0
300
1/64" = 1'-0"
140
0.015625
141
12.0
290
     0
  0
SCALE
  5
5B
102
{ACAD_REACTORS
330
47
102
}
330
47
100
AcDbScale
 70
     0
300
1/32" = 1'-0"
140
0.03125
141
12.0
290
     0
  0
SCALE
  5
5C
102
{ACAD_REACTORS
330
47
102
}
330
47
100
AcDbScale
 70
     0
300
1/16" = 1'-0"
140
0.0625
141
12.0
290
     0
  0
SCALE
  5
5D
102
{ACAD_REACTORS
330
47
102
}
330
47
100
AcDbScale
 70
     0
300
3/32" = 1'-0"
140
0.09375
141
12.0
290
     0
  0
SCALE
  5
5E
102
{ACAD_REACTORS
330
47
102
}
330
47
100
AcDbScale
 70
     0
300
1/8" = 1'-0"
140
0.125
141
12.0
290
     0
  0
SCALE
  5
5F
102
{ACAD_REACTORS
330
47
102
}
330
47
100
AcDbScale
 70
     0
300
3/16" = 1'-0"
140
0.1875
141
12.0
290
     0
  0
SCALE
  5
60
102
{ACAD_REACTORS
330
47
102
}
330
47
100
AcDbScale
 70
     0
300
1/4" = 1'-0"
140
0.25
141
12.0
290
     0
  0
SCALE
  5
61
102
{ACAD_REACTORS
330
47
102
}
330
47
100
AcDbScale
 70
     0
300
3/8" = 1'-0"
140
0.375
141
12.0
290
     0
  0
SCALE
  5
62
102
{ACAD_REACTORS
330
47
102
}
330
47
100
AcDbScale
 70
     0
300
1/2" = 1'-0"
140
0.5
141
12.0
290
     0
  0
SCALE
  5
63
102
{ACAD_REACTORS
330
47
102
}
330
47
100
AcDbScale
 70
     0
300
3/4" = 1'-0"
140
0.75
141
12.0
290
     0
  0
SCALE
  5
64
102
{ACAD_REACTORS
330
47
102
}
330
47
100
AcDbScale
 70
     0
300
1" = 1'-0"
140
1.0
141
12.0
290
     0
  0
SCALE
  5
65
102
{ACAD_REACTORS
330
47
102
}
330
47
100
AcDbScale
 70
     0
300
1-1/2" = 1'-0"
140
1.5
141
12.0
290
     0
  0
SCALE
  5
66
102
{ACAD_REACTORS
330
47
102
}
330
47
100
AcDbScale
 70
     0
300
3" = 1'-0"
140
3.0
141
12.0
290
     0
  0
SCALE
  5
67
102
{ACAD_REACTORS
330
47
102
}
330
47
100
AcDbScale
 70
     0
300
6" = 1'-0"
140
6.0
141
12.0
290
     0
  0
SCALE
  5
68
102
{ACAD_REACTORS
330
47
102
}
330
47
100
AcDbScale
 70
     0
300
1'-0" = 1'-0"
140
12.0
141
12.0
290
     0
  0
VISUALSTYLE
  5
2F
102
{ACAD_REACTORS
330
2A
102
}
102
{ACAD_XDICTIONARY
360
382
102
}
330
2A
100
AcDbVisualStyle
  2
2dWireframe
 70
     4
 71
     0
 72
     2
 73
     0
 90
        0
 40
0.6
 41
30.0
 62
     5
 63
     7
421
 16777215
 74
     1
 91
        4
 64
     7
 65
   257
 75
     1
175
     1
 42
1.0
 92
        0
 66
   257
 43
1.0
 76
     1
 77
     6
 78
     2
 67
     7
 79
     5
170
     0
171
     0
290
     0
174
     0
 93
        1
 44
0.0
173
     0
291
     0
 45
0.0
1001
ACAD
1000
AcDbSavedByObjectVersion
1070
     0
  0
VISUALSTYLE
  5
32
102
{ACAD_REACTORS
330
2A
102
}
102
{ACAD_XDICTIONARY
360
388
102
}
330
2A
100
AcDbVisualStyle
  2
Basic
 70
     7
 71
     1
 72
     0
 73
     1
 90
        0
 40
0.6
 41
30.0
 62
     5
 63
     7
421
 16777215
 74
     0
 91
        4
 64
     7
 65
   257
 75
     1
175
     1
 42
1.0
 92
        8
 66
     7
 43
1.0
 76
     1
 77
     6
 78
     2
 67
     7
 79
     5
170
     0
171
     0
290
     0
174
     0
 93
        1
 44
0.0
173
     0
291
     1
 45
0.0
1001
ACAD
1000
AcDbSavedByObjectVersion
1070
     0
  0
VISUALSTYLE
  5
36
102
{ACAD_REACTORS
330
2A
102
}
102
{ACAD_XDICTIONARY
360
390
102
}
330
2A
100
AcDbVisualStyle
  2
Brighten
 70
    12
 71
     2
 72
     2
 73
     0
 90
        0
 40
0.6
 41
30.0
 62
     5
 63
     7
421
 16777215
 74
     1
 91
        4
 64
     7
 65
   257
 75
     1
175
     1
 42
1.0
 92
        8
 66
     7
 43
1.0
 76
     1
 77
     6
 78
     2
 67
     7
 79
     5
170
     0
171
     0
290
     0
174
     0
 93
        1
 44
50.0
173
     0
291
     1
 45
0.0
1001
ACAD
1000
AcDbSavedByObjectVersion
1070
     0
  0
VISUALSTYLE
  5
3A
102
{ACAD_REACTORS
330
2A
102
}
102
{ACAD_XDICTIONARY
360
398
102
}
330
2A
100
AcDbVisualStyle
  2
ColorChange
 70
    16
 71
     2
 72
     2
 73
     3
 90
        0
 40
0.6
 41
30.0
 62
     5
 63
     8
421
  8421504
 74
     1
 91
        4
 64
     7
 65
   257
 75
     1
175
     1
 42
1.0
 92
        8
 66
     8
424
  8421504
 43
1.0
 76
     1
 77
     6
 78
     2
 67
     7
 79
     5
170
     0
171
     0
290
     0
174
     0
 93
        1
 44
0.0
173
     0
291
     1
 45
0.0
1001
ACAD
1000
AcDbSavedByObjectVersion
1070
     0
  0
VISUALSTYLE
  5
34
102
{ACAD_REACTORS
330
2A
102
}
102
{ACAD_XDICTIONARY
360
38C
102
}
330
2A
100
AcDbVisualStyle
  2
Conceptual
 70
     9
 71
     3
 72
     2
 73
     0
 90
        0
 40
0.6
 41
30.0
 62
     5
 63
     7
421
 16777215
 74
     2
 91
        2
 64
     7
 65
   257
 75
     1
175
     1
 42
179.0
 92
        8
 66
     7
 43
1.0
 76
     1
 77
     6
 78
     2
 67
     7
 79
     3
170
     0
171
     0
290
     0
174
     0
 93
        1
 44
0.0
173
     0
291
     0
 45
0.0
1001
ACAD
1000
AcDbSavedByObjectVersion
1070
     0
  0
VISUALSTYLE
  5
35
102
{ACAD_REACTORS
330
2A
102
}
102
{ACAD_XDICTIONARY
360
38E
102
}
330
2A
100
AcDbVisualStyle
  2
Dim
 70
    11
 71
     2
 72
     2
 73
     0
 90
        0
 40
0.6
 41
30.0
 62
     5
 63
     7
421
 16777215
 74
     1
 91
        4
 64
     7
 65
   257
 75
     1
175
     1
 42
1.0
 92
        8
 66
     7
 43
1.0
 76
     1
 77
     6
 78
     2
 67
     7
 79
     5
170
     0
171
     0
290
     0
174
     0
 93
        1
 44
-50.0
173
     0
291
     1
 45
0.0
1001
ACAD
1000
AcDbSavedByObjectVersion
1070
     0
  0
VISUALSTYLE
  5
3D
102
{ACAD_REACTORS
330
2A
102
}
102
{ACAD_XDICTIONARY
360
39E
102
}
330
2A
100
AcDbVisualStyle
  2
EdgeColorOff
 70
    22
 71
     2
 72
     2
 73
     0
 90
        0
 40
0.6
 41
30.0
 62
     5
 63
     7
421
 16777215
 74
     1
 91
        4
 64
     7
 65
   257
 75
     1
175
     1
 42
1.0
 92
        8
 66
     7
 43
1.0
 76
     1
 77
     6
 78
     2
 67
     7
 79
     5
170
     0
171
     0
290
     0
174
     0
 93
        1
 44
0.0
173
     0
291
     1
 45
0.0
1001
ACAD
1000
AcDbSavedByObjectVersion
1070
     0
  0
VISUALSTYLE
  5
39
102
{ACAD_REACTORS
330
2A
102
}
102
{ACAD_XDICTIONARY
360
396
102
}
330
2A
100
AcDbVisualStyle
  2
Facepattern
 70
    15
 71
     2
 72
     2
 73
     0
 90
        0
 40
0.6
 41
30.0
 62
     5
 63
     7
421
 16777215
 74
     1
 91
        4
 64
     7
 65
   257
 75
     1
175
     1
 42
1.0
 92
        8
 66
     7
 43
1.0
 76
     1
 77
     6
 78
     2
 67
     7
 79
     5
170
     0
171
     0
290
     0
174
     0
 93
        1
 44
0.0
173
     0
291
     1
 45
0.0
1001
ACAD
1000
AcDbSavedByObjectVersion
1070
     0
  0
VISUALSTYLE
  5
2B
102
{ACAD_REACTORS
330
2A
102
}
102
{ACAD_XDICTIONARY
360
37A
102
}
330
2A
100
AcDbVisualStyle
  2
Flat
 70
     0
 71
     2
 72
     1
 73
     1
 90
        2
 40
0.6
 41
30.0
 62
     5
 63
     7
421
 16777215
 74
     0
 91
        0
 64
     7
 65
   257
 75
     1
175
     1
 42
1.0
 92
        8
 66
     7
 43
1.0
 76
     1
 77
     6
 78
     2
 67
     7
 79
     5
170
     0
171
     0
290
     0
174
     0
 93
       13
 44
0.0
173
     0
291
     1
 45
0.0
1001
ACAD
1000
AcDbSavedByObjectVersion
1070
     0
  0
VISUALSTYLE
  5
2C
102
{ACAD_REACTORS
330
2A
102
}
102
{ACAD_XDICTIONARY
360
37C
102
}
330
2A
100
AcDbVisualStyle
  2
FlatWithEdges
 70
     1
 71
     2
 72
     1
 73
     1
 90
        2
 40
0.6
 41
30.0
 62
     5
 63
     7
421
 16777215
 74
     1
 91
        0
 64
     7
 65
   257
 75
     1
175
     1
 42
1.0
 92
        0
 66
   257
 43
1.0
 76
     1
 77
     6
 78
     2
 67
     7
 79
     5
170
     0
171
     0
290
     0
174
     0
 93
       13
 44
0.0
173
     0
291
     1
 45
0.0
1001
ACAD
1000
AcDbSavedByObjectVersion
1070
     0
  0
VISUALSTYLE
  5
2D
102
{ACAD_REACTORS
330
2A
102
}
102
{ACAD_XDICTIONARY
360
37E
102
}
330
2A
100
AcDbVisualStyle
  2
Gouraud
 70
     2
 71
     2
 72
     2
 73
     1
 90
        2
 40
0.6
 41
30.0
 62
     5
 63
     7
421
 16777215
 74
     0
 91
        0
 64
     7
 65
   257
 75
     1
175
     1
 42
1.0
 92
        0
 66
     7
 43
1.0
 76
     1
 77
     6
 78
     2
 67
     7
 79
     5
170
     0
171
     0
290
     0
174
     0
 93
       13
 44
0.0
173
     0
291
     1
 45
0.0
1001
ACAD
1000
AcDbSavedByObjectVersion
1070
     0
  0
VISUALSTYLE
  5
2E
102
{ACAD_REACTORS
330
2A
102
}
102
{ACAD_XDICTIONARY
360
380
102
}
330
2A
100
AcDbVisualStyle
  2
GouraudWithEdges
 70
     3
 71
     2
 72
     2
 73
     1
 90
        2
 40
0.6
 41
30.0
 62
     5
 63
     7
421
 16777215
 74
     1
 91
        0
 64
     7
 65
   257
 75
     1
175
     1
 42
1.0
 92
        0
 66
   257
 43
1.0
 76
     1
 77
     6
 78
     2
 67
     7
 79
     5
170
     0
171
     0
290
     0
174
     0
 93
       13
 44
0.0
173
     0
291
     1
 45
0.0
1001
ACAD
1000
AcDbSavedByObjectVersion
1070
     0
  0
VISUALSTYLE
  5
31
102
{ACAD_REACTORS
330
2A
102
}
102
{ACAD_XDICTIONARY
360
386
102
}
330
2A
100
AcDbVisualStyle
  2
Hidden
 70
     6
 71
     1
 72
     2
 73
     2
 90
        0
 40
0.6
 41
30.0
 62
     5
 63
     7
421
 16777215
 74
     2
 91
        2
 64
     7
 65
   257
 75
     2
175
     1
 42
40.0
 92
        0
 66
   257
 43
1.0
 76
     1
 77
     6
 78
     2
 67
     7
 79
     3
170
     0
171
     0
290
     0
174
     0
 93
        1
 44
0.0
173
     0
291
     0
 45
0.0
1001
ACAD
1000
AcDbSavedByObjectVersion
1070
     0
  0
VISUALSTYLE
  5
3B
102
{ACAD_REACTORS
330
2A
102
}
102
{ACAD_XDICTIONARY
360
39A
102
}
330
2A
100
AcDbVisualStyle
  2
JitterOff
 70
    20
 71
     2
 72
     2
 73
     0
 90
        0
 40
0.6
 41
30.0
 62
     5
 63
     7
421
 16777215
 74
     1
 91
        4
 64
     7
 65
   257
 75
     1
175
     1
 42
1.0
 92
       10
 66
     7
 43
1.0
 76
     1
 77
     6
 78
     2
 67
     7
 79
     5
170
     0
171
     0
290
     0
174
     0
 93
        1
 44
0.0
173
     0
291
     1
 45
0.0
1001
ACAD
1000
AcDbSavedByObjectVersion
1070
     0
  0
VISUALSTYLE
  5
38
102
{ACAD_REACTORS
330
2A
102
}
102
{ACAD_XDICTIONARY
360
394
102
}
330
2A
100
AcDbVisualStyle
  2
Linepattern
 70
    14
 71
     2
 72
     2
 73
     0
 90
        0
 40
0.6
 41
30.0
 62
     5
 63
     7
421
 16777215
 74
     1
 91
        4
 64
     7
 65
   257
 75
     7
175
     7
 42
1.0
 92
        8
 66
     7
 43
1.0
 76
     1
 77
     6
 78
     2
 67
     7
 79
     5
170
     0
171
     0
290
     0
174
     0
 93
        1
 44
0.0
173
     0
291
     1
 45
0.0
1001
ACAD
1000
AcDbSavedByObjectVersion
1070
     0
  0
VISUALSTYLE
  5
3C
102
{ACAD_REACTORS
330
2A
102
}
102
{ACAD_XDICTIONARY
360
39C
102
}
330
2A
100
AcDbVisualStyle
  2
OverhangOff
 70
    21
 71
     2
 72
     2
 73
     0
 90
        0
 40
0.6
 41
30.0
 62
     5
 63
     7
421
 16777215
 74
     1
 91
        4
 64
     7
 65
   257
 75
     1
175
     1
 42
1.0
 92
        9
 66
     7
 43
1.0
 76
     1
 77
     6
 78
     2
 67
     7
 79
     5
170
     0
171
     0
290
     0
174
     0
 93
        1
 44
0.0
173
     0
291
     1
 45
0.0
1001
ACAD
1000
AcDbSavedByObjectVersion
1070
     0
  0
VISUALSTYLE
  5
33
102
{ACAD_REACTORS
330
2A
102
}
102
{ACAD_XDICTIONARY
360
38A
102
}
330
2A
100
AcDbVisualStyle
  2
Realistic
 70
     8
 71
     2
 72
     3
 73
     0
 90
        2
 40
0.6
 41
30.0
 62
     5
 63
     7
421
 16777215
 74
     0
 91
        0
 64
     7
 65
   257
 75
     1
175
     1
 42
1.0
 92
        8
 66
   257
 43
1.0
 76
     1
 77
     6
 78
     2
 67
     7
 79
     3
170
     0
171
     0
290
     0
174
     0
 93
       13
 44
0.0
173
     0
291
     0
 45
0.0
1001
ACAD
1000
AcDbSavedByObjectVersion
1070
     0
  0
VISUALSTYLE
  5
42
102
{ACAD_REACTORS
330
2A
102
}
102
{ACAD_XDICTIONARY
360
3A8
102
}
330
2A
100
AcDbVisualStyle
  2
Shaded
 70
    27
 71
     2
 72
     2
 73
     1
 90
        2
 40
0.6
 41
30.0
 62
     5
 63
     7
421
 16777215
 74
     0
 91
        4
 64
     7
 65
   257
 75
     1
175
     1
 42
1.0
 92
        8
 66
   257
 43
1.0
 76
     1
 77
     6
 78
     2
 67
     8
425
  7895160
 79
     3
170
     0
171
     0
290
     0
174
     0
 93
        5
 44
0.0
173
     0
291
     0
 45
0.0
1001
ACAD
1000
AcDbSavedByObjectVersion
1070
     0
  0
VISUALSTYLE
  5
41
102
{ACAD_REACTORS
330
2A
102
}
102
{ACAD_XDICTIONARY
360
3A6
102
}
330
2A
100
AcDbVisualStyle
  2
Shaded with edges
 70
    26
 71
     2
 72
     2
 73
     1
 90
        2
 40
0.6
 41
30.0
 62
     5
 63
     7
421
 16777215
 74
     1
 91
       10
 64
     7
 65
   257
 75
     2
175
     1
 42
1.0
 92
        8
 66
   257
 43
1.0
 76
     1
 77
     6
 78
     2
 67
     7
 79
     3
170
     0
171
     0
290
     0
174
     0
 93
        5
 44
0.0
173
     0
291
     0
 45
0.0
1001
ACAD
1000
AcDbSavedByObjectVersion
1070
     0
  0
VISUALSTYLE
  5
3E
102
{ACAD_REACTORS
330
2A
102
}
102
{ACAD_XDICTIONARY
360
3A0
102
}
330
2A
100
AcDbVisualStyle
  2
Shades of Gray
 70
    23
 71
     2
 72
     2
 73
     3
 90
        0
 40
0.6
 41
30.0
 62
     5
 63
     7
421
 16777215
 74
     2
 91
        2
 64
     7
 65
     7
 75
     1
175
     1
 42
40.0
 92
        8
 66
     7
 43
1.0
 76
     1
 77
     6
 78
     2
 67
     7
 79
     3
170
     0
171
     0
290
     0
174
     0
 93
        1
 44
0.0
173
     0
291
     0
 45
0.0
1001
ACAD
1000
AcDbSavedByObjectVersion
1070
     0
  0
VISUALSTYLE
  5
3F
102
{ACAD_REACTORS
330
2A
102
}
102
{ACAD_XDICTIONARY
360
3A2
102
}
330
2A
100
AcDbVisualStyle
  2
Sketchy
 70
    24
 71
     1
 72
     2
 73
     2
 90
        0
 40
0.6
 41
30.0
 62
     5
 63
     7
421
 16777215
 74
     2
 91
        2
 64
     7
 65
     7
 75
     1
175
     1
 42
40.0
 92
       11
 66
     7
 43
1.0
 76
     1
 77
     6
 78
     2
 67
     7
 79
     6
170
     0
171
     0
290
     0
174
     0
 93
        1
 44
0.0
173
     0
291
     0
 45
0.0
1001
ACAD
1000
AcDbSavedByObjectVersion
1070
     0
  0
VISUALSTYLE
  5
37
102
{ACAD_REACTORS
330
2A
102
}
102
{ACAD_XDICTIONARY
360
392
102
}
330
2A
100
AcDbVisualStyle
  2
Thicken
 70
    13
 71
     2
 72
     2
 73
     0
 90
        0
 40
0.6
 41
30.0
 62
     5
 63
     7
421
 16777215
 74
     1
 91
        4
 64
     7
 65
   257
 75
     1
175
     1
 42
1.0
 92
       12
 66
     7
 43
1.0
 76
     1
 77
     6
 78
     2
 67
     7
 79
     5
170
     0
171
     0
290
     0
174
     0
 93
        1
 44
0.0
173
     0
291
     1
 45
0.0
1001
ACAD
1000
AcDbSavedByObjectVersion
1070
     0
  0
VISUALSTYLE
  5
30
102
{ACAD_REACTORS
330
2A
102
}
102
{ACAD_XDICTIONARY
360
384
102
}
330
2A
100
AcDbVisualStyle
  2
Wireframe
 70
     5
 71
     0
 72
     2
 73
     0
 90
        0
 40
0.6
 41
30.0
 62
     5
 63
     7
421
 16777215
 74
     1
 91
        4
 64
     7
 65
   257
 75
     1
175
     1
 42
1.0
 92
        0
 66
   257
 43
1.0
 76
     1
 77
     6
 78
     2
 67
     7
 79
     3
170
     0
171
     0
290
     0
174
     0
 93
        1
 44
0.0
173
     0
291
     0
 45
0.0
1001
ACAD
1000
AcDbSavedByObjectVersion
1070
     0
  0
VISUALSTYLE
  5
40
102
{ACAD_REACTORS
330
2A
102
}
102
{ACAD_XDICTIONARY
360
3A4
102
}
330
2A
100
AcDbVisualStyle
  2
X-Ray
 70
    25
 71
     2
 72
     2
 73
     1
 90
        1
 40
0.5
 41
30.0
 62
     5
 63
     7
421
 16777215
 74
     1
 91
        0
 64
     7
 65
   257
 75
     1
175
     1
 42
1.0
 92
        8
 66
     7
 43
1.0
 76
     1
 77
     6
 78
     2
 67
     7
 79
     3
170
     0
171
     0
290
     0
174
     0
 93
       13
 44
0.0
173
     0
291
     0
 45
0.0
1001
ACAD
1000
AcDbSavedByObjectVersion
1070
     0
  0
DICTIONARYVAR
  5
378
102
{ACAD_REACTORS
330
377
102
}
330
377
100
DictionaryVariables
280
     0
  1
1:1
  0
DICTIONARYVAR
  5
379
102
{ACAD_REACTORS
330
377
102
}
330
377
100
DictionaryVariables
280
     0
  1
1
  0
DICTIONARY
  5
3AC
330
45
100
AcDbDictionary
280
     1
281
     1
  3
ACAD_XREC_ROUNDTRIP
360
3AD
  0
DICTIONARY
  5
3AA
330
44
100
AcDbDictionary
280
     1
281
     1
  3
ACAD_XREC_ROUNDTRIP
360
3AB
  0
DICTIONARY
  5
3AE
330
46
100
AcDbDictionary
280
     1
281
     1
  3
ACAD_XREC_ROUNDTRIP
360
3AF
  0
DICTIONARY
  5
382
330
2F
100
AcDbDictionary
280
     1
281
     1
  3
ACAD_XREC_ROUNDTRIP
360
383
  0
DICTIONARY
  5
388
330
32
100
AcDbDictionary
280
     1
281
     1
  3
ACAD_XREC_ROUNDTRIP
360
389
  0
DICTIONARY
  5
390
330
36
100
AcDbDictionary
280
     1
281
     1
  3
ACAD_XREC_ROUNDTRIP
360
391
  0
DICTIONARY
  5
398
330
3A
100
AcDbDictionary
280
     1
281
     1
  3
ACAD_XREC_ROUNDTRIP
360
399
  0
DICTIONARY
  5
38C
330
34
100
AcDbDictionary
280
     1
281
     1
  3
ACAD_XREC_ROUNDTRIP
360
38D
  0
DICTIONARY
  5
38E
330
35
100
AcDbDictionary
280
     1
281
     1
  3
ACAD_XREC_ROUNDTRIP
360
38F
  0
DICTIONARY
  5
39E
330
3D
100
AcDbDictionary
280
     1
281
     1
  3
ACAD_XREC_ROUNDTRIP
360
39F
  0
DICTIONARY
  5
396
330
39
100
AcDbDictionary
280
     1
281
     1
  3
ACAD_XREC_ROUNDTRIP
360
397
  0
DICTIONARY
  5
37A
330
2B
100
AcDbDictionary
280
     1
281
     1
  3
ACAD_XREC_ROUNDTRIP
360
37B
  0
DICTIONARY
  5
37C
330
2C
100
AcDbDictionary
280
     1
281
     1
  3
ACAD_XREC_ROUNDTRIP
360
37D
  0
DICTIONARY
  5
37E
330
2D
100
AcDbDictionary
280
     1
281
     1
  3
ACAD_XREC_ROUNDTRIP
360
37F
  0
DICTIONARY
  5
380
330
2E
100
AcDbDictionary
280
     1
281
     1
  3
ACAD_XREC_ROUNDTRIP
360
381
  0
DICTIONARY
  5
386
330
31
100
AcDbDictionary
280
     1
281
     1
  3
ACAD_XREC_ROUNDTRIP
360
387
  0
DICTIONARY
  5
39A
330
3B
100
AcDbDictionary
280
     1
281
     1
  3
ACAD_XREC_ROUNDTRIP
360
39B
  0
DICTIONARY
  5
394
330
38
100
AcDbDictionary
280
     1
281
     1
  3
ACAD_XREC_ROUNDTRIP
360
395
  0
DICTIONARY
  5
39C
330
3C
100
AcDbDictionary
280
     1
281
     1
  3
ACAD_XREC_ROUNDTRIP
360
39D
  0
DICTIONARY
  5
38A
330
33
100
AcDbDictionary
280
     1
281
     1
  3
ACAD_XREC_ROUNDTRIP
360
38B
  0
DICTIONARY
  5
3A8
330
42
100
AcDbDictionary
280
     1
281
     1
  3
ACAD_XREC_ROUNDTRIP
360
3A9
  0
DICTIONARY
  5
3A6
330
41
100
AcDbDictionary
280
     1
281
     1
  3
ACAD_XREC_ROUNDTRIP
360
3A7
  0
DICTIONARY
  5
3A0
330
3E
100
AcDbDictionary
280
     1
281
     1
  3
ACAD_XREC_ROUNDTRIP
360
3A1
  0
DICTIONARY
  5
3A2
330
3F
100
AcDbDictionary
280
     1
281
     1
  3
ACAD_XREC_ROUNDTRIP
360
3A3
  0
DICTIONARY
  5
392
330
37
100
AcDbDictionary
280
     1
281
     1
  3
ACAD_XREC_ROUNDTRIP
360
393
  0
DICTIONARY
  5
384
330
30
100
AcDbDictionary
280
     1
281
     1
  3
ACAD_XREC_ROUNDTRIP
360
385
  0
DICTIONARY
  5
3A4
330
40
100
AcDbDictionary
280
     1
281
     1
  3
ACAD_XREC_ROUNDTRIP
360
3A5
  0
XRECORD
  5
3AD
102
{ACAD_REACTORS
330
3AC
102
}
330
3AC
100
AcDbXrecord
280
     1
102
MATERIAL
148
0.0
149
0.0
149
0.0
 93
        0
 94
      127
282
     0
 72
     1
 77
     1
171
     1
175
     1
179
     1
273
     0
  0
XRECORD
  5
3AB
102
{ACAD_REACTORS
330
3AA
102
}
330
3AA
100
AcDbXrecord
280
     1
102
MATERIAL
148
0.0
149
0.0
149
0.0
 93
        0
 94
      127
282
     0
 72
     1
 77
     1
171
     1
175
     1
179
     1
273
     0
  0
XRECORD
  5
3AF
102
{ACAD_REACTORS
330
3AE
102
}
330
3AE
100
AcDbXrecord
280
     1
102
MATERIAL
148
0.0
149
0.0
149
0.0
 93
        0
 94
      127
282
     0
 72
     1
 77
     1
171
     1
175
     1
179
     1
273
     0
  0
XRECORD
  5
383
102
{ACAD_REACTORS
330
382
102
}
330
382
100
AcDbXrecord
280
     1
102
RTVSPropertyOp0
 70
     1
102
RTVSPropertyOp1
 70
     1
102
RTVSPropertyOp2
 70
     1
102
RTVSPropertyOp3
 70
     1
102
RTVSPropertyOp4
 70
     1
102
RTVSPropertyOp5
 70
     1
102
RTVSPropertyOp6
 70
     1
102
RTVSPropertyOp7
 70
     1
102
RTVSPropertyOp8
 70
     1
102
RTVSPropertyOp9
 70
     1
102
RTVSPropertyOp10
 70
     1
102
RTVSPropertyOp11
 70
     1
102
RTVSPropertyOp12
 70
     1
102
RTVSPropertyOp13
 70
     1
102
RTVSPropertyOp14
 70
     1
102
RTVSPropertyOp15
 70
     1
102
RTVSPropertyOp16
 70
     1
102
RTVSPropertyOp17
 70
     1
102
RTVSPropertyOp18
 70
     1
102
RTVSPropertyOp19
 70
     1
102
RTVSPropertyOp20
 70
     1
102
RTVSPropertyOp21
 70
     1
102
RTVSPropertyOp22
 70
     1
102
RTVSPropertyOp23
 70
     1
102
RTVSPropertyOp24
 70
     1
102
RTVSPropertyOp25
 70
     1
102
RTVSPropertyOp26
 70
     1
102
RTVSPropertyOp27
 70
     1
102
RTVSPropertyOp28
 70
     1
102
RTVSPropertyOp29
 70
     1
102
RTVSPropertyOp30
 70
     1
102
RTVSPropertyOp31
 70
     1
102
RTVSPropertyOp32
 70
     1
102
RTVSPropertyOp33
 70
     1
102
RTVSPropertyOp34
 70
     1
102
RTVSPropertyOp35
 70
     1
102
RTVSPropertyOp36
 70
     1
102
RTVSPropertyOp37
 70
     1
102
RTVSPropertyOp38
 70
     1
102
RTVSPropertyOp39
 70
     1
102
RTVSPropertyOp40
 70
     1
102
RTVSPropertyOp41
 70
     1
102
RTVSPropertyOp42
 70
     1
102
RTVSPropertyOp43
 70
     1
102
RTVSPropertyOp44
 70
     1
102
RTVSPropertyOp45
 70
     1
102
RTVSPropertyOp46
 70
     1
102
RTVSPropertyOp47
 70
     1
102
RTVSPropertyOp48
 70
     1
102
RTVSPropertyOp49
 70
     1
102
RTVSPropertyOp50
 70
     1
102
RTVSPropertyOp51
 70
     0
102
RTVSPropertyOp52
 70
     0
102
RTVSPropertyOp53
 70
     1
102
RTVSPropertyOp54
 70
     1
102
RTVSPropertyOp55
 70
     1
102
RTVSPropertyOp56
 70
     1
102
RTVSPropertyOp57
 70
     1
102
RTVSPost2010Prop28
280
     1
102
RTVSPost2010PropOp28
 70
     1
102
RTVSPost2010Prop29
280
     1
102
RTVSPost2010PropOp29
 70
     1
102
RTVSPost2010Prop30
280
     0
102
RTVSPost2010PropOp30
 70
     1
102
RTVSPost2010Prop31
280
     0
102
RTVSPost2010PropOp31
 70
     1
102
RTVSPost2010Prop32
280
     0
102
RTVSPost2010PropOp32
 70
     1
102
RTVSPost2010Prop33
280
     0
102
RTVSPost2010PropOp33
 70
     1
102
RTVSPost2010Prop34
280
     0
102
RTVSPost2010PropOp34
 70
     1
102
RTVSPost2010Prop35
280
     0
102
RTVSPost2010PropOp35
 70
     1
102
RTVSPost2010Prop36
280
     0
102
RTVSPost2010PropOp36
 70
     1
102
RTVSPost2010Prop37
 90
       50
102
RTVSPost2010PropOp37
 70
     1
102
RTVSPost2010Prop38
140
0.0
102
RTVSPost2010PropOp38
 70
     1
102
RTVSPost2010Prop39
140
1.0
102
RTVSPost2010PropOp39
 70
     1
102
RTVSPost2010Prop40
 90
        0
102
RTVSPost2010PropOp40
 70
     1
102
RTVSPost2010Prop41ColorIndex
 90
       18
102
RTVSPost2010Prop41ColorRGB
 90
        0
102
RTVSPost2010PropOp41
 70
     1
102
RTVSPost2010Prop42
 90
       50
102
RTVSPost2010PropOp42
 70
     1
102
RTVSPost2010Prop43
 90
        3
102
RTVSPost2010PropOp43
 70
     1
102
RTVSPost2010Prop44ColorIndex
 90
        5
102
RTVSPost2010Prop44ColorRGB
 90
      255
102
RTVSPost2010PropOp44
 70
     1
102
RTVSPost2010Prop45
280
     0
102
RTVSPost2010PropOp45
 70
     1
102
RTVSPost2010Prop46
 90
       50
102
RTVSPost2010PropOp46
 70
     1
102
RTVSPost2010Prop47
 90
       50
102
RTVSPost2010PropOp47
 70
     1
102
RTVSPost2010Prop48
 90
       50
102
RTVSPost2010PropOp48
 70
     1
102
RTVSPost2010Prop49
280
     0
102
RTVSPost2010PropOp49
 70
     1
102
RTVSPost2010Prop50
 90
       50
102
RTVSPost2010PropOp50
 70
     1
102
RTVSPost2010Prop51ColorIndex
 90
      256
102
RTVSPost2010Prop51ColorRGB
 90
-16777216
102
RTVSPost2010PropOp51
 70
     0
102
RTVSPost2010Prop52
140
1.0
102
RTVSPost2010PropOp52
 70
     0
102
RTVSPost2010Prop53
 90
        2
102
RTVSPost2010PropOp53
 70
     1
102
RTVSPost2010Prop54
  1
strokes_ogs.tif
102
RTVSPost2010PropOp54
 70
     1
102
RTVSPost2010Prop55
280
     0
102
RTVSPost2010PropOp55
 70
     1
102
RTVSPost2010Prop56
140
1.0
102
RTVSPost2010PropOp56
 70
     1
102
RTVSPost2010Prop57
140
1.0
102
RTVSPost2010PropOp57
 70
     1
  0
XRECORD
  5
389
102
{ACAD_REACTORS
330
388
102
}
330
388
100
AcDbXrecord
280
     1
102
RTVSPropertyOp0
 70
     1
102
RTVSPropertyOp1
 70
     1
102
RTVSPropertyOp2
 70
     1
102
RTVSPropertyOp3
 70
     1
102
RTVSPropertyOp4
 70
     1
102
RTVSPropertyOp5
 70
     1
102
RTVSPropertyOp6
 70
     1
102
RTVSPropertyOp7
 70
     1
102
RTVSPropertyOp8
 70
     1
102
RTVSPropertyOp9
 70
     1
102
RTVSPropertyOp10
 70
     1
102
RTVSPropertyOp11
 70
     1
102
RTVSPropertyOp12
 70
     1
102
RTVSPropertyOp13
 70
     1
102
RTVSPropertyOp14
 70
     1
102
RTVSPropertyOp15
 70
     1
102
RTVSPropertyOp16
 70
     1
102
RTVSPropertyOp17
 70
     1
102
RTVSPropertyOp18
 70
     1
102
RTVSPropertyOp19
 70
     1
102
RTVSPropertyOp20
 70
     1
102
RTVSPropertyOp21
 70
     1
102
RTVSPropertyOp22
 70
     1
102
RTVSPropertyOp23
 70
     1
102
RTVSPropertyOp24
 70
     1
102
RTVSPropertyOp25
 70
     1
102
RTVSPropertyOp26
 70
     1
102
RTVSPropertyOp27
 70
     1
102
RTVSPropertyOp28
 70
     1
102
RTVSPropertyOp29
 70
     1
102
RTVSPropertyOp30
 70
     1
102
RTVSPropertyOp31
 70
     1
102
RTVSPropertyOp32
 70
     1
102
RTVSPropertyOp33
 70
     1
102
RTVSPropertyOp34
 70
     1
102
RTVSPropertyOp35
 70
     1
102
RTVSPropertyOp36
 70
     1
102
RTVSPropertyOp37
 70
     1
102
RTVSPropertyOp38
 70
     1
102
RTVSPropertyOp39
 70
     1
102
RTVSPropertyOp40
 70
     1
102
RTVSPropertyOp41
 70
     1
102
RTVSPropertyOp42
 70
     1
102
RTVSPropertyOp43
 70
     1
102
RTVSPropertyOp44
 70
     1
102
RTVSPropertyOp45
 70
     1
102
RTVSPropertyOp46
 70
     1
102
RTVSPropertyOp47
 70
     1
102
RTVSPropertyOp48
 70
     1
102
RTVSPropertyOp49
 70
     1
102
RTVSPropertyOp50
 70
     1
102
RTVSPropertyOp51
 70
     0
102
RTVSPropertyOp52
 70
     0
102
RTVSPropertyOp53
 70
     1
102
RTVSPropertyOp54
 70
     1
102
RTVSPropertyOp55
 70
     1
102
RTVSPropertyOp56
 70
     1
102
RTVSPropertyOp57
 70
     1
102
RTVSPost2010Prop28
280
     0
102
RTVSPost2010PropOp28
 70
     1
102
RTVSPost2010Prop29
280
     1
102
RTVSPost2010PropOp29
 70
     1
102
RTVSPost2010Prop30
280
     1
102
RTVSPost2010PropOp30
 70
     1
102
RTVSPost2010Prop31
280
     0
102
RTVSPost2010PropOp31
 70
     1
102
RTVSPost2010Prop32
280
     0
102
RTVSPost2010PropOp32
 70
     1
102
RTVSPost2010Prop33
280
     0
102
RTVSPost2010PropOp33
 70
     1
102
RTVSPost2010Prop34
280
     0
102
RTVSPost2010PropOp34
 70
     1
102
RTVSPost2010Prop35
280
     0
102
RTVSPost2010PropOp35
 70
     1
102
RTVSPost2010Prop36
280
     0
102
RTVSPost2010PropOp36
 70
     1
102
RTVSPost2010Prop37
 90
       50
102
RTVSPost2010PropOp37
 70
     1
102
RTVSPost2010Prop38
140
0.0
102
RTVSPost2010PropOp38
 70
     1
102
RTVSPost2010Prop39
140
1.0
102
RTVSPost2010PropOp39
 70
     1
102
RTVSPost2010Prop40
 90
        0
102
RTVSPost2010PropOp40
 70
     1
102
RTVSPost2010Prop41ColorIndex
 90
       18
102
RTVSPost2010Prop41ColorRGB
 90
        0
102
RTVSPost2010PropOp41
 70
     1
102
RTVSPost2010Prop42
 90
       50
102
RTVSPost2010PropOp42
 70
     1
102
RTVSPost2010Prop43
 90
        3
102
RTVSPost2010PropOp43
 70
     1
102
RTVSPost2010Prop44ColorIndex
 90
        5
102
RTVSPost2010Prop44ColorRGB
 90
      255
102
RTVSPost2010PropOp44
 70
     1
102
RTVSPost2010Prop45
280
     0
102
RTVSPost2010PropOp45
 70
     1
102
RTVSPost2010Prop46
 90
       50
102
RTVSPost2010PropOp46
 70
     1
102
RTVSPost2010Prop47
 90
       50
102
RTVSPost2010PropOp47
 70
     1
102
RTVSPost2010Prop48
 90
       50
102
RTVSPost2010PropOp48
 70
     1
102
RTVSPost2010Prop49
280
     0
102
RTVSPost2010PropOp49
 70
     1
102
RTVSPost2010Prop50
 90
       50
102
RTVSPost2010PropOp50
 70
     1
102
RTVSPost2010Prop51ColorIndex
 90
      256
102
RTVSPost2010Prop51ColorRGB
 90
-16777216
102
RTVSPost2010PropOp51
 70
     0
102
RTVSPost2010Prop52
140
1.0
102
RTVSPost2010PropOp52
 70
     0
102
RTVSPost2010Prop53
 90
        2
102
RTVSPost2010PropOp53
 70
     1
102
RTVSPost2010Prop54
  1
strokes_ogs.tif
102
RTVSPost2010PropOp54
 70
     1
102
RTVSPost2010Prop55
280
     0
102
RTVSPost2010PropOp55
 70
     1
102
RTVSPost2010Prop56
140
1.0
102
RTVSPost2010PropOp56
 70
     1
102
RTVSPost2010Prop57
140
1.0
102
RTVSPost2010PropOp57
 70
     1
  0
XRECORD
  5
391
102
{ACAD_REACTORS
330
390
102
}
330
390
100
AcDbXrecord
280
     1
102
RTVSPropertyOp0
 70
     1
102
RTVSPropertyOp1
 70
     1
102
RTVSPropertyOp2
 70
     1
102
RTVSPropertyOp3
 70
     1
102
RTVSPropertyOp4
 70
     1
102
RTVSPropertyOp5
 70
     1
102
RTVSPropertyOp6
 70
     1
102
RTVSPropertyOp7
 70
     1
102
RTVSPropertyOp8
 70
     1
102
RTVSPropertyOp9
 70
     1
102
RTVSPropertyOp10
 70
     1
102
RTVSPropertyOp11
 70
     1
102
RTVSPropertyOp12
 70
     1
102
RTVSPropertyOp13
 70
     1
102
RTVSPropertyOp14
 70
     1
102
RTVSPropertyOp15
 70
     1
102
RTVSPropertyOp16
 70
     1
102
RTVSPropertyOp17
 70
     1
102
RTVSPropertyOp18
 70
     1
102
RTVSPropertyOp19
 70
     1
102
RTVSPropertyOp20
 70
     1
102
RTVSPropertyOp21
 70
     1
102
RTVSPropertyOp22
 70
     1
102
RTVSPropertyOp23
 70
     1
102
RTVSPropertyOp24
 70
     1
102
RTVSPropertyOp25
 70
     1
102
RTVSPropertyOp26
 70
     1
102
RTVSPropertyOp27
 70
     1
102
RTVSPropertyOp28
 70
     1
102
RTVSPropertyOp29
 70
     1
102
RTVSPropertyOp30
 70
     1
102
RTVSPropertyOp31
 70
     1
102
RTVSPropertyOp32
 70
     1
102
RTVSPropertyOp33
 70
     1
102
RTVSPropertyOp34
 70
     1
102
RTVSPropertyOp35
 70
     1
102
RTVSPropertyOp36
 70
     1
102
RTVSPropertyOp37
 70
     1
102
RTVSPropertyOp38
 70
     1
102
RTVSPropertyOp39
 70
     1
102
RTVSPropertyOp40
 70
     1
102
RTVSPropertyOp41
 70
     1
102
RTVSPropertyOp42
 70
     1
102
RTVSPropertyOp43
 70
     1
102
RTVSPropertyOp44
 70
     1
102
RTVSPropertyOp45
 70
     1
102
RTVSPropertyOp46
 70
     1
102
RTVSPropertyOp47
 70
     1
102
RTVSPropertyOp48
 70
     1
102
RTVSPropertyOp49
 70
     1
102
RTVSPropertyOp50
 70
     1
102
RTVSPropertyOp51
 70
     0
102
RTVSPropertyOp52
 70
     0
102
RTVSPropertyOp53
 70
     1
102
RTVSPropertyOp54
 70
     1
102
RTVSPropertyOp55
 70
     1
102
RTVSPropertyOp56
 70
     1
102
RTVSPropertyOp57
 70
     1
102
RTVSPost2010Prop28
280
     0
102
RTVSPost2010PropOp28
 70
     1
102
RTVSPost2010Prop29
280
     1
102
RTVSPost2010PropOp29
 70
     1
102
RTVSPost2010Prop30
280
     1
102
RTVSPost2010PropOp30
 70
     1
102
RTVSPost2010Prop31
280
     0
102
RTVSPost2010PropOp31
 70
     1
102
RTVSPost2010Prop32
280
     0
102
RTVSPost2010PropOp32
 70
     1
102
RTVSPost2010Prop33
280
     0
102
RTVSPost2010PropOp33
 70
     1
102
RTVSPost2010Prop34
280
     0
102
RTVSPost2010PropOp34
 70
     1
102
RTVSPost2010Prop35
280
     0
102
RTVSPost2010PropOp35
 70
     1
102
RTVSPost2010Prop36
280
     0
102
RTVSPost2010PropOp36
 70
     1
102
RTVSPost2010Prop37
 90
       50
102
RTVSPost2010PropOp37
 70
     1
102
RTVSPost2010Prop38
140
0.0
102
RTVSPost2010PropOp38
 70
     1
102
RTVSPost2010Prop39
140
1.0
102
RTVSPost2010PropOp39
 70
     1
102
RTVSPost2010Prop40
 90
        0
102
RTVSPost2010PropOp40
 70
     1
102
RTVSPost2010Prop41ColorIndex
 90
       18
102
RTVSPost2010Prop41ColorRGB
 90
        0
102
RTVSPost2010PropOp41
 70
     1
102
RTVSPost2010Prop42
 90
       50
102
RTVSPost2010PropOp42
 70
     1
102
RTVSPost2010Prop43
 90
        3
102
RTVSPost2010PropOp43
 70
     1
102
RTVSPost2010Prop44ColorIndex
 90
        5
102
RTVSPost2010Prop44ColorRGB
 90
      255
102
RTVSPost2010PropOp44
 70
     1
102
RTVSPost2010Prop45
280
     0
102
RTVSPost2010PropOp45
 70
     1
102
RTVSPost2010Prop46
 90
       50
102
RTVSPost2010PropOp46
 70
     1
102
RTVSPost2010Prop47
 90
       50
102
RTVSPost2010PropOp47
 70
     1
102
RTVSPost2010Prop48
 90
       50
102
RTVSPost2010PropOp48
 70
     1
102
RTVSPost2010Prop49
280
     0
102
RTVSPost2010PropOp49
 70
     1
102
RTVSPost2010Prop50
 90
       50
102
RTVSPost2010PropOp50
 70
     1
102
RTVSPost2010Prop51ColorIndex
 90
      256
102
RTVSPost2010Prop51ColorRGB
 90
-16777216
102
RTVSPost2010PropOp51
 70
     0
102
RTVSPost2010Prop52
140
1.0
102
RTVSPost2010PropOp52
 70
     0
102
RTVSPost2010Prop53
 90
        2
102
RTVSPost2010PropOp53
 70
     1
102
RTVSPost2010Prop54
  1
strokes_ogs.tif
102
RTVSPost2010PropOp54
 70
     1
102
RTVSPost2010Prop55
280
     0
102
RTVSPost2010PropOp55
 70
     1
102
RTVSPost2010Prop56
140
1.0
102
RTVSPost2010PropOp56
 70
     1
102
RTVSPost2010Prop57
140
1.0
102
RTVSPost2010PropOp57
 70
     1
  0
XRECORD
  5
399
102
{ACAD_REACTORS
330
398
102
}
330
398
100
AcDbXrecord
280
     1
102
RTVSPropertyOp0
 70
     1
102
RTVSPropertyOp1
 70
     1
102
RTVSPropertyOp2
 70
     1
102
RTVSPropertyOp3
 70
     1
102
RTVSPropertyOp4
 70
     1
102
RTVSPropertyOp5
 70
     1
102
RTVSPropertyOp6
 70
     1
102
RTVSPropertyOp7
 70
     1
102
RTVSPropertyOp8
 70
     1
102
RTVSPropertyOp9
 70
     1
102
RTVSPropertyOp10
 70
     1
102
RTVSPropertyOp11
 70
     1
102
RTVSPropertyOp12
 70
     1
102
RTVSPropertyOp13
 70
     1
102
RTVSPropertyOp14
 70
     1
102
RTVSPropertyOp15
 70
     1
102
RTVSPropertyOp16
 70
     1
102
RTVSPropertyOp17
 70
     1
102
RTVSPropertyOp18
 70
     1
102
RTVSPropertyOp19
 70
     1
102
RTVSPropertyOp20
 70
     1
102
RTVSPropertyOp21
 70
     1
102
RTVSPropertyOp22
 70
     1
102
RTVSPropertyOp23
 70
     1
102
RTVSPropertyOp24
 70
     1
102
RTVSPropertyOp25
 70
     1
102
RTVSPropertyOp26
 70
     1
102
RTVSPropertyOp27
 70
     1
102
RTVSPropertyOp28
 70
     1
102
RTVSPropertyOp29
 70
     1
102
RTVSPropertyOp30
 70
     1
102
RTVSPropertyOp31
 70
     1
102
RTVSPropertyOp32
 70
     1
102
RTVSPropertyOp33
 70
     1
102
RTVSPropertyOp34
 70
     1
102
RTVSPropertyOp35
 70
     1
102
RTVSPropertyOp36
 70
     1
102
RTVSPropertyOp37
 70
     1
102
RTVSPropertyOp38
 70
     1
102
RTVSPropertyOp39
 70
     1
102
RTVSPropertyOp40
 70
     1
102
RTVSPropertyOp41
 70
     1
102
RTVSPropertyOp42
 70
     1
102
RTVSPropertyOp43
 70
     1
102
RTVSPropertyOp44
 70
     1
102
RTVSPropertyOp45
 70
     1
102
RTVSPropertyOp46
 70
     1
102
RTVSPropertyOp47
 70
     1
102
RTVSPropertyOp48
 70
     1
102
RTVSPropertyOp49
 70
     1
102
RTVSPropertyOp50
 70
     1
102
RTVSPropertyOp51
 70
     0
102
RTVSPropertyOp52
 70
     0
102
RTVSPropertyOp53
 70
     1
102
RTVSPropertyOp54
 70
     1
102
RTVSPropertyOp55
 70
     1
102
RTVSPropertyOp56
 70
     1
102
RTVSPropertyOp57
 70
     1
102
RTVSPost2010Prop28
280
     0
102
RTVSPost2010PropOp28
 70
     1
102
RTVSPost2010Prop29
280
     1
102
RTVSPost2010PropOp29
 70
     1
102
RTVSPost2010Prop30
280
     1
102
RTVSPost2010PropOp30
 70
     1
102
RTVSPost2010Prop31
280
     0
102
RTVSPost2010PropOp31
 70
     1
102
RTVSPost2010Prop32
280
     0
102
RTVSPost2010PropOp32
 70
     1
102
RTVSPost2010Prop33
280
     0
102
RTVSPost2010PropOp33
 70
     1
102
RTVSPost2010Prop34
280
     0
102
RTVSPost2010PropOp34
 70
     1
102
RTVSPost2010Prop35
280
     0
102
RTVSPost2010PropOp35
 70
     1
102
RTVSPost2010Prop36
280
     0
102
RTVSPost2010PropOp36
 70
     1
102
RTVSPost2010Prop37
 90
       50
102
RTVSPost2010PropOp37
 70
     1
102
RTVSPost2010Prop38
140
0.0
102
RTVSPost2010PropOp38
 70
     1
102
RTVSPost2010Prop39
140
1.0
102
RTVSPost2010PropOp39
 70
     1
102
RTVSPost2010Prop40
 90
        0
102
RTVSPost2010PropOp40
 70
     1
102
RTVSPost2010Prop41ColorIndex
 90
       18
102
RTVSPost2010Prop41ColorRGB
 90
        0
102
RTVSPost2010PropOp41
 70
     1
102
RTVSPost2010Prop42
 90
       50
102
RTVSPost2010PropOp42
 70
     1
102
RTVSPost2010Prop43
 90
        3
102
RTVSPost2010PropOp43
 70
     1
102
RTVSPost2010Prop44ColorIndex
 90
        5
102
RTVSPost2010Prop44ColorRGB
 90
      255
102
RTVSPost2010PropOp44
 70
     1
102
RTVSPost2010Prop45
280
     0
102
RTVSPost2010PropOp45
 70
     1
102
RTVSPost2010Prop46
 90
       50
102
RTVSPost2010PropOp46
 70
     1
102
RTVSPost2010Prop47
 90
       50
102
RTVSPost2010PropOp47
 70
     1
102
RTVSPost2010Prop48
 90
       50
102
RTVSPost2010PropOp48
 70
     1
102
RTVSPost2010Prop49
280
     0
102
RTVSPost2010PropOp49
 70
     1
102
RTVSPost2010Prop50
 90
       50
102
RTVSPost2010PropOp50
 70
     1
102
RTVSPost2010Prop51ColorIndex
 90
      256
102
RTVSPost2010Prop51ColorRGB
 90
-16777216
102
RTVSPost2010PropOp51
 70
     0
102
RTVSPost2010Prop52
140
1.0
102
RTVSPost2010PropOp52
 70
     0
102
RTVSPost2010Prop53
 90
        2
102
RTVSPost2010PropOp53
 70
     1
102
RTVSPost2010Prop54
  1
strokes_ogs.tif
102
RTVSPost2010PropOp54
 70
     1
102
RTVSPost2010Prop55
280
     0
102
RTVSPost2010PropOp55
 70
     1
102
RTVSPost2010Prop56
140
1.0
102
RTVSPost2010PropOp56
 70
     1
102
RTVSPost2010Prop57
140
1.0
102
RTVSPost2010PropOp57
 70
     1
  0
XRECORD
  5
38D
102
{ACAD_REACTORS
330
38C
102
}
330
38C
100
AcDbXrecord
280
     1
102
RTVSPropertyOp0
 70
     1
102
RTVSPropertyOp1
 70
     1
102
RTVSPropertyOp2
 70
     1
102
RTVSPropertyOp3
 70
     1
102
RTVSPropertyOp4
 70
     1
102
RTVSPropertyOp5
 70
     1
102
RTVSPropertyOp6
 70
     1
102
RTVSPropertyOp7
 70
     1
102
RTVSPropertyOp8
 70
     1
102
RTVSPropertyOp9
 70
     1
102
RTVSPropertyOp10
 70
     1
102
RTVSPropertyOp11
 70
     1
102
RTVSPropertyOp12
 70
     1
102
RTVSPropertyOp13
 70
     1
102
RTVSPropertyOp14
 70
     1
102
RTVSPropertyOp15
 70
     1
102
RTVSPropertyOp16
 70
     1
102
RTVSPropertyOp17
 70
     1
102
RTVSPropertyOp18
 70
     1
102
RTVSPropertyOp19
 70
     1
102
RTVSPropertyOp20
 70
     1
102
RTVSPropertyOp21
 70
     1
102
RTVSPropertyOp22
 70
     1
102
RTVSPropertyOp23
 70
     1
102
RTVSPropertyOp24
 70
     1
102
RTVSPropertyOp25
 70
     1
102
RTVSPropertyOp26
 70
     1
102
RTVSPropertyOp27
 70
     1
102
RTVSPropertyOp28
 70
     1
102
RTVSPropertyOp29
 70
     1
102
RTVSPropertyOp30
 70
     1
102
RTVSPropertyOp31
 70
     1
102
RTVSPropertyOp32
 70
     1
102
RTVSPropertyOp33
 70
     1
102
RTVSPropertyOp34
 70
     1
102
RTVSPropertyOp35
 70
     1
102
RTVSPropertyOp36
 70
     1
102
RTVSPropertyOp37
 70
     1
102
RTVSPropertyOp38
 70
     1
102
RTVSPropertyOp39
 70
     1
102
RTVSPropertyOp40
 70
     1
102
RTVSPropertyOp41
 70
     1
102
RTVSPropertyOp42
 70
     1
102
RTVSPropertyOp43
 70
     1
102
RTVSPropertyOp44
 70
     1
102
RTVSPropertyOp45
 70
     1
102
RTVSPropertyOp46
 70
     1
102
RTVSPropertyOp47
 70
     1
102
RTVSPropertyOp48
 70
     1
102
RTVSPropertyOp49
 70
     1
102
RTVSPropertyOp50
 70
     1
102
RTVSPropertyOp51
 70
     0
102
RTVSPropertyOp52
 70
     0
102
RTVSPropertyOp53
 70
     1
102
RTVSPropertyOp54
 70
     1
102
RTVSPropertyOp55
 70
     1
102
RTVSPropertyOp56
 70
     1
102
RTVSPropertyOp57
 70
     1
102
RTVSPost2010Prop28
280
     0
102
RTVSPost2010PropOp28
 70
     1
102
RTVSPost2010Prop29
280
     1
102
RTVSPost2010PropOp29
 70
     1
102
RTVSPost2010Prop30
280
     1
102
RTVSPost2010PropOp30
 70
     1
102
RTVSPost2010Prop31
280
     0
102
RTVSPost2010PropOp31
 70
     1
102
RTVSPost2010Prop32
280
     0
102
RTVSPost2010PropOp32
 70
     1
102
RTVSPost2010Prop33
280
     0
102
RTVSPost2010PropOp33
 70
     1
102
RTVSPost2010Prop34
280
     0
102
RTVSPost2010PropOp34
 70
     1
102
RTVSPost2010Prop35
280
     0
102
RTVSPost2010PropOp35
 70
     1
102
RTVSPost2010Prop36
280
     0
102
RTVSPost2010PropOp36
 70
     1
102
RTVSPost2010Prop37
 90
       50
102
RTVSPost2010PropOp37
 70
     1
102
RTVSPost2010Prop38
140
0.0
102
RTVSPost2010PropOp38
 70
     1
102
RTVSPost2010Prop39
140
1.0
102
RTVSPost2010PropOp39
 70
     1
102
RTVSPost2010Prop40
 90
        0
102
RTVSPost2010PropOp40
 70
     1
102
RTVSPost2010Prop41ColorIndex
 90
       18
102
RTVSPost2010Prop41ColorRGB
 90
        0
102
RTVSPost2010PropOp41
 70
     1
102
RTVSPost2010Prop42
 90
       50
102
RTVSPost2010PropOp42
 70
     1
102
RTVSPost2010Prop43
 90
        3
102
RTVSPost2010PropOp43
 70
     1
102
RTVSPost2010Prop44ColorIndex
 90
        5
102
RTVSPost2010Prop44ColorRGB
 90
      255
102
RTVSPost2010PropOp44
 70
     1
102
RTVSPost2010Prop45
280
     0
102
RTVSPost2010PropOp45
 70
     1
102
RTVSPost2010Prop46
 90
       50
102
RTVSPost2010PropOp46
 70
     1
102
RTVSPost2010Prop47
 90
       50
102
RTVSPost2010PropOp47
 70
     1
102
RTVSPost2010Prop48
 90
       50
102
RTVSPost2010PropOp48
 70
     1
102
RTVSPost2010Prop49
280
     0
102
RTVSPost2010PropOp49
 70
     1
102
RTVSPost2010Prop50
 90
       50
102
RTVSPost2010PropOp50
 70
     1
102
RTVSPost2010Prop51ColorIndex
 90
      256
102
RTVSPost2010Prop51ColorRGB
 90
-16777216
102
RTVSPost2010PropOp51
 70
     0
102
RTVSPost2010Prop52
140
1.0
102
RTVSPost2010PropOp52
 70
     0
102
RTVSPost2010Prop53
 90
        2
102
RTVSPost2010PropOp53
 70
     1
102
RTVSPost2010Prop54
  1
strokes_ogs.tif
102
RTVSPost2010PropOp54
 70
     1
102
RTVSPost2010Prop55
280
     0
102
RTVSPost2010PropOp55
 70
     1
102
RTVSPost2010Prop56
140
1.0
102
RTVSPost2010PropOp56
 70
     1
102
RTVSPost2010Prop57
140
1.0
102
RTVSPost2010PropOp57
 70
     1
  0
XRECORD
  5
38F
102
{ACAD_REACTORS
330
38E
102
}
330
38E
100
AcDbXrecord
280
     1
102
RTVSPropertyOp0
 70
     1
102
RTVSPropertyOp1
 70
     1
102
RTVSPropertyOp2
 70
     1
102
RTVSPropertyOp3
 70
     1
102
RTVSPropertyOp4
 70
     1
102
RTVSPropertyOp5
 70
     1
102
RTVSPropertyOp6
 70
     1
102
RTVSPropertyOp7
 70
     1
102
RTVSPropertyOp8
 70
     1
102
RTVSPropertyOp9
 70
     1
102
RTVSPropertyOp10
 70
     1
102
RTVSPropertyOp11
 70
     1
102
RTVSPropertyOp12
 70
     1
102
RTVSPropertyOp13
 70
     1
102
RTVSPropertyOp14
 70
     1
102
RTVSPropertyOp15
 70
     1
102
RTVSPropertyOp16
 70
     1
102
RTVSPropertyOp17
 70
     1
102
RTVSPropertyOp18
 70
     1
102
RTVSPropertyOp19
 70
     1
102
RTVSPropertyOp20
 70
     1
102
RTVSPropertyOp21
 70
     1
102
RTVSPropertyOp22
 70
     1
102
RTVSPropertyOp23
 70
     1
102
RTVSPropertyOp24
 70
     1
102
RTVSPropertyOp25
 70
     1
102
RTVSPropertyOp26
 70
     1
102
RTVSPropertyOp27
 70
     1
102
RTVSPropertyOp28
 70
     1
102
RTVSPropertyOp29
 70
     1
102
RTVSPropertyOp30
 70
     1
102
RTVSPropertyOp31
 70
     1
102
RTVSPropertyOp32
 70
     1
102
RTVSPropertyOp33
 70
     1
102
RTVSPropertyOp34
 70
     1
102
RTVSPropertyOp35
 70
     1
102
RTVSPropertyOp36
 70
     1
102
RTVSPropertyOp37
 70
     1
102
RTVSPropertyOp38
 70
     1
102
RTVSPropertyOp39
 70
     1
102
RTVSPropertyOp40
 70
     1
102
RTVSPropertyOp41
 70
     1
102
RTVSPropertyOp42
 70
     1
102
RTVSPropertyOp43
 70
     1
102
RTVSPropertyOp44
 70
     1
102
RTVSPropertyOp45
 70
     1
102
RTVSPropertyOp46
 70
     1
102
RTVSPropertyOp47
 70
     1
102
RTVSPropertyOp48
 70
     1
102
RTVSPropertyOp49
 70
     1
102
RTVSPropertyOp50
 70
     1
102
RTVSPropertyOp51
 70
     0
102
RTVSPropertyOp52
 70
     0
102
RTVSPropertyOp53
 70
     1
102
RTVSPropertyOp54
 70
     1
102
RTVSPropertyOp55
 70
     1
102
RTVSPropertyOp56
 70
     1
102
RTVSPropertyOp57
 70
     1
102
RTVSPost2010Prop28
280
     0
102
RTVSPost2010PropOp28
 70
     1
102
RTVSPost2010Prop29
280
     1
102
RTVSPost2010PropOp29
 70
     1
102
RTVSPost2010Prop30
280
     1
102
RTVSPost2010PropOp30
 70
     1
102
RTVSPost2010Prop31
280
     0
102
RTVSPost2010PropOp31
 70
     1
102
RTVSPost2010Prop32
280
     0
102
RTVSPost2010PropOp32
 70
     1
102
RTVSPost2010Prop33
280
     0
102
RTVSPost2010PropOp33
 70
     1
102
RTVSPost2010Prop34
280
     0
102
RTVSPost2010PropOp34
 70
     1
102
RTVSPost2010Prop35
280
     0
102
RTVSPost2010PropOp35
 70
     1
102
RTVSPost2010Prop36
280
     0
102
RTVSPost2010PropOp36
 70
     1
102
RTVSPost2010Prop37
 90
       50
102
RTVSPost2010PropOp37
 70
     1
102
RTVSPost2010Prop38
140
0.0
102
RTVSPost2010PropOp38
 70
     1
102
RTVSPost2010Prop39
140
1.0
102
RTVSPost2010PropOp39
 70
     1
102
RTVSPost2010Prop40
 90
        0
102
RTVSPost2010PropOp40
 70
     1
102
RTVSPost2010Prop41ColorIndex
 90
       18
102
RTVSPost2010Prop41ColorRGB
 90
        0
102
RTVSPost2010PropOp41
 70
     1
102
RTVSPost2010Prop42
 90
       50
102
RTVSPost2010PropOp42
 70
     1
102
RTVSPost2010Prop43
 90
        3
102
RTVSPost2010PropOp43
 70
     1
102
RTVSPost2010Prop44ColorIndex
 90
        5
102
RTVSPost2010Prop44ColorRGB
 90
      255
102
RTVSPost2010PropOp44
 70
     1
102
RTVSPost2010Prop45
280
     0
102
RTVSPost2010PropOp45
 70
     1
102
RTVSPost2010Prop46
 90
       50
102
RTVSPost2010PropOp46
 70
     1
102
RTVSPost2010Prop47
 90
       50
102
RTVSPost2010PropOp47
 70
     1
102
RTVSPost2010Prop48
 90
       50
102
RTVSPost2010PropOp48
 70
     1
102
RTVSPost2010Prop49
280
     0
102
RTVSPost2010PropOp49
 70
     1
102
RTVSPost2010Prop50
 90
       50
102
RTVSPost2010PropOp50
 70
     1
102
RTVSPost2010Prop51ColorIndex
 90
      256
102
RTVSPost2010Prop51ColorRGB
 90
-16777216
102
RTVSPost2010PropOp51
 70
     0
102
RTVSPost2010Prop52
140
1.0
102
RTVSPost2010PropOp52
 70
     0
102
RTVSPost2010Prop53
 90
        2
102
RTVSPost2010PropOp53
 70
     1
102
RTVSPost2010Prop54
  1
strokes_ogs.tif
102
RTVSPost2010PropOp54
 70
     1
102
RTVSPost2010Prop55
280
     0
102
RTVSPost2010PropOp55
 70
     1
102
RTVSPost2010Prop56
140
1.0
102
RTVSPost2010PropOp56
 70
     1
102
RTVSPost2010Prop57
140
1.0
102
RTVSPost2010PropOp57
 70
     1
  0
XRECORD
  5
39F
102
{ACAD_REACTORS
330
39E
102
}
330
39E
100
AcDbXrecord
280
     1
102
RTVSPropertyOp0
 70
     0
102
RTVSPropertyOp1
 70
     0
102
RTVSPropertyOp2
 70
     0
102
RTVSPropertyOp3
 70
     0
102
RTVSPropertyOp4
 70
     0
102
RTVSPropertyOp5
 70
     0
102
RTVSPropertyOp6
 70
     0
102
RTVSPropertyOp7
 70
     0
102
RTVSPropertyOp8
 70
     0
102
RTVSPropertyOp9
 70
     0
102
RTVSPropertyOp10
 70
     0
102
RTVSPropertyOp11
 70
     0
102
RTVSPropertyOp12
 70
     0
102
RTVSPropertyOp13
 70
     0
102
RTVSPropertyOp14
 70
     2
102
RTVSPropertyOp15
 70
     0
102
RTVSPropertyOp16
 70
     0
102
RTVSPropertyOp17
 70
     0
102
RTVSPropertyOp18
 70
     0
102
RTVSPropertyOp19
 70
     0
102
RTVSPropertyOp20
 70
     0
102
RTVSPropertyOp21
 70
     0
102
RTVSPropertyOp22
 70
     0
102
RTVSPropertyOp23
 70
     0
102
RTVSPropertyOp24
 70
     0
102
RTVSPropertyOp25
 70
     0
102
RTVSPropertyOp26
 70
     0
102
RTVSPropertyOp27
 70
     0
102
RTVSPropertyOp28
 70
     0
102
RTVSPropertyOp29
 70
     0
102
RTVSPropertyOp30
 70
     0
102
RTVSPropertyOp31
 70
     0
102
RTVSPropertyOp32
 70
     0
102
RTVSPropertyOp33
 70
     0
102
RTVSPropertyOp34
 70
     0
102
RTVSPropertyOp35
 70
     0
102
RTVSPropertyOp36
 70
     0
102
RTVSPropertyOp37
 70
     0
102
RTVSPropertyOp38
 70
     0
102
RTVSPropertyOp39
 70
     0
102
RTVSPropertyOp40
 70
     0
102
RTVSPropertyOp41
 70
     0
102
RTVSPropertyOp42
 70
     0
102
RTVSPropertyOp43
 70
     0
102
RTVSPropertyOp44
 70
     0
102
RTVSPropertyOp45
 70
     0
102
RTVSPropertyOp46
 70
     0
102
RTVSPropertyOp47
 70
     0
102
RTVSPropertyOp48
 70
     0
102
RTVSPropertyOp49
 70
     0
102
RTVSPropertyOp50
 70
     0
102
RTVSPropertyOp51
 70
     0
102
RTVSPropertyOp52
 70
     0
102
RTVSPropertyOp53
 70
     0
102
RTVSPropertyOp54
 70
     0
102
RTVSPropertyOp55
 70
     0
102
RTVSPropertyOp56
 70
     0
102
RTVSPropertyOp57
 70
     0
102
RTVSPost2010Prop28
280
     0
102
RTVSPost2010PropOp28
 70
     0
102
RTVSPost2010Prop29
280
     1
102
RTVSPost2010PropOp29
 70
     0
102
RTVSPost2010Prop30
280
     1
102
RTVSPost2010PropOp30
 70
     0
102
RTVSPost2010Prop31
280
     0
102
RTVSPost2010PropOp31
 70
     0
102
RTVSPost2010Prop32
280
     0
102
RTVSPost2010PropOp32
 70
     0
102
RTVSPost2010Prop33
280
     0
102
RTVSPost2010PropOp33
 70
     0
102
RTVSPost2010Prop34
280
     0
102
RTVSPost2010PropOp34
 70
     0
102
RTVSPost2010Prop35
280
     0
102
RTVSPost2010PropOp35
 70
     0
102
RTVSPost2010Prop36
280
     0
102
RTVSPost2010PropOp36
 70
     0
102
RTVSPost2010Prop37
 90
       50
102
RTVSPost2010PropOp37
 70
     0
102
RTVSPost2010Prop38
140
0.0
102
RTVSPost2010PropOp38
 70
     0
102
RTVSPost2010Prop39
140
1.0
102
RTVSPost2010PropOp39
 70
     0
102
RTVSPost2010Prop40
 90
        0
102
RTVSPost2010PropOp40
 70
     0
102
RTVSPost2010Prop41ColorIndex
 90
       18
102
RTVSPost2010Prop41ColorRGB
 90
        0
102
RTVSPost2010PropOp41
 70
     0
102
RTVSPost2010Prop42
 90
       50
102
RTVSPost2010PropOp42
 70
     0
102
RTVSPost2010Prop43
 90
        3
102
RTVSPost2010PropOp43
 70
     0
102
RTVSPost2010Prop44ColorIndex
 90
        5
102
RTVSPost2010Prop44ColorRGB
 90
      255
102
RTVSPost2010PropOp44
 70
     0
102
RTVSPost2010Prop45
280
     0
102
RTVSPost2010PropOp45
 70
     0
102
RTVSPost2010Prop46
 90
       50
102
RTVSPost2010PropOp46
 70
     0
102
RTVSPost2010Prop47
 90
       50
102
RTVSPost2010PropOp47
 70
     0
102
RTVSPost2010Prop48
 90
       50
102
RTVSPost2010PropOp48
 70
     0
102
RTVSPost2010Prop49
280
     0
102
RTVSPost2010PropOp49
 70
     0
102
RTVSPost2010Prop50
 90
       50
102
RTVSPost2010PropOp50
 70
     0
102
RTVSPost2010Prop51ColorIndex
 90
      256
102
RTVSPost2010Prop51ColorRGB
 90
-16777216
102
RTVSPost2010PropOp51
 70
     0
102
RTVSPost2010Prop52
140
1.0
102
RTVSPost2010PropOp52
 70
     0
102
RTVSPost2010Prop53
 90
        2
102
RTVSPost2010PropOp53
 70
     0
102
RTVSPost2010Prop54
  1
strokes_ogs.tif
102
RTVSPost2010PropOp54
 70
     0
102
RTVSPost2010Prop55
280
     0
102
RTVSPost2010PropOp55
 70
     0
102
RTVSPost2010Prop56
140
1.0
102
RTVSPost2010PropOp56
 70
     0
102
RTVSPost2010Prop57
140
1.0
102
RTVSPost2010PropOp57
 70
     0
  0
XRECORD
  5
397
102
{ACAD_REACTORS
330
396
102
}
330
396
100
AcDbXrecord
280
     1
102
RTVSPropertyOp0
 70
     1
102
RTVSPropertyOp1
 70
     1
102
RTVSPropertyOp2
 70
     1
102
RTVSPropertyOp3
 70
     1
102
RTVSPropertyOp4
 70
     1
102
RTVSPropertyOp5
 70
     1
102
RTVSPropertyOp6
 70
     1
102
RTVSPropertyOp7
 70
     1
102
RTVSPropertyOp8
 70
     1
102
RTVSPropertyOp9
 70
     1
102
RTVSPropertyOp10
 70
     1
102
RTVSPropertyOp11
 70
     1
102
RTVSPropertyOp12
 70
     1
102
RTVSPropertyOp13
 70
     1
102
RTVSPropertyOp14
 70
     1
102
RTVSPropertyOp15
 70
     1
102
RTVSPropertyOp16
 70
     1
102
RTVSPropertyOp17
 70
     1
102
RTVSPropertyOp18
 70
     1
102
RTVSPropertyOp19
 70
     1
102
RTVSPropertyOp20
 70
     1
102
RTVSPropertyOp21
 70
     1
102
RTVSPropertyOp22
 70
     1
102
RTVSPropertyOp23
 70
     1
102
RTVSPropertyOp24
 70
     1
102
RTVSPropertyOp25
 70
     1
102
RTVSPropertyOp26
 70
     1
102
RTVSPropertyOp27
 70
     1
102
RTVSPropertyOp28
 70
     1
102
RTVSPropertyOp29
 70
     1
102
RTVSPropertyOp30
 70
     1
102
RTVSPropertyOp31
 70
     1
102
RTVSPropertyOp32
 70
     1
102
RTVSPropertyOp33
 70
     1
102
RTVSPropertyOp34
 70
     1
102
RTVSPropertyOp35
 70
     1
102
RTVSPropertyOp36
 70
     1
102
RTVSPropertyOp37
 70
     1
102
RTVSPropertyOp38
 70
     1
102
RTVSPropertyOp39
 70
     1
102
RTVSPropertyOp40
 70
     1
102
RTVSPropertyOp41
 70
     1
102
RTVSPropertyOp42
 70
     1
102
RTVSPropertyOp43
 70
     1
102
RTVSPropertyOp44
 70
     1
102
RTVSPropertyOp45
 70
     1
102
RTVSPropertyOp46
 70
     1
102
RTVSPropertyOp47
 70
     1
102
RTVSPropertyOp48
 70
     1
102
RTVSPropertyOp49
 70
     1
102
RTVSPropertyOp50
 70
     1
102
RTVSPropertyOp51
 70
     0
102
RTVSPropertyOp52
 70
     0
102
RTVSPropertyOp53
 70
     1
102
RTVSPropertyOp54
 70
     1
102
RTVSPropertyOp55
 70
     1
102
RTVSPropertyOp56
 70
     1
102
RTVSPropertyOp57
 70
     1
102
RTVSPost2010Prop28
280
     0
102
RTVSPost2010PropOp28
 70
     1
102
RTVSPost2010Prop29
280
     1
102
RTVSPost2010PropOp29
 70
     1
102
RTVSPost2010Prop30
280
     1
102
RTVSPost2010PropOp30
 70
     1
102
RTVSPost2010Prop31
280
     0
102
RTVSPost2010PropOp31
 70
     1
102
RTVSPost2010Prop32
280
     0
102
RTVSPost2010PropOp32
 70
     1
102
RTVSPost2010Prop33
280
     0
102
RTVSPost2010PropOp33
 70
     1
102
RTVSPost2010Prop34
280
     0
102
RTVSPost2010PropOp34
 70
     1
102
RTVSPost2010Prop35
280
     0
102
RTVSPost2010PropOp35
 70
     1
102
RTVSPost2010Prop36
280
     0
102
RTVSPost2010PropOp36
 70
     1
102
RTVSPost2010Prop37
 90
       50
102
RTVSPost2010PropOp37
 70
     1
102
RTVSPost2010Prop38
140
0.0
102
RTVSPost2010PropOp38
 70
     1
102
RTVSPost2010Prop39
140
1.0
102
RTVSPost2010PropOp39
 70
     1
102
RTVSPost2010Prop40
 90
        0
102
RTVSPost2010PropOp40
 70
     1
102
RTVSPost2010Prop41ColorIndex
 90
       18
102
RTVSPost2010Prop41ColorRGB
 90
        0
102
RTVSPost2010PropOp41
 70
     1
102
RTVSPost2010Prop42
 90
       50
102
RTVSPost2010PropOp42
 70
     1
102
RTVSPost2010Prop43
 90
        3
102
RTVSPost2010PropOp43
 70
     1
102
RTVSPost2010Prop44ColorIndex
 90
        5
102
RTVSPost2010Prop44ColorRGB
 90
      255
102
RTVSPost2010PropOp44
 70
     1
102
RTVSPost2010Prop45
280
     0
102
RTVSPost2010PropOp45
 70
     1
102
RTVSPost2010Prop46
 90
       50
102
RTVSPost2010PropOp46
 70
     1
102
RTVSPost2010Prop47
 90
       50
102
RTVSPost2010PropOp47
 70
     1
102
RTVSPost2010Prop48
 90
       50
102
RTVSPost2010PropOp48
 70
     1
102
RTVSPost2010Prop49
280
     0
102
RTVSPost2010PropOp49
 70
     1
102
RTVSPost2010Prop50
 90
       50
102
RTVSPost2010PropOp50
 70
     1
102
RTVSPost2010Prop51ColorIndex
 90
      256
102
RTVSPost2010Prop51ColorRGB
 90
-16777216
102
RTVSPost2010PropOp51
 70
     0
102
RTVSPost2010Prop52
140
1.0
102
RTVSPost2010PropOp52
 70
     0
102
RTVSPost2010Prop53
 90
        2
102
RTVSPost2010PropOp53
 70
     1
102
RTVSPost2010Prop54
  1
strokes_ogs.tif
102
RTVSPost2010PropOp54
 70
     1
102
RTVSPost2010Prop55
280
     0
102
RTVSPost2010PropOp55
 70
     1
102
RTVSPost2010Prop56
140
1.0
102
RTVSPost2010PropOp56
 70
     1
102
RTVSPost2010Prop57
140
1.0
102
RTVSPost2010PropOp57
 70
     1
  0
XRECORD
  5
37B
102
{ACAD_REACTORS
330
37A
102
}
330
37A
100
AcDbXrecord
280
     1
102
RTVSPropertyOp0
 70
     1
102
RTVSPropertyOp1
 70
     1
102
RTVSPropertyOp2
 70
     1
102
RTVSPropertyOp3
 70
     1
102
RTVSPropertyOp4
 70
     1
102
RTVSPropertyOp5
 70
     1
102
RTVSPropertyOp6
 70
     1
102
RTVSPropertyOp7
 70
     1
102
RTVSPropertyOp8
 70
     1
102
RTVSPropertyOp9
 70
     1
102
RTVSPropertyOp10
 70
     1
102
RTVSPropertyOp11
 70
     1
102
RTVSPropertyOp12
 70
     1
102
RTVSPropertyOp13
 70
     1
102
RTVSPropertyOp14
 70
     1
102
RTVSPropertyOp15
 70
     1
102
RTVSPropertyOp16
 70
     1
102
RTVSPropertyOp17
 70
     1
102
RTVSPropertyOp18
 70
     1
102
RTVSPropertyOp19
 70
     1
102
RTVSPropertyOp20
 70
     1
102
RTVSPropertyOp21
 70
     1
102
RTVSPropertyOp22
 70
     1
102
RTVSPropertyOp23
 70
     1
102
RTVSPropertyOp24
 70
     1
102
RTVSPropertyOp25
 70
     1
102
RTVSPropertyOp26
 70
     1
102
RTVSPropertyOp27
 70
     1
102
RTVSPropertyOp28
 70
     1
102
RTVSPropertyOp29
 70
     1
102
RTVSPropertyOp30
 70
     1
102
RTVSPropertyOp31
 70
     1
102
RTVSPropertyOp32
 70
     1
102
RTVSPropertyOp33
 70
     1
102
RTVSPropertyOp34
 70
     1
102
RTVSPropertyOp35
 70
     1
102
RTVSPropertyOp36
 70
     1
102
RTVSPropertyOp37
 70
     1
102
RTVSPropertyOp38
 70
     1
102
RTVSPropertyOp39
 70
     1
102
RTVSPropertyOp40
 70
     1
102
RTVSPropertyOp41
 70
     1
102
RTVSPropertyOp42
 70
     1
102
RTVSPropertyOp43
 70
     1
102
RTVSPropertyOp44
 70
     1
102
RTVSPropertyOp45
 70
     1
102
RTVSPropertyOp46
 70
     1
102
RTVSPropertyOp47
 70
     1
102
RTVSPropertyOp48
 70
     1
102
RTVSPropertyOp49
 70
     1
102
RTVSPropertyOp50
 70
     1
102
RTVSPropertyOp51
 70
     0
102
RTVSPropertyOp52
 70
     0
102
RTVSPropertyOp53
 70
     1
102
RTVSPropertyOp54
 70
     1
102
RTVSPropertyOp55
 70
     1
102
RTVSPropertyOp56
 70
     1
102
RTVSPropertyOp57
 70
     1
102
RTVSPost2010Prop28
280
     0
102
RTVSPost2010PropOp28
 70
     1
102
RTVSPost2010Prop29
280
     1
102
RTVSPost2010PropOp29
 70
     1
102
RTVSPost2010Prop30
280
     1
102
RTVSPost2010PropOp30
 70
     1
102
RTVSPost2010Prop31
280
     0
102
RTVSPost2010PropOp31
 70
     1
102
RTVSPost2010Prop32
280
     0
102
RTVSPost2010PropOp32
 70
     1
102
RTVSPost2010Prop33
280
     0
102
RTVSPost2010PropOp33
 70
     1
102
RTVSPost2010Prop34
280
     0
102
RTVSPost2010PropOp34
 70
     1
102
RTVSPost2010Prop35
280
     0
102
RTVSPost2010PropOp35
 70
     1
102
RTVSPost2010Prop36
280
     0
102
RTVSPost2010PropOp36
 70
     1
102
RTVSPost2010Prop37
 90
       50
102
RTVSPost2010PropOp37
 70
     1
102
RTVSPost2010Prop38
140
0.0
102
RTVSPost2010PropOp38
 70
     1
102
RTVSPost2010Prop39
140
1.0
102
RTVSPost2010PropOp39
 70
     1
102
RTVSPost2010Prop40
 90
        0
102
RTVSPost2010PropOp40
 70
     1
102
RTVSPost2010Prop41ColorIndex
 90
       18
102
RTVSPost2010Prop41ColorRGB
 90
        0
102
RTVSPost2010PropOp41
 70
     1
102
RTVSPost2010Prop42
 90
       50
102
RTVSPost2010PropOp42
 70
     1
102
RTVSPost2010Prop43
 90
        3
102
RTVSPost2010PropOp43
 70
     1
102
RTVSPost2010Prop44ColorIndex
 90
        5
102
RTVSPost2010Prop44ColorRGB
 90
      255
102
RTVSPost2010PropOp44
 70
     1
102
RTVSPost2010Prop45
280
     0
102
RTVSPost2010PropOp45
 70
     1
102
RTVSPost2010Prop46
 90
       50
102
RTVSPost2010PropOp46
 70
     1
102
RTVSPost2010Prop47
 90
       50
102
RTVSPost2010PropOp47
 70
     1
102
RTVSPost2010Prop48
 90
       50
102
RTVSPost2010PropOp48
 70
     1
102
RTVSPost2010Prop49
280
     0
102
RTVSPost2010PropOp49
 70
     1
102
RTVSPost2010Prop50
 90
       50
102
RTVSPost2010PropOp50
 70
     1
102
RTVSPost2010Prop51ColorIndex
 90
      256
102
RTVSPost2010Prop51ColorRGB
 90
-16777216
102
RTVSPost2010PropOp51
 70
     0
102
RTVSPost2010Prop52
140
1.0
102
RTVSPost2010PropOp52
 70
     0
102
RTVSPost2010Prop53
 90
        2
102
RTVSPost2010PropOp53
 70
     1
102
RTVSPost2010Prop54
  1
strokes_ogs.tif
102
RTVSPost2010PropOp54
 70
     1
102
RTVSPost2010Prop55
280
     0
102
RTVSPost2010PropOp55
 70
     1
102
RTVSPost2010Prop56
140
1.0
102
RTVSPost2010PropOp56
 70
     1
102
RTVSPost2010Prop57
140
1.0
102
RTVSPost2010PropOp57
 70
     1
  0
XRECORD
  5
37D
102
{ACAD_REACTORS
330
37C
102
}
330
37C
100
AcDbXrecord
280
     1
102
RTVSPropertyOp0
 70
     1
102
RTVSPropertyOp1
 70
     1
102
RTVSPropertyOp2
 70
     1
102
RTVSPropertyOp3
 70
     1
102
RTVSPropertyOp4
 70
     1
102
RTVSPropertyOp5
 70
     1
102
RTVSPropertyOp6
 70
     1
102
RTVSPropertyOp7
 70
     1
102
RTVSPropertyOp8
 70
     1
102
RTVSPropertyOp9
 70
     1
102
RTVSPropertyOp10
 70
     1
102
RTVSPropertyOp11
 70
     1
102
RTVSPropertyOp12
 70
     1
102
RTVSPropertyOp13
 70
     1
102
RTVSPropertyOp14
 70
     1
102
RTVSPropertyOp15
 70
     1
102
RTVSPropertyOp16
 70
     1
102
RTVSPropertyOp17
 70
     1
102
RTVSPropertyOp18
 70
     1
102
RTVSPropertyOp19
 70
     1
102
RTVSPropertyOp20
 70
     1
102
RTVSPropertyOp21
 70
     1
102
RTVSPropertyOp22
 70
     1
102
RTVSPropertyOp23
 70
     1
102
RTVSPropertyOp24
 70
     1
102
RTVSPropertyOp25
 70
     1
102
RTVSPropertyOp26
 70
     1
102
RTVSPropertyOp27
 70
     1
102
RTVSPropertyOp28
 70
     1
102
RTVSPropertyOp29
 70
     1
102
RTVSPropertyOp30
 70
     1
102
RTVSPropertyOp31
 70
     1
102
RTVSPropertyOp32
 70
     1
102
RTVSPropertyOp33
 70
     1
102
RTVSPropertyOp34
 70
     1
102
RTVSPropertyOp35
 70
     1
102
RTVSPropertyOp36
 70
     1
102
RTVSPropertyOp37
 70
     1
102
RTVSPropertyOp38
 70
     1
102
RTVSPropertyOp39
 70
     1
102
RTVSPropertyOp40
 70
     1
102
RTVSPropertyOp41
 70
     1
102
RTVSPropertyOp42
 70
     1
102
RTVSPropertyOp43
 70
     1
102
RTVSPropertyOp44
 70
     1
102
RTVSPropertyOp45
 70
     1
102
RTVSPropertyOp46
 70
     1
102
RTVSPropertyOp47
 70
     1
102
RTVSPropertyOp48
 70
     1
102
RTVSPropertyOp49
 70
     1
102
RTVSPropertyOp50
 70
     1
102
RTVSPropertyOp51
 70
     0
102
RTVSPropertyOp52
 70
     0
102
RTVSPropertyOp53
 70
     1
102
RTVSPropertyOp54
 70
     1
102
RTVSPropertyOp55
 70
     1
102
RTVSPropertyOp56
 70
     1
102
RTVSPropertyOp57
 70
     1
102
RTVSPost2010Prop28
280
     0
102
RTVSPost2010PropOp28
 70
     1
102
RTVSPost2010Prop29
280
     1
102
RTVSPost2010PropOp29
 70
     1
102
RTVSPost2010Prop30
280
     1
102
RTVSPost2010PropOp30
 70
     1
102
RTVSPost2010Prop31
280
     0
102
RTVSPost2010PropOp31
 70
     1
102
RTVSPost2010Prop32
280
     0
102
RTVSPost2010PropOp32
 70
     1
102
RTVSPost2010Prop33
280
     0
102
RTVSPost2010PropOp33
 70
     1
102
RTVSPost2010Prop34
280
     0
102
RTVSPost2010PropOp34
 70
     1
102
RTVSPost2010Prop35
280
     0
102
RTVSPost2010PropOp35
 70
     1
102
RTVSPost2010Prop36
280
     0
102
RTVSPost2010PropOp36
 70
     1
102
RTVSPost2010Prop37
 90
       50
102
RTVSPost2010PropOp37
 70
     1
102
RTVSPost2010Prop38
140
0.0
102
RTVSPost2010PropOp38
 70
     1
102
RTVSPost2010Prop39
140
1.0
102
RTVSPost2010PropOp39
 70
     1
102
RTVSPost2010Prop40
 90
        0
102
RTVSPost2010PropOp40
 70
     1
102
RTVSPost2010Prop41ColorIndex
 90
       18
102
RTVSPost2010Prop41ColorRGB
 90
        0
102
RTVSPost2010PropOp41
 70
     1
102
RTVSPost2010Prop42
 90
       50
102
RTVSPost2010PropOp42
 70
     1
102
RTVSPost2010Prop43
 90
        3
102
RTVSPost2010PropOp43
 70
     1
102
RTVSPost2010Prop44ColorIndex
 90
        5
102
RTVSPost2010Prop44ColorRGB
 90
      255
102
RTVSPost2010PropOp44
 70
     1
102
RTVSPost2010Prop45
280
     0
102
RTVSPost2010PropOp45
 70
     1
102
RTVSPost2010Prop46
 90
       50
102
RTVSPost2010PropOp46
 70
     1
102
RTVSPost2010Prop47
 90
       50
102
RTVSPost2010PropOp47
 70
     1
102
RTVSPost2010Prop48
 90
       50
102
RTVSPost2010PropOp48
 70
     1
102
RTVSPost2010Prop49
280
     0
102
RTVSPost2010PropOp49
 70
     1
102
RTVSPost2010Prop50
 90
       50
102
RTVSPost2010PropOp50
 70
     1
102
RTVSPost2010Prop51ColorIndex
 90
      256
102
RTVSPost2010Prop51ColorRGB
 90
-16777216
102
RTVSPost2010PropOp51
 70
     0
102
RTVSPost2010Prop52
140
1.0
102
RTVSPost2010PropOp52
 70
     0
102
RTVSPost2010Prop53
 90
        2
102
RTVSPost2010PropOp53
 70
     1
102
RTVSPost2010Prop54
  1
strokes_ogs.tif
102
RTVSPost2010PropOp54
 70
     1
102
RTVSPost2010Prop55
280
     0
102
RTVSPost2010PropOp55
 70
     1
102
RTVSPost2010Prop56
140
1.0
102
RTVSPost2010PropOp56
 70
     1
102
RTVSPost2010Prop57
140
1.0
102
RTVSPost2010PropOp57
 70
     1
  0
XRECORD
  5
37F
102
{ACAD_REACTORS
330
37E
102
}
330
37E
100
AcDbXrecord
280
     1
102
RTVSPropertyOp0
 70
     1
102
RTVSPropertyOp1
 70
     1
102
RTVSPropertyOp2
 70
     1
102
RTVSPropertyOp3
 70
     1
102
RTVSPropertyOp4
 70
     1
102
RTVSPropertyOp5
 70
     1
102
RTVSPropertyOp6
 70
     1
102
RTVSPropertyOp7
 70
     1
102
RTVSPropertyOp8
 70
     1
102
RTVSPropertyOp9
 70
     1
102
RTVSPropertyOp10
 70
     1
102
RTVSPropertyOp11
 70
     1
102
RTVSPropertyOp12
 70
     1
102
RTVSPropertyOp13
 70
     1
102
RTVSPropertyOp14
 70
     1
102
RTVSPropertyOp15
 70
     1
102
RTVSPropertyOp16
 70
     1
102
RTVSPropertyOp17
 70
     1
102
RTVSPropertyOp18
 70
     1
102
RTVSPropertyOp19
 70
     1
102
RTVSPropertyOp20
 70
     1
102
RTVSPropertyOp21
 70
     1
102
RTVSPropertyOp22
 70
     1
102
RTVSPropertyOp23
 70
     1
102
RTVSPropertyOp24
 70
     1
102
RTVSPropertyOp25
 70
     1
102
RTVSPropertyOp26
 70
     1
102
RTVSPropertyOp27
 70
     1
102
RTVSPropertyOp28
 70
     1
102
RTVSPropertyOp29
 70
     1
102
RTVSPropertyOp30
 70
     1
102
RTVSPropertyOp31
 70
     1
102
RTVSPropertyOp32
 70
     1
102
RTVSPropertyOp33
 70
     1
102
RTVSPropertyOp34
 70
     1
102
RTVSPropertyOp35
 70
     1
102
RTVSPropertyOp36
 70
     1
102
RTVSPropertyOp37
 70
     1
102
RTVSPropertyOp38
 70
     1
102
RTVSPropertyOp39
 70
     1
102
RTVSPropertyOp40
 70
     1
102
RTVSPropertyOp41
 70
     1
102
RTVSPropertyOp42
 70
     1
102
RTVSPropertyOp43
 70
     1
102
RTVSPropertyOp44
 70
     1
102
RTVSPropertyOp45
 70
     1
102
RTVSPropertyOp46
 70
     1
102
RTVSPropertyOp47
 70
     1
102
RTVSPropertyOp48
 70
     1
102
RTVSPropertyOp49
 70
     1
102
RTVSPropertyOp50
 70
     1
102
RTVSPropertyOp51
 70
     0
102
RTVSPropertyOp52
 70
     0
102
RTVSPropertyOp53
 70
     1
102
RTVSPropertyOp54
 70
     1
102
RTVSPropertyOp55
 70
     1
102
RTVSPropertyOp56
 70
     1
102
RTVSPropertyOp57
 70
     1
102
RTVSPost2010Prop28
280
     0
102
RTVSPost2010PropOp28
 70
     1
102
RTVSPost2010Prop29
280
     1
102
RTVSPost2010PropOp29
 70
     1
102
RTVSPost2010Prop30
280
     1
102
RTVSPost2010PropOp30
 70
     1
102
RTVSPost2010Prop31
280
     0
102
RTVSPost2010PropOp31
 70
     1
102
RTVSPost2010Prop32
280
     0
102
RTVSPost2010PropOp32
 70
     1
102
RTVSPost2010Prop33
280
     0
102
RTVSPost2010PropOp33
 70
     1
102
RTVSPost2010Prop34
280
     0
102
RTVSPost2010PropOp34
 70
     1
102
RTVSPost2010Prop35
280
     0
102
RTVSPost2010PropOp35
 70
     1
102
RTVSPost2010Prop36
280
     0
102
RTVSPost2010PropOp36
 70
     1
102
RTVSPost2010Prop37
 90
       50
102
RTVSPost2010PropOp37
 70
     1
102
RTVSPost2010Prop38
140
0.0
102
RTVSPost2010PropOp38
 70
     1
102
RTVSPost2010Prop39
140
1.0
102
RTVSPost2010PropOp39
 70
     1
102
RTVSPost2010Prop40
 90
        0
102
RTVSPost2010PropOp40
 70
     1
102
RTVSPost2010Prop41ColorIndex
 90
       18
102
RTVSPost2010Prop41ColorRGB
 90
        0
102
RTVSPost2010PropOp41
 70
     1
102
RTVSPost2010Prop42
 90
       50
102
RTVSPost2010PropOp42
 70
     1
102
RTVSPost2010Prop43
 90
        3
102
RTVSPost2010PropOp43
 70
     1
102
RTVSPost2010Prop44ColorIndex
 90
        5
102
RTVSPost2010Prop44ColorRGB
 90
      255
102
RTVSPost2010PropOp44
 70
     1
102
RTVSPost2010Prop45
280
     0
102
RTVSPost2010PropOp45
 70
     1
102
RTVSPost2010Prop46
 90
       50
102
RTVSPost2010PropOp46
 70
     1
102
RTVSPost2010Prop47
 90
       50
102
RTVSPost2010PropOp47
 70
     1
102
RTVSPost2010Prop48
 90
       50
102
RTVSPost2010PropOp48
 70
     1
102
RTVSPost2010Prop49
280
     0
102
RTVSPost2010PropOp49
 70
     1
102
RTVSPost2010Prop50
 90
       50
102
RTVSPost2010PropOp50
 70
     1
102
RTVSPost2010Prop51ColorIndex
 90
      256
102
RTVSPost2010Prop51ColorRGB
 90
-16777216
102
RTVSPost2010PropOp51
 70
     0
102
RTVSPost2010Prop52
140
1.0
102
RTVSPost2010PropOp52
 70
     0
102
RTVSPost2010Prop53
 90
        2
102
RTVSPost2010PropOp53
 70
     1
102
RTVSPost2010Prop54
  1
strokes_ogs.tif
102
RTVSPost2010PropOp54
 70
     1
102
RTVSPost2010Prop55
280
     0
102
RTVSPost2010PropOp55
 70
     1
102
RTVSPost2010Prop56
140
1.0
102
RTVSPost2010PropOp56
 70
     1
102
RTVSPost2010Prop57
140
1.0
102
RTVSPost2010PropOp57
 70
     1
  0
XRECORD
  5
381
102
{ACAD_REACTORS
330
380
102
}
330
380
100
AcDbXrecord
280
     1
102
RTVSPropertyOp0
 70
     1
102
RTVSPropertyOp1
 70
     1
102
RTVSPropertyOp2
 70
     1
102
RTVSPropertyOp3
 70
     1
102
RTVSPropertyOp4
 70
     1
102
RTVSPropertyOp5
 70
     1
102
RTVSPropertyOp6
 70
     1
102
RTVSPropertyOp7
 70
     1
102
RTVSPropertyOp8
 70
     1
102
RTVSPropertyOp9
 70
     1
102
RTVSPropertyOp10
 70
     1
102
RTVSPropertyOp11
 70
     1
102
RTVSPropertyOp12
 70
     1
102
RTVSPropertyOp13
 70
     1
102
RTVSPropertyOp14
 70
     1
102
RTVSPropertyOp15
 70
     1
102
RTVSPropertyOp16
 70
     1
102
RTVSPropertyOp17
 70
     1
102
RTVSPropertyOp18
 70
     1
102
RTVSPropertyOp19
 70
     1
102
RTVSPropertyOp20
 70
     1
102
RTVSPropertyOp21
 70
     1
102
RTVSPropertyOp22
 70
     1
102
RTVSPropertyOp23
 70
     1
102
RTVSPropertyOp24
 70
     1
102
RTVSPropertyOp25
 70
     1
102
RTVSPropertyOp26
 70
     1
102
RTVSPropertyOp27
 70
     1
102
RTVSPropertyOp28
 70
     1
102
RTVSPropertyOp29
 70
     1
102
RTVSPropertyOp30
 70
     1
102
RTVSPropertyOp31
 70
     1
102
RTVSPropertyOp32
 70
     1
102
RTVSPropertyOp33
 70
     1
102
RTVSPropertyOp34
 70
     1
102
RTVSPropertyOp35
 70
     1
102
RTVSPropertyOp36
 70
     1
102
RTVSPropertyOp37
 70
     1
102
RTVSPropertyOp38
 70
     1
102
RTVSPropertyOp39
 70
     1
102
RTVSPropertyOp40
 70
     1
102
RTVSPropertyOp41
 70
     1
102
RTVSPropertyOp42
 70
     1
102
RTVSPropertyOp43
 70
     1
102
RTVSPropertyOp44
 70
     1
102
RTVSPropertyOp45
 70
     1
102
RTVSPropertyOp46
 70
     1
102
RTVSPropertyOp47
 70
     1
102
RTVSPropertyOp48
 70
     1
102
RTVSPropertyOp49
 70
     1
102
RTVSPropertyOp50
 70
     1
102
RTVSPropertyOp51
 70
     0
102
RTVSPropertyOp52
 70
     0
102
RTVSPropertyOp53
 70
     1
102
RTVSPropertyOp54
 70
     1
102
RTVSPropertyOp55
 70
     1
102
RTVSPropertyOp56
 70
     1
102
RTVSPropertyOp57
 70
     1
102
RTVSPost2010Prop28
280
     0
102
RTVSPost2010PropOp28
 70
     1
102
RTVSPost2010Prop29
280
     1
102
RTVSPost2010PropOp29
 70
     1
102
RTVSPost2010Prop30
280
     1
102
RTVSPost2010PropOp30
 70
     1
102
RTVSPost2010Prop31
280
     0
102
RTVSPost2010PropOp31
 70
     1
102
RTVSPost2010Prop32
280
     0
102
RTVSPost2010PropOp32
 70
     1
102
RTVSPost2010Prop33
280
     0
102
RTVSPost2010PropOp33
 70
     1
102
RTVSPost2010Prop34
280
     0
102
RTVSPost2010PropOp34
 70
     1
102
RTVSPost2010Prop35
280
     0
102
RTVSPost2010PropOp35
 70
     1
102
RTVSPost2010Prop36
280
     0
102
RTVSPost2010PropOp36
 70
     1
102
RTVSPost2010Prop37
 90
       50
102
RTVSPost2010PropOp37
 70
     1
102
RTVSPost2010Prop38
140
0.0
102
RTVSPost2010PropOp38
 70
     1
102
RTVSPost2010Prop39
140
1.0
102
RTVSPost2010PropOp39
 70
     1
102
RTVSPost2010Prop40
 90
        0
102
RTVSPost2010PropOp40
 70
     1
102
RTVSPost2010Prop41ColorIndex
 90
       18
102
RTVSPost2010Prop41ColorRGB
 90
        0
102
RTVSPost2010PropOp41
 70
     1
102
RTVSPost2010Prop42
 90
       50
102
RTVSPost2010PropOp42
 70
     1
102
RTVSPost2010Prop43
 90
        3
102
RTVSPost2010PropOp43
 70
     1
102
RTVSPost2010Prop44ColorIndex
 90
        5
102
RTVSPost2010Prop44ColorRGB
 90
      255
102
RTVSPost2010PropOp44
 70
     1
102
RTVSPost2010Prop45
280
     0
102
RTVSPost2010PropOp45
 70
     1
102
RTVSPost2010Prop46
 90
       50
102
RTVSPost2010PropOp46
 70
     1
102
RTVSPost2010Prop47
 90
       50
102
RTVSPost2010PropOp47
 70
     1
102
RTVSPost2010Prop48
 90
       50
102
RTVSPost2010PropOp48
 70
     1
102
RTVSPost2010Prop49
280
     0
102
RTVSPost2010PropOp49
 70
     1
102
RTVSPost2010Prop50
 90
       50
102
RTVSPost2010PropOp50
 70
     1
102
RTVSPost2010Prop51ColorIndex
 90
      256
102
RTVSPost2010Prop51ColorRGB
 90
-16777216
102
RTVSPost2010PropOp51
 70
     0
102
RTVSPost2010Prop52
140
1.0
102
RTVSPost2010PropOp52
 70
     0
102
RTVSPost2010Prop53
 90
        2
102
RTVSPost2010PropOp53
 70
     1
102
RTVSPost2010Prop54
  1
strokes_ogs.tif
102
RTVSPost2010PropOp54
 70
     1
102
RTVSPost2010Prop55
280
     0
102
RTVSPost2010PropOp55
 70
     1
102
RTVSPost2010Prop56
140
1.0
102
RTVSPost2010PropOp56
 70
     1
102
RTVSPost2010Prop57
140
1.0
102
RTVSPost2010PropOp57
 70
     1
  0
XRECORD
  5
387
102
{ACAD_REACTORS
330
386
102
}
330
386
100
AcDbXrecord
280
     1
102
RTVSPropertyOp0
 70
     1
102
RTVSPropertyOp1
 70
     1
102
RTVSPropertyOp2
 70
     1
102
RTVSPropertyOp3
 70
     1
102
RTVSPropertyOp4
 70
     1
102
RTVSPropertyOp5
 70
     1
102
RTVSPropertyOp6
 70
     1
102
RTVSPropertyOp7
 70
     1
102
RTVSPropertyOp8
 70
     1
102
RTVSPropertyOp9
 70
     1
102
RTVSPropertyOp10
 70
     1
102
RTVSPropertyOp11
 70
     1
102
RTVSPropertyOp12
 70
     1
102
RTVSPropertyOp13
 70
     1
102
RTVSPropertyOp14
 70
     1
102
RTVSPropertyOp15
 70
     1
102
RTVSPropertyOp16
 70
     1
102
RTVSPropertyOp17
 70
     1
102
RTVSPropertyOp18
 70
     1
102
RTVSPropertyOp19
 70
     1
102
RTVSPropertyOp20
 70
     1
102
RTVSPropertyOp21
 70
     1
102
RTVSPropertyOp22
 70
     1
102
RTVSPropertyOp23
 70
     1
102
RTVSPropertyOp24
 70
     1
102
RTVSPropertyOp25
 70
     1
102
RTVSPropertyOp26
 70
     1
102
RTVSPropertyOp27
 70
     1
102
RTVSPropertyOp28
 70
     1
102
RTVSPropertyOp29
 70
     1
102
RTVSPropertyOp30
 70
     1
102
RTVSPropertyOp31
 70
     1
102
RTVSPropertyOp32
 70
     1
102
RTVSPropertyOp33
 70
     1
102
RTVSPropertyOp34
 70
     1
102
RTVSPropertyOp35
 70
     1
102
RTVSPropertyOp36
 70
     1
102
RTVSPropertyOp37
 70
     1
102
RTVSPropertyOp38
 70
     1
102
RTVSPropertyOp39
 70
     1
102
RTVSPropertyOp40
 70
     1
102
RTVSPropertyOp41
 70
     1
102
RTVSPropertyOp42
 70
     1
102
RTVSPropertyOp43
 70
     1
102
RTVSPropertyOp44
 70
     1
102
RTVSPropertyOp45
 70
     1
102
RTVSPropertyOp46
 70
     1
102
RTVSPropertyOp47
 70
     1
102
RTVSPropertyOp48
 70
     1
102
RTVSPropertyOp49
 70
     1
102
RTVSPropertyOp50
 70
     1
102
RTVSPropertyOp51
 70
     0
102
RTVSPropertyOp52
 70
     0
102
RTVSPropertyOp53
 70
     1
102
RTVSPropertyOp54
 70
     1
102
RTVSPropertyOp55
 70
     1
102
RTVSPropertyOp56
 70
     1
102
RTVSPropertyOp57
 70
     1
102
RTVSPost2010Prop28
280
     0
102
RTVSPost2010PropOp28
 70
     1
102
RTVSPost2010Prop29
280
     1
102
RTVSPost2010PropOp29
 70
     1
102
RTVSPost2010Prop30
280
     1
102
RTVSPost2010PropOp30
 70
     1
102
RTVSPost2010Prop31
280
     0
102
RTVSPost2010PropOp31
 70
     1
102
RTVSPost2010Prop32
280
     0
102
RTVSPost2010PropOp32
 70
     1
102
RTVSPost2010Prop33
280
     0
102
RTVSPost2010PropOp33
 70
     1
102
RTVSPost2010Prop34
280
     0
102
RTVSPost2010PropOp34
 70
     1
102
RTVSPost2010Prop35
280
     0
102
RTVSPost2010PropOp35
 70
     1
102
RTVSPost2010Prop36
280
     0
102
RTVSPost2010PropOp36
 70
     1
102
RTVSPost2010Prop37
 90
       50
102
RTVSPost2010PropOp37
 70
     1
102
RTVSPost2010Prop38
140
0.0
102
RTVSPost2010PropOp38
 70
     1
102
RTVSPost2010Prop39
140
1.0
102
RTVSPost2010PropOp39
 70
     1
102
RTVSPost2010Prop40
 90
        0
102
RTVSPost2010PropOp40
 70
     1
102
RTVSPost2010Prop41ColorIndex
 90
       18
102
RTVSPost2010Prop41ColorRGB
 90
        0
102
RTVSPost2010PropOp41
 70
     1
102
RTVSPost2010Prop42
 90
       50
102
RTVSPost2010PropOp42
 70
     1
102
RTVSPost2010Prop43
 90
        3
102
RTVSPost2010PropOp43
 70
     1
102
RTVSPost2010Prop44ColorIndex
 90
        5
102
RTVSPost2010Prop44ColorRGB
 90
      255
102
RTVSPost2010PropOp44
 70
     1
102
RTVSPost2010Prop45
280
     0
102
RTVSPost2010PropOp45
 70
     1
102
RTVSPost2010Prop46
 90
       50
102
RTVSPost2010PropOp46
 70
     1
102
RTVSPost2010Prop47
 90
       50
102
RTVSPost2010PropOp47
 70
     1
102
RTVSPost2010Prop48
 90
       50
102
RTVSPost2010PropOp48
 70
     1
102
RTVSPost2010Prop49
280
     0
102
RTVSPost2010PropOp49
 70
     1
102
RTVSPost2010Prop50
 90
       50
102
RTVSPost2010PropOp50
 70
     1
102
RTVSPost2010Prop51ColorIndex
 90
      256
102
RTVSPost2010Prop51ColorRGB
 90
-16777216
102
RTVSPost2010PropOp51
 70
     0
102
RTVSPost2010Prop52
140
1.0
102
RTVSPost2010PropOp52
 70
     0
102
RTVSPost2010Prop53
 90
        2
102
RTVSPost2010PropOp53
 70
     1
102
RTVSPost2010Prop54
  1
strokes_ogs.tif
102
RTVSPost2010PropOp54
 70
     1
102
RTVSPost2010Prop55
280
     0
102
RTVSPost2010PropOp55
 70
     1
102
RTVSPost2010Prop56
140
1.0
102
RTVSPost2010PropOp56
 70
     1
102
RTVSPost2010Prop57
140
1.0
102
RTVSPost2010PropOp57
 70
     1
  0
XRECORD
  5
39B
102
{ACAD_REACTORS
330
39A
102
}
330
39A
100
AcDbXrecord
280
     1
102
RTVSPropertyOp0
 70
     0
102
RTVSPropertyOp1
 70
     0
102
RTVSPropertyOp2
 70
     0
102
RTVSPropertyOp3
 70
     0
102
RTVSPropertyOp4
 70
     0
102
RTVSPropertyOp5
 70
     0
102
RTVSPropertyOp6
 70
     0
102
RTVSPropertyOp7
 70
     0
102
RTVSPropertyOp8
 70
     0
102
RTVSPropertyOp9
 70
     0
102
RTVSPropertyOp10
 70
     0
102
RTVSPropertyOp11
 70
     0
102
RTVSPropertyOp12
 70
     0
102
RTVSPropertyOp13
 70
     0
102
RTVSPropertyOp14
 70
     2
102
RTVSPropertyOp15
 70
     0
102
RTVSPropertyOp16
 70
     0
102
RTVSPropertyOp17
 70
     0
102
RTVSPropertyOp18
 70
     0
102
RTVSPropertyOp19
 70
     0
102
RTVSPropertyOp20
 70
     0
102
RTVSPropertyOp21
 70
     0
102
RTVSPropertyOp22
 70
     0
102
RTVSPropertyOp23
 70
     0
102
RTVSPropertyOp24
 70
     0
102
RTVSPropertyOp25
 70
     0
102
RTVSPropertyOp26
 70
     0
102
RTVSPropertyOp27
 70
     0
102
RTVSPropertyOp28
 70
     0
102
RTVSPropertyOp29
 70
     0
102
RTVSPropertyOp30
 70
     0
102
RTVSPropertyOp31
 70
     0
102
RTVSPropertyOp32
 70
     0
102
RTVSPropertyOp33
 70
     0
102
RTVSPropertyOp34
 70
     0
102
RTVSPropertyOp35
 70
     0
102
RTVSPropertyOp36
 70
     0
102
RTVSPropertyOp37
 70
     0
102
RTVSPropertyOp38
 70
     0
102
RTVSPropertyOp39
 70
     0
102
RTVSPropertyOp40
 70
     0
102
RTVSPropertyOp41
 70
     0
102
RTVSPropertyOp42
 70
     0
102
RTVSPropertyOp43
 70
     0
102
RTVSPropertyOp44
 70
     0
102
RTVSPropertyOp45
 70
     0
102
RTVSPropertyOp46
 70
     0
102
RTVSPropertyOp47
 70
     0
102
RTVSPropertyOp48
 70
     0
102
RTVSPropertyOp49
 70
     0
102
RTVSPropertyOp50
 70
     0
102
RTVSPropertyOp51
 70
     0
102
RTVSPropertyOp52
 70
     0
102
RTVSPropertyOp53
 70
     0
102
RTVSPropertyOp54
 70
     0
102
RTVSPropertyOp55
 70
     0
102
RTVSPropertyOp56
 70
     0
102
RTVSPropertyOp57
 70
     0
102
RTVSPost2010Prop28
280
     0
102
RTVSPost2010PropOp28
 70
     0
102
RTVSPost2010Prop29
280
     1
102
RTVSPost2010PropOp29
 70
     0
102
RTVSPost2010Prop30
280
     1
102
RTVSPost2010PropOp30
 70
     0
102
RTVSPost2010Prop31
280
     0
102
RTVSPost2010PropOp31
 70
     0
102
RTVSPost2010Prop32
280
     0
102
RTVSPost2010PropOp32
 70
     0
102
RTVSPost2010Prop33
280
     0
102
RTVSPost2010PropOp33
 70
     0
102
RTVSPost2010Prop34
280
     0
102
RTVSPost2010PropOp34
 70
     0
102
RTVSPost2010Prop35
280
     0
102
RTVSPost2010PropOp35
 70
     0
102
RTVSPost2010Prop36
280
     0
102
RTVSPost2010PropOp36
 70
     0
102
RTVSPost2010Prop37
 90
       50
102
RTVSPost2010PropOp37
 70
     0
102
RTVSPost2010Prop38
140
0.0
102
RTVSPost2010PropOp38
 70
     0
102
RTVSPost2010Prop39
140
1.0
102
RTVSPost2010PropOp39
 70
     0
102
RTVSPost2010Prop40
 90
        0
102
RTVSPost2010PropOp40
 70
     0
102
RTVSPost2010Prop41ColorIndex
 90
       18
102
RTVSPost2010Prop41ColorRGB
 90
        0
102
RTVSPost2010PropOp41
 70
     0
102
RTVSPost2010Prop42
 90
       50
102
RTVSPost2010PropOp42
 70
     0
102
RTVSPost2010Prop43
 90
        3
102
RTVSPost2010PropOp43
 70
     0
102
RTVSPost2010Prop44ColorIndex
 90
        5
102
RTVSPost2010Prop44ColorRGB
 90
      255
102
RTVSPost2010PropOp44
 70
     0
102
RTVSPost2010Prop45
280
     0
102
RTVSPost2010PropOp45
 70
     0
102
RTVSPost2010Prop46
 90
       50
102
RTVSPost2010PropOp46
 70
     0
102
RTVSPost2010Prop47
 90
       50
102
RTVSPost2010PropOp47
 70
     0
102
RTVSPost2010Prop48
 90
       50
102
RTVSPost2010PropOp48
 70
     0
102
RTVSPost2010Prop49
280
     0
102
RTVSPost2010PropOp49
 70
     0
102
RTVSPost2010Prop50
 90
       50
102
RTVSPost2010PropOp50
 70
     0
102
RTVSPost2010Prop51ColorIndex
 90
      256
102
RTVSPost2010Prop51ColorRGB
 90
-16777216
102
RTVSPost2010PropOp51
 70
     0
102
RTVSPost2010Prop52
140
1.0
102
RTVSPost2010PropOp52
 70
     0
102
RTVSPost2010Prop53
 90
        2
102
RTVSPost2010PropOp53
 70
     0
102
RTVSPost2010Prop54
  1
strokes_ogs.tif
102
RTVSPost2010PropOp54
 70
     0
102
RTVSPost2010Prop55
280
     0
102
RTVSPost2010PropOp55
 70
     0
102
RTVSPost2010Prop56
140
1.0
102
RTVSPost2010PropOp56
 70
     0
102
RTVSPost2010Prop57
140
1.0
102
RTVSPost2010PropOp57
 70
     0
  0
XRECORD
  5
395
102
{ACAD_REACTORS
330
394
102
}
330
394
100
AcDbXrecord
280
     1
102
RTVSPropertyOp0
 70
     1
102
RTVSPropertyOp1
 70
     1
102
RTVSPropertyOp2
 70
     1
102
RTVSPropertyOp3
 70
     1
102
RTVSPropertyOp4
 70
     1
102
RTVSPropertyOp5
 70
     1
102
RTVSPropertyOp6
 70
     1
102
RTVSPropertyOp7
 70
     1
102
RTVSPropertyOp8
 70
     1
102
RTVSPropertyOp9
 70
     1
102
RTVSPropertyOp10
 70
     1
102
RTVSPropertyOp11
 70
     1
102
RTVSPropertyOp12
 70
     1
102
RTVSPropertyOp13
 70
     1
102
RTVSPropertyOp14
 70
     1
102
RTVSPropertyOp15
 70
     1
102
RTVSPropertyOp16
 70
     1
102
RTVSPropertyOp17
 70
     1
102
RTVSPropertyOp18
 70
     1
102
RTVSPropertyOp19
 70
     1
102
RTVSPropertyOp20
 70
     1
102
RTVSPropertyOp21
 70
     1
102
RTVSPropertyOp22
 70
     1
102
RTVSPropertyOp23
 70
     1
102
RTVSPropertyOp24
 70
     1
102
RTVSPropertyOp25
 70
     1
102
RTVSPropertyOp26
 70
     1
102
RTVSPropertyOp27
 70
     1
102
RTVSPropertyOp28
 70
     1
102
RTVSPropertyOp29
 70
     1
102
RTVSPropertyOp30
 70
     1
102
RTVSPropertyOp31
 70
     1
102
RTVSPropertyOp32
 70
     1
102
RTVSPropertyOp33
 70
     1
102
RTVSPropertyOp34
 70
     1
102
RTVSPropertyOp35
 70
     1
102
RTVSPropertyOp36
 70
     1
102
RTVSPropertyOp37
 70
     1
102
RTVSPropertyOp38
 70
     1
102
RTVSPropertyOp39
 70
     1
102
RTVSPropertyOp40
 70
     1
102
RTVSPropertyOp41
 70
     1
102
RTVSPropertyOp42
 70
     1
102
RTVSPropertyOp43
 70
     1
102
RTVSPropertyOp44
 70
     1
102
RTVSPropertyOp45
 70
     1
102
RTVSPropertyOp46
 70
     1
102
RTVSPropertyOp47
 70
     1
102
RTVSPropertyOp48
 70
     1
102
RTVSPropertyOp49
 70
     1
102
RTVSPropertyOp50
 70
     1
102
RTVSPropertyOp51
 70
     0
102
RTVSPropertyOp52
 70
     0
102
RTVSPropertyOp53
 70
     1
102
RTVSPropertyOp54
 70
     1
102
RTVSPropertyOp55
 70
     1
102
RTVSPropertyOp56
 70
     1
102
RTVSPropertyOp57
 70
     1
102
RTVSPost2010Prop28
280
     0
102
RTVSPost2010PropOp28
 70
     1
102
RTVSPost2010Prop29
280
     1
102
RTVSPost2010PropOp29
 70
     1
102
RTVSPost2010Prop30
280
     1
102
RTVSPost2010PropOp30
 70
     1
102
RTVSPost2010Prop31
280
     0
102
RTVSPost2010PropOp31
 70
     1
102
RTVSPost2010Prop32
280
     0
102
RTVSPost2010PropOp32
 70
     1
102
RTVSPost2010Prop33
280
     0
102
RTVSPost2010PropOp33
 70
     1
102
RTVSPost2010Prop34
280
     0
102
RTVSPost2010PropOp34
 70
     1
102
RTVSPost2010Prop35
280
     0
102
RTVSPost2010PropOp35
 70
     1
102
RTVSPost2010Prop36
280
     0
102
RTVSPost2010PropOp36
 70
     1
102
RTVSPost2010Prop37
 90
       50
102
RTVSPost2010PropOp37
 70
     1
102
RTVSPost2010Prop38
140
0.0
102
RTVSPost2010PropOp38
 70
     1
102
RTVSPost2010Prop39
140
1.0
102
RTVSPost2010PropOp39
 70
     1
102
RTVSPost2010Prop40
 90
        0
102
RTVSPost2010PropOp40
 70
     1
102
RTVSPost2010Prop41ColorIndex
 90
       18
102
RTVSPost2010Prop41ColorRGB
 90
        0
102
RTVSPost2010PropOp41
 70
     1
102
RTVSPost2010Prop42
 90
       50
102
RTVSPost2010PropOp42
 70
     1
102
RTVSPost2010Prop43
 90
        3
102
RTVSPost2010PropOp43
 70
     1
102
RTVSPost2010Prop44ColorIndex
 90
        5
102
RTVSPost2010Prop44ColorRGB
 90
      255
102
RTVSPost2010PropOp44
 70
     1
102
RTVSPost2010Prop45
280
     0
102
RTVSPost2010PropOp45
 70
     1
102
RTVSPost2010Prop46
 90
       50
102
RTVSPost2010PropOp46
 70
     1
102
RTVSPost2010Prop47
 90
       50
102
RTVSPost2010PropOp47
 70
     1
102
RTVSPost2010Prop48
 90
       50
102
RTVSPost2010PropOp48
 70
     1
102
RTVSPost2010Prop49
280
     0
102
RTVSPost2010PropOp49
 70
     1
102
RTVSPost2010Prop50
 90
       50
102
RTVSPost2010PropOp50
 70
     1
102
RTVSPost2010Prop51ColorIndex
 90
      256
102
RTVSPost2010Prop51ColorRGB
 90
-16777216
102
RTVSPost2010PropOp51
 70
     0
102
RTVSPost2010Prop52
140
1.0
102
RTVSPost2010PropOp52
 70
     0
102
RTVSPost2010Prop53
 90
        2
102
RTVSPost2010PropOp53
 70
     1
102
RTVSPost2010Prop54
  1
strokes_ogs.tif
102
RTVSPost2010PropOp54
 70
     1
102
RTVSPost2010Prop55
280
     0
102
RTVSPost2010PropOp55
 70
     1
102
RTVSPost2010Prop56
140
1.0
102
RTVSPost2010PropOp56
 70
     1
102
RTVSPost2010Prop57
140
1.0
102
RTVSPost2010PropOp57
 70
     1
  0
XRECORD
  5
39D
102
{ACAD_REACTORS
330
39C
102
}
330
39C
100
AcDbXrecord
280
     1
102
RTVSPropertyOp0
 70
     0
102
RTVSPropertyOp1
 70
     0
102
RTVSPropertyOp2
 70
     0
102
RTVSPropertyOp3
 70
     0
102
RTVSPropertyOp4
 70
     0
102
RTVSPropertyOp5
 70
     0
102
RTVSPropertyOp6
 70
     0
102
RTVSPropertyOp7
 70
     0
102
RTVSPropertyOp8
 70
     0
102
RTVSPropertyOp9
 70
     0
102
RTVSPropertyOp10
 70
     0
102
RTVSPropertyOp11
 70
     0
102
RTVSPropertyOp12
 70
     0
102
RTVSPropertyOp13
 70
     0
102
RTVSPropertyOp14
 70
     2
102
RTVSPropertyOp15
 70
     0
102
RTVSPropertyOp16
 70
     0
102
RTVSPropertyOp17
 70
     0
102
RTVSPropertyOp18
 70
     0
102
RTVSPropertyOp19
 70
     0
102
RTVSPropertyOp20
 70
     0
102
RTVSPropertyOp21
 70
     0
102
RTVSPropertyOp22
 70
     0
102
RTVSPropertyOp23
 70
     0
102
RTVSPropertyOp24
 70
     0
102
RTVSPropertyOp25
 70
     0
102
RTVSPropertyOp26
 70
     0
102
RTVSPropertyOp27
 70
     0
102
RTVSPropertyOp28
 70
     0
102
RTVSPropertyOp29
 70
     0
102
RTVSPropertyOp30
 70
     0
102
RTVSPropertyOp31
 70
     0
102
RTVSPropertyOp32
 70
     0
102
RTVSPropertyOp33
 70
     0
102
RTVSPropertyOp34
 70
     0
102
RTVSPropertyOp35
 70
     0
102
RTVSPropertyOp36
 70
     0
102
RTVSPropertyOp37
 70
     0
102
RTVSPropertyOp38
 70
     0
102
RTVSPropertyOp39
 70
     0
102
RTVSPropertyOp40
 70
     0
102
RTVSPropertyOp41
 70
     0
102
RTVSPropertyOp42
 70
     0
102
RTVSPropertyOp43
 70
     0
102
RTVSPropertyOp44
 70
     0
102
RTVSPropertyOp45
 70
     0
102
RTVSPropertyOp46
 70
     0
102
RTVSPropertyOp47
 70
     0
102
RTVSPropertyOp48
 70
     0
102
RTVSPropertyOp49
 70
     0
102
RTVSPropertyOp50
 70
     0
102
RTVSPropertyOp51
 70
     0
102
RTVSPropertyOp52
 70
     0
102
RTVSPropertyOp53
 70
     0
102
RTVSPropertyOp54
 70
     0
102
RTVSPropertyOp55
 70
     0
102
RTVSPropertyOp56
 70
     0
102
RTVSPropertyOp57
 70
     0
102
RTVSPost2010Prop28
280
     0
102
RTVSPost2010PropOp28
 70
     0
102
RTVSPost2010Prop29
280
     1
102
RTVSPost2010PropOp29
 70
     0
102
RTVSPost2010Prop30
280
     1
102
RTVSPost2010PropOp30
 70
     0
102
RTVSPost2010Prop31
280
     0
102
RTVSPost2010PropOp31
 70
     0
102
RTVSPost2010Prop32
280
     0
102
RTVSPost2010PropOp32
 70
     0
102
RTVSPost2010Prop33
280
     0
102
RTVSPost2010PropOp33
 70
     0
102
RTVSPost2010Prop34
280
     0
102
RTVSPost2010PropOp34
 70
     0
102
RTVSPost2010Prop35
280
     0
102
RTVSPost2010PropOp35
 70
     0
102
RTVSPost2010Prop36
280
     0
102
RTVSPost2010PropOp36
 70
     0
102
RTVSPost2010Prop37
 90
       50
102
RTVSPost2010PropOp37
 70
     0
102
RTVSPost2010Prop38
140
0.0
102
RTVSPost2010PropOp38
 70
     0
102
RTVSPost2010Prop39
140
1.0
102
RTVSPost2010PropOp39
 70
     0
102
RTVSPost2010Prop40
 90
        0
102
RTVSPost2010PropOp40
 70
     0
102
RTVSPost2010Prop41ColorIndex
 90
       18
102
RTVSPost2010Prop41ColorRGB
 90
        0
102
RTVSPost2010PropOp41
 70
     0
102
RTVSPost2010Prop42
 90
       50
102
RTVSPost2010PropOp42
 70
     0
102
RTVSPost2010Prop43
 90
        3
102
RTVSPost2010PropOp43
 70
     0
102
RTVSPost2010Prop44ColorIndex
 90
        5
102
RTVSPost2010Prop44ColorRGB
 90
      255
102
RTVSPost2010PropOp44
 70
     0
102
RTVSPost2010Prop45
280
     0
102
RTVSPost2010PropOp45
 70
     0
102
RTVSPost2010Prop46
 90
       50
102
RTVSPost2010PropOp46
 70
     0
102
RTVSPost2010Prop47
 90
       50
102
RTVSPost2010PropOp47
 70
     0
102
RTVSPost2010Prop48
 90
       50
102
RTVSPost2010PropOp48
 70
     0
102
RTVSPost2010Prop49
280
     0
102
RTVSPost2010PropOp49
 70
     0
102
RTVSPost2010Prop50
 90
       50
102
RTVSPost2010PropOp50
 70
     0
102
RTVSPost2010Prop51ColorIndex
 90
      256
102
RTVSPost2010Prop51ColorRGB
 90
-16777216
102
RTVSPost2010PropOp51
 70
     0
102
RTVSPost2010Prop52
140
1.0
102
RTVSPost2010PropOp52
 70
     0
102
RTVSPost2010Prop53
 90
        2
102
RTVSPost2010PropOp53
 70
     0
102
RTVSPost2010Prop54
  1
strokes_ogs.tif
102
RTVSPost2010PropOp54
 70
     0
102
RTVSPost2010Prop55
280
     0
102
RTVSPost2010PropOp55
 70
     0
102
RTVSPost2010Prop56
140
1.0
102
RTVSPost2010PropOp56
 70
     0
102
RTVSPost2010Prop57
140
1.0
102
RTVSPost2010PropOp57
 70
     0
  0
XRECORD
  5
38B
102
{ACAD_REACTORS
330
38A
102
}
330
38A
100
AcDbXrecord
280
     1
102
RTVSPropertyOp0
 70
     1
102
RTVSPropertyOp1
 70
     1
102
RTVSPropertyOp2
 70
     1
102
RTVSPropertyOp3
 70
     1
102
RTVSPropertyOp4
 70
     1
102
RTVSPropertyOp5
 70
     1
102
RTVSPropertyOp6
 70
     1
102
RTVSPropertyOp7
 70
     1
102
RTVSPropertyOp8
 70
     1
102
RTVSPropertyOp9
 70
     1
102
RTVSPropertyOp10
 70
     1
102
RTVSPropertyOp11
 70
     1
102
RTVSPropertyOp12
 70
     1
102
RTVSPropertyOp13
 70
     1
102
RTVSPropertyOp14
 70
     1
102
RTVSPropertyOp15
 70
     1
102
RTVSPropertyOp16
 70
     1
102
RTVSPropertyOp17
 70
     1
102
RTVSPropertyOp18
 70
     1
102
RTVSPropertyOp19
 70
     1
102
RTVSPropertyOp20
 70
     1
102
RTVSPropertyOp21
 70
     1
102
RTVSPropertyOp22
 70
     1
102
RTVSPropertyOp23
 70
     1
102
RTVSPropertyOp24
 70
     1
102
RTVSPropertyOp25
 70
     1
102
RTVSPropertyOp26
 70
     1
102
RTVSPropertyOp27
 70
     1
102
RTVSPropertyOp28
 70
     1
102
RTVSPropertyOp29
 70
     1
102
RTVSPropertyOp30
 70
     1
102
RTVSPropertyOp31
 70
     1
102
RTVSPropertyOp32
 70
     1
102
RTVSPropertyOp33
 70
     1
102
RTVSPropertyOp34
 70
     1
102
RTVSPropertyOp35
 70
     1
102
RTVSPropertyOp36
 70
     1
102
RTVSPropertyOp37
 70
     1
102
RTVSPropertyOp38
 70
     1
102
RTVSPropertyOp39
 70
     1
102
RTVSPropertyOp40
 70
     1
102
RTVSPropertyOp41
 70
     1
102
RTVSPropertyOp42
 70
     1
102
RTVSPropertyOp43
 70
     1
102
RTVSPropertyOp44
 70
     1
102
RTVSPropertyOp45
 70
     1
102
RTVSPropertyOp46
 70
     1
102
RTVSPropertyOp47
 70
     1
102
RTVSPropertyOp48
 70
     1
102
RTVSPropertyOp49
 70
     1
102
RTVSPropertyOp50
 70
     1
102
RTVSPropertyOp51
 70
     0
102
RTVSPropertyOp52
 70
     0
102
RTVSPropertyOp53
 70
     1
102
RTVSPropertyOp54
 70
     1
102
RTVSPropertyOp55
 70
     1
102
RTVSPropertyOp56
 70
     1
102
RTVSPropertyOp57
 70
     1
102
RTVSPost2010Prop28
280
     0
102
RTVSPost2010PropOp28
 70
     1
102
RTVSPost2010Prop29
280
     1
102
RTVSPost2010PropOp29
 70
     1
102
RTVSPost2010Prop30
280
     1
102
RTVSPost2010PropOp30
 70
     1
102
RTVSPost2010Prop31
280
     0
102
RTVSPost2010PropOp31
 70
     1
102
RTVSPost2010Prop32
280
     0
102
RTVSPost2010PropOp32
 70
     1
102
RTVSPost2010Prop33
280
     0
102
RTVSPost2010PropOp33
 70
     1
102
RTVSPost2010Prop34
280
     0
102
RTVSPost2010PropOp34
 70
     1
102
RTVSPost2010Prop35
280
     0
102
RTVSPost2010PropOp35
 70
     1
102
RTVSPost2010Prop36
280
     0
102
RTVSPost2010PropOp36
 70
     1
102
RTVSPost2010Prop37
 90
       50
102
RTVSPost2010PropOp37
 70
     1
102
RTVSPost2010Prop38
140
0.0
102
RTVSPost2010PropOp38
 70
     1
102
RTVSPost2010Prop39
140
1.0
102
RTVSPost2010PropOp39
 70
     1
102
RTVSPost2010Prop40
 90
        0
102
RTVSPost2010PropOp40
 70
     1
102
RTVSPost2010Prop41ColorIndex
 90
       18
102
RTVSPost2010Prop41ColorRGB
 90
        0
102
RTVSPost2010PropOp41
 70
     1
102
RTVSPost2010Prop42
 90
       50
102
RTVSPost2010PropOp42
 70
     1
102
RTVSPost2010Prop43
 90
        3
102
RTVSPost2010PropOp43
 70
     1
102
RTVSPost2010Prop44ColorIndex
 90
        5
102
RTVSPost2010Prop44ColorRGB
 90
      255
102
RTVSPost2010PropOp44
 70
     1
102
RTVSPost2010Prop45
280
     0
102
RTVSPost2010PropOp45
 70
     1
102
RTVSPost2010Prop46
 90
       50
102
RTVSPost2010PropOp46
 70
     1
102
RTVSPost2010Prop47
 90
       50
102
RTVSPost2010PropOp47
 70
     1
102
RTVSPost2010Prop48
 90
       50
102
RTVSPost2010PropOp48
 70
     1
102
RTVSPost2010Prop49
280
     0
102
RTVSPost2010PropOp49
 70
     1
102
RTVSPost2010Prop50
 90
       50
102
RTVSPost2010PropOp50
 70
     1
102
RTVSPost2010Prop51ColorIndex
 90
      256
102
RTVSPost2010Prop51ColorRGB
 90
-16777216
102
RTVSPost2010PropOp51
 70
     0
102
RTVSPost2010Prop52
140
1.0
102
RTVSPost2010PropOp52
 70
     0
102
RTVSPost2010Prop53
 90
        2
102
RTVSPost2010PropOp53
 70
     1
102
RTVSPost2010Prop54
  1
strokes_ogs.tif
102
RTVSPost2010PropOp54
 70
     1
102
RTVSPost2010Prop55
280
     0
102
RTVSPost2010PropOp55
 70
     1
102
RTVSPost2010Prop56
140
1.0
102
RTVSPost2010PropOp56
 70
     1
102
RTVSPost2010Prop57
140
1.0
102
RTVSPost2010PropOp57
 70
     1
  0
XRECORD
  5
3A9
102
{ACAD_REACTORS
330
3A8
102
}
330
3A8
100
AcDbXrecord
280
     1
102
RTVSPropertyOp0
 70
     1
102
RTVSPropertyOp1
 70
     1
102
RTVSPropertyOp2
 70
     1
102
RTVSPropertyOp3
 70
     1
102
RTVSPropertyOp4
 70
     1
102
RTVSPropertyOp5
 70
     1
102
RTVSPropertyOp6
 70
     1
102
RTVSPropertyOp7
 70
     1
102
RTVSPropertyOp8
 70
     1
102
RTVSPropertyOp9
 70
     1
102
RTVSPropertyOp10
 70
     1
102
RTVSPropertyOp11
 70
     1
102
RTVSPropertyOp12
 70
     1
102
RTVSPropertyOp13
 70
     1
102
RTVSPropertyOp14
 70
     1
102
RTVSPropertyOp15
 70
     1
102
RTVSPropertyOp16
 70
     1
102
RTVSPropertyOp17
 70
     1
102
RTVSPropertyOp18
 70
     1
102
RTVSPropertyOp19
 70
     1
102
RTVSPropertyOp20
 70
     1
102
RTVSPropertyOp21
 70
     1
102
RTVSPropertyOp22
 70
     1
102
RTVSPropertyOp23
 70
     1
102
RTVSPropertyOp24
 70
     1
102
RTVSPropertyOp25
 70
     1
102
RTVSPropertyOp26
 70
     1
102
RTVSPropertyOp27
 70
     1
102
RTVSPropertyOp28
 70
     1
102
RTVSPropertyOp29
 70
     1
102
RTVSPropertyOp30
 70
     1
102
RTVSPropertyOp31
 70
     1
102
RTVSPropertyOp32
 70
     1
102
RTVSPropertyOp33
 70
     1
102
RTVSPropertyOp34
 70
     1
102
RTVSPropertyOp35
 70
     1
102
RTVSPropertyOp36
 70
     1
102
RTVSPropertyOp37
 70
     1
102
RTVSPropertyOp38
 70
     1
102
RTVSPropertyOp39
 70
     1
102
RTVSPropertyOp40
 70
     1
102
RTVSPropertyOp41
 70
     1
102
RTVSPropertyOp42
 70
     1
102
RTVSPropertyOp43
 70
     1
102
RTVSPropertyOp44
 70
     1
102
RTVSPropertyOp45
 70
     1
102
RTVSPropertyOp46
 70
     1
102
RTVSPropertyOp47
 70
     1
102
RTVSPropertyOp48
 70
     1
102
RTVSPropertyOp49
 70
     1
102
RTVSPropertyOp50
 70
     1
102
RTVSPropertyOp51
 70
     0
102
RTVSPropertyOp52
 70
     0
102
RTVSPropertyOp53
 70
     1
102
RTVSPropertyOp54
 70
     1
102
RTVSPropertyOp55
 70
     1
102
RTVSPropertyOp56
 70
     1
102
RTVSPropertyOp57
 70
     1
102
RTVSPost2010Prop28
280
     0
102
RTVSPost2010PropOp28
 70
     1
102
RTVSPost2010Prop29
280
     1
102
RTVSPost2010PropOp29
 70
     1
102
RTVSPost2010Prop30
280
     1
102
RTVSPost2010PropOp30
 70
     1
102
RTVSPost2010Prop31
280
     0
102
RTVSPost2010PropOp31
 70
     1
102
RTVSPost2010Prop32
280
     0
102
RTVSPost2010PropOp32
 70
     1
102
RTVSPost2010Prop33
280
     0
102
RTVSPost2010PropOp33
 70
     1
102
RTVSPost2010Prop34
280
     0
102
RTVSPost2010PropOp34
 70
     1
102
RTVSPost2010Prop35
280
     0
102
RTVSPost2010PropOp35
 70
     1
102
RTVSPost2010Prop36
280
     0
102
RTVSPost2010PropOp36
 70
     1
102
RTVSPost2010Prop37
 90
       50
102
RTVSPost2010PropOp37
 70
     1
102
RTVSPost2010Prop38
140
0.0
102
RTVSPost2010PropOp38
 70
     1
102
RTVSPost2010Prop39
140
1.0
102
RTVSPost2010PropOp39
 70
     1
102
RTVSPost2010Prop40
 90
        0
102
RTVSPost2010PropOp40
 70
     1
102
RTVSPost2010Prop41ColorIndex
 90
       18
102
RTVSPost2010Prop41ColorRGB
 90
        0
102
RTVSPost2010PropOp41
 70
     1
102
RTVSPost2010Prop42
 90
       50
102
RTVSPost2010PropOp42
 70
     1
102
RTVSPost2010Prop43
 90
        3
102
RTVSPost2010PropOp43
 70
     1
102
RTVSPost2010Prop44ColorIndex
 90
        5
102
RTVSPost2010Prop44ColorRGB
 90
      255
102
RTVSPost2010PropOp44
 70
     1
102
RTVSPost2010Prop45
280
     0
102
RTVSPost2010PropOp45
 70
     1
102
RTVSPost2010Prop46
 90
       50
102
RTVSPost2010PropOp46
 70
     1
102
RTVSPost2010Prop47
 90
       50
102
RTVSPost2010PropOp47
 70
     1
102
RTVSPost2010Prop48
 90
       50
102
RTVSPost2010PropOp48
 70
     1
102
RTVSPost2010Prop49
280
     0
102
RTVSPost2010PropOp49
 70
     1
102
RTVSPost2010Prop50
 90
       50
102
RTVSPost2010PropOp50
 70
     1
102
RTVSPost2010Prop51ColorIndex
 90
      256
102
RTVSPost2010Prop51ColorRGB
 90
-16777216
102
RTVSPost2010PropOp51
 70
     0
102
RTVSPost2010Prop52
140
1.0
102
RTVSPost2010PropOp52
 70
     0
102
RTVSPost2010Prop53
 90
        2
102
RTVSPost2010PropOp53
 70
     1
102
RTVSPost2010Prop54
  1
strokes_ogs.tif
102
RTVSPost2010PropOp54
 70
     1
102
RTVSPost2010Prop55
280
     0
102
RTVSPost2010PropOp55
 70
     1
102
RTVSPost2010Prop56
140
1.0
102
RTVSPost2010PropOp56
 70
     1
102
RTVSPost2010Prop57
140
1.0
102
RTVSPost2010PropOp57
 70
     1
  0
XRECORD
  5
3A7
102
{ACAD_REACTORS
330
3A6
102
}
330
3A6
100
AcDbXrecord
280
     1
102
RTVSPropertyOp0
 70
     1
102
RTVSPropertyOp1
 70
     1
102
RTVSPropertyOp2
 70
     1
102
RTVSPropertyOp3
 70
     1
102
RTVSPropertyOp4
 70
     1
102
RTVSPropertyOp5
 70
     1
102
RTVSPropertyOp6
 70
     1
102
RTVSPropertyOp7
 70
     1
102
RTVSPropertyOp8
 70
     1
102
RTVSPropertyOp9
 70
     1
102
RTVSPropertyOp10
 70
     1
102
RTVSPropertyOp11
 70
     1
102
RTVSPropertyOp12
 70
     1
102
RTVSPropertyOp13
 70
     1
102
RTVSPropertyOp14
 70
     1
102
RTVSPropertyOp15
 70
     1
102
RTVSPropertyOp16
 70
     1
102
RTVSPropertyOp17
 70
     1
102
RTVSPropertyOp18
 70
     1
102
RTVSPropertyOp19
 70
     1
102
RTVSPropertyOp20
 70
     1
102
RTVSPropertyOp21
 70
     1
102
RTVSPropertyOp22
 70
     1
102
RTVSPropertyOp23
 70
     1
102
RTVSPropertyOp24
 70
     1
102
RTVSPropertyOp25
 70
     1
102
RTVSPropertyOp26
 70
     1
102
RTVSPropertyOp27
 70
     1
102
RTVSPropertyOp28
 70
     1
102
RTVSPropertyOp29
 70
     1
102
RTVSPropertyOp30
 70
     1
102
RTVSPropertyOp31
 70
     1
102
RTVSPropertyOp32
 70
     1
102
RTVSPropertyOp33
 70
     1
102
RTVSPropertyOp34
 70
     1
102
RTVSPropertyOp35
 70
     1
102
RTVSPropertyOp36
 70
     1
102
RTVSPropertyOp37
 70
     1
102
RTVSPropertyOp38
 70
     1
102
RTVSPropertyOp39
 70
     1
102
RTVSPropertyOp40
 70
     1
102
RTVSPropertyOp41
 70
     1
102
RTVSPropertyOp42
 70
     1
102
RTVSPropertyOp43
 70
     1
102
RTVSPropertyOp44
 70
     1
102
RTVSPropertyOp45
 70
     1
102
RTVSPropertyOp46
 70
     1
102
RTVSPropertyOp47
 70
     1
102
RTVSPropertyOp48
 70
     1
102
RTVSPropertyOp49
 70
     1
102
RTVSPropertyOp50
 70
     1
102
RTVSPropertyOp51
 70
     0
102
RTVSPropertyOp52
 70
     0
102
RTVSPropertyOp53
 70
     1
102
RTVSPropertyOp54
 70
     1
102
RTVSPropertyOp55
 70
     1
102
RTVSPropertyOp56
 70
     1
102
RTVSPropertyOp57
 70
     1
102
RTVSPost2010Prop28
280
     0
102
RTVSPost2010PropOp28
 70
     1
102
RTVSPost2010Prop29
280
     1
102
RTVSPost2010PropOp29
 70
     1
102
RTVSPost2010Prop30
280
     1
102
RTVSPost2010PropOp30
 70
     1
102
RTVSPost2010Prop31
280
     0
102
RTVSPost2010PropOp31
 70
     1
102
RTVSPost2010Prop32
280
     0
102
RTVSPost2010PropOp32
 70
     1
102
RTVSPost2010Prop33
280
     0
102
RTVSPost2010PropOp33
 70
     1
102
RTVSPost2010Prop34
280
     0
102
RTVSPost2010PropOp34
 70
     1
102
RTVSPost2010Prop35
280
     0
102
RTVSPost2010PropOp35
 70
     1
102
RTVSPost2010Prop36
280
     0
102
RTVSPost2010PropOp36
 70
     1
102
RTVSPost2010Prop37
 90
       50
102
RTVSPost2010PropOp37
 70
     1
102
RTVSPost2010Prop38
140
0.0
102
RTVSPost2010PropOp38
 70
     1
102
RTVSPost2010Prop39
140
1.0
102
RTVSPost2010PropOp39
 70
     1
102
RTVSPost2010Prop40
 90
        0
102
RTVSPost2010PropOp40
 70
     1
102
RTVSPost2010Prop41ColorIndex
 90
       18
102
RTVSPost2010Prop41ColorRGB
 90
        0
102
RTVSPost2010PropOp41
 70
     1
102
RTVSPost2010Prop42
 90
       50
102
RTVSPost2010PropOp42
 70
     1
102
RTVSPost2010Prop43
 90
        3
102
RTVSPost2010PropOp43
 70
     1
102
RTVSPost2010Prop44ColorIndex
 90
        5
102
RTVSPost2010Prop44ColorRGB
 90
      255
102
RTVSPost2010PropOp44
 70
     1
102
RTVSPost2010Prop45
280
     0
102
RTVSPost2010PropOp45
 70
     1
102
RTVSPost2010Prop46
 90
       50
102
RTVSPost2010PropOp46
 70
     1
102
RTVSPost2010Prop47
 90
       50
102
RTVSPost2010PropOp47
 70
     1
102
RTVSPost2010Prop48
 90
       50
102
RTVSPost2010PropOp48
 70
     1
102
RTVSPost2010Prop49
280
     0
102
RTVSPost2010PropOp49
 70
     1
102
RTVSPost2010Prop50
 90
       50
102
RTVSPost2010PropOp50
 70
     1
102
RTVSPost2010Prop51ColorIndex
 90
      256
102
RTVSPost2010Prop51ColorRGB
 90
-16777216
102
RTVSPost2010PropOp51
 70
     0
102
RTVSPost2010Prop52
140
1.0
102
RTVSPost2010PropOp52
 70
     0
102
RTVSPost2010Prop53
 90
        2
102
RTVSPost2010PropOp53
 70
     1
102
RTVSPost2010Prop54
  1
strokes_ogs.tif
102
RTVSPost2010PropOp54
 70
     1
102
RTVSPost2010Prop55
280
     0
102
RTVSPost2010PropOp55
 70
     1
102
RTVSPost2010Prop56
140
1.0
102
RTVSPost2010PropOp56
 70
     1
102
RTVSPost2010Prop57
140
1.0
102
RTVSPost2010PropOp57
 70
     1
  0
XRECORD
  5
3A1
102
{ACAD_REACTORS
330
3A0
102
}
330
3A0
100
AcDbXrecord
280
     1
102
RTVSPropertyOp0
 70
     1
102
RTVSPropertyOp1
 70
     1
102
RTVSPropertyOp2
 70
     1
102
RTVSPropertyOp3
 70
     1
102
RTVSPropertyOp4
 70
     1
102
RTVSPropertyOp5
 70
     1
102
RTVSPropertyOp6
 70
     1
102
RTVSPropertyOp7
 70
     1
102
RTVSPropertyOp8
 70
     1
102
RTVSPropertyOp9
 70
     1
102
RTVSPropertyOp10
 70
     1
102
RTVSPropertyOp11
 70
     1
102
RTVSPropertyOp12
 70
     1
102
RTVSPropertyOp13
 70
     1
102
RTVSPropertyOp14
 70
     1
102
RTVSPropertyOp15
 70
     1
102
RTVSPropertyOp16
 70
     1
102
RTVSPropertyOp17
 70
     1
102
RTVSPropertyOp18
 70
     1
102
RTVSPropertyOp19
 70
     1
102
RTVSPropertyOp20
 70
     1
102
RTVSPropertyOp21
 70
     1
102
RTVSPropertyOp22
 70
     1
102
RTVSPropertyOp23
 70
     1
102
RTVSPropertyOp24
 70
     1
102
RTVSPropertyOp25
 70
     1
102
RTVSPropertyOp26
 70
     1
102
RTVSPropertyOp27
 70
     1
102
RTVSPropertyOp28
 70
     1
102
RTVSPropertyOp29
 70
     1
102
RTVSPropertyOp30
 70
     1
102
RTVSPropertyOp31
 70
     1
102
RTVSPropertyOp32
 70
     1
102
RTVSPropertyOp33
 70
     1
102
RTVSPropertyOp34
 70
     1
102
RTVSPropertyOp35
 70
     1
102
RTVSPropertyOp36
 70
     1
102
RTVSPropertyOp37
 70
     1
102
RTVSPropertyOp38
 70
     1
102
RTVSPropertyOp39
 70
     1
102
RTVSPropertyOp40
 70
     1
102
RTVSPropertyOp41
 70
     1
102
RTVSPropertyOp42
 70
     1
102
RTVSPropertyOp43
 70
     1
102
RTVSPropertyOp44
 70
     1
102
RTVSPropertyOp45
 70
     1
102
RTVSPropertyOp46
 70
     1
102
RTVSPropertyOp47
 70
     1
102
RTVSPropertyOp48
 70
     1
102
RTVSPropertyOp49
 70
     1
102
RTVSPropertyOp50
 70
     1
102
RTVSPropertyOp51
 70
     0
102
RTVSPropertyOp52
 70
     0
102
RTVSPropertyOp53
 70
     1
102
RTVSPropertyOp54
 70
     1
102
RTVSPropertyOp55
 70
     1
102
RTVSPropertyOp56
 70
     1
102
RTVSPropertyOp57
 70
     1
102
RTVSPost2010Prop28
280
     0
102
RTVSPost2010PropOp28
 70
     1
102
RTVSPost2010Prop29
280
     1
102
RTVSPost2010PropOp29
 70
     1
102
RTVSPost2010Prop30
280
     1
102
RTVSPost2010PropOp30
 70
     1
102
RTVSPost2010Prop31
280
     0
102
RTVSPost2010PropOp31
 70
     1
102
RTVSPost2010Prop32
280
     0
102
RTVSPost2010PropOp32
 70
     1
102
RTVSPost2010Prop33
280
     0
102
RTVSPost2010PropOp33
 70
     1
102
RTVSPost2010Prop34
280
     0
102
RTVSPost2010PropOp34
 70
     1
102
RTVSPost2010Prop35
280
     0
102
RTVSPost2010PropOp35
 70
     1
102
RTVSPost2010Prop36
280
     0
102
RTVSPost2010PropOp36
 70
     1
102
RTVSPost2010Prop37
 90
       50
102
RTVSPost2010PropOp37
 70
     1
102
RTVSPost2010Prop38
140
0.0
102
RTVSPost2010PropOp38
 70
     1
102
RTVSPost2010Prop39
140
1.0
102
RTVSPost2010PropOp39
 70
     1
102
RTVSPost2010Prop40
 90
        0
102
RTVSPost2010PropOp40
 70
     1
102
RTVSPost2010Prop41ColorIndex
 90
       18
102
RTVSPost2010Prop41ColorRGB
 90
        0
102
RTVSPost2010PropOp41
 70
     1
102
RTVSPost2010Prop42
 90
       50
102
RTVSPost2010PropOp42
 70
     1
102
RTVSPost2010Prop43
 90
        3
102
RTVSPost2010PropOp43
 70
     1
102
RTVSPost2010Prop44ColorIndex
 90
        5
102
RTVSPost2010Prop44ColorRGB
 90
      255
102
RTVSPost2010PropOp44
 70
     1
102
RTVSPost2010Prop45
280
     0
102
RTVSPost2010PropOp45
 70
     1
102
RTVSPost2010Prop46
 90
       50
102
RTVSPost2010PropOp46
 70
     1
102
RTVSPost2010Prop47
 90
       50
102
RTVSPost2010PropOp47
 70
     1
102
RTVSPost2010Prop48
 90
       50
102
RTVSPost2010PropOp48
 70
     1
102
RTVSPost2010Prop49
280
     0
102
RTVSPost2010PropOp49
 70
     1
102
RTVSPost2010Prop50
 90
       50
102
RTVSPost2010PropOp50
 70
     1
102
RTVSPost2010Prop51ColorIndex
 90
      256
102
RTVSPost2010Prop51ColorRGB
 90
-16777216
102
RTVSPost2010PropOp51
 70
     0
102
RTVSPost2010Prop52
140
1.0
102
RTVSPost2010PropOp52
 70
     0
102
RTVSPost2010Prop53
 90
        2
102
RTVSPost2010PropOp53
 70
     1
102
RTVSPost2010Prop54
  1
strokes_ogs.tif
102
RTVSPost2010PropOp54
 70
     1
102
RTVSPost2010Prop55
280
     0
102
RTVSPost2010PropOp55
 70
     1
102
RTVSPost2010Prop56
140
1.0
102
RTVSPost2010PropOp56
 70
     1
102
RTVSPost2010Prop57
140
1.0
102
RTVSPost2010PropOp57
 70
     1
  0
XRECORD
  5
3A3
102
{ACAD_REACTORS
330
3A2
102
}
330
3A2
100
AcDbXrecord
280
     1
102
RTVSPropertyOp0
 70
     1
102
RTVSPropertyOp1
 70
     1
102
RTVSPropertyOp2
 70
     1
102
RTVSPropertyOp3
 70
     1
102
RTVSPropertyOp4
 70
     1
102
RTVSPropertyOp5
 70
     1
102
RTVSPropertyOp6
 70
     1
102
RTVSPropertyOp7
 70
     1
102
RTVSPropertyOp8
 70
     1
102
RTVSPropertyOp9
 70
     1
102
RTVSPropertyOp10
 70
     1
102
RTVSPropertyOp11
 70
     1
102
RTVSPropertyOp12
 70
     1
102
RTVSPropertyOp13
 70
     1
102
RTVSPropertyOp14
 70
     1
102
RTVSPropertyOp15
 70
     1
102
RTVSPropertyOp16
 70
     1
102
RTVSPropertyOp17
 70
     1
102
RTVSPropertyOp18
 70
     1
102
RTVSPropertyOp19
 70
     1
102
RTVSPropertyOp20
 70
     1
102
RTVSPropertyOp21
 70
     1
102
RTVSPropertyOp22
 70
     1
102
RTVSPropertyOp23
 70
     1
102
RTVSPropertyOp24
 70
     1
102
RTVSPropertyOp25
 70
     1
102
RTVSPropertyOp26
 70
     1
102
RTVSPropertyOp27
 70
     1
102
RTVSPropertyOp28
 70
     1
102
RTVSPropertyOp29
 70
     1
102
RTVSPropertyOp30
 70
     1
102
RTVSPropertyOp31
 70
     1
102
RTVSPropertyOp32
 70
     1
102
RTVSPropertyOp33
 70
     1
102
RTVSPropertyOp34
 70
     1
102
RTVSPropertyOp35
 70
     1
102
RTVSPropertyOp36
 70
     1
102
RTVSPropertyOp37
 70
     1
102
RTVSPropertyOp38
 70
     1
102
RTVSPropertyOp39
 70
     1
102
RTVSPropertyOp40
 70
     1
102
RTVSPropertyOp41
 70
     1
102
RTVSPropertyOp42
 70
     1
102
RTVSPropertyOp43
 70
     1
102
RTVSPropertyOp44
 70
     1
102
RTVSPropertyOp45
 70
     1
102
RTVSPropertyOp46
 70
     1
102
RTVSPropertyOp47
 70
     1
102
RTVSPropertyOp48
 70
     1
102
RTVSPropertyOp49
 70
     1
102
RTVSPropertyOp50
 70
     1
102
RTVSPropertyOp51
 70
     0
102
RTVSPropertyOp52
 70
     0
102
RTVSPropertyOp53
 70
     1
102
RTVSPropertyOp54
 70
     1
102
RTVSPropertyOp55
 70
     1
102
RTVSPropertyOp56
 70
     1
102
RTVSPropertyOp57
 70
     1
102
RTVSPost2010Prop28
280
     0
102
RTVSPost2010PropOp28
 70
     1
102
RTVSPost2010Prop29
280
     1
102
RTVSPost2010PropOp29
 70
     1
102
RTVSPost2010Prop30
280
     1
102
RTVSPost2010PropOp30
 70
     1
102
RTVSPost2010Prop31
280
     0
102
RTVSPost2010PropOp31
 70
     1
102
RTVSPost2010Prop32
280
     0
102
RTVSPost2010PropOp32
 70
     1
102
RTVSPost2010Prop33
280
     0
102
RTVSPost2010PropOp33
 70
     1
102
RTVSPost2010Prop34
280
     0
102
RTVSPost2010PropOp34
 70
     1
102
RTVSPost2010Prop35
280
     0
102
RTVSPost2010PropOp35
 70
     1
102
RTVSPost2010Prop36
280
     0
102
RTVSPost2010PropOp36
 70
     1
102
RTVSPost2010Prop37
 90
       50
102
RTVSPost2010PropOp37
 70
     1
102
RTVSPost2010Prop38
140
0.0
102
RTVSPost2010PropOp38
 70
     1
102
RTVSPost2010Prop39
140
1.0
102
RTVSPost2010PropOp39
 70
     1
102
RTVSPost2010Prop40
 90
        0
102
RTVSPost2010PropOp40
 70
     1
102
RTVSPost2010Prop41ColorIndex
 90
       18
102
RTVSPost2010Prop41ColorRGB
 90
        0
102
RTVSPost2010PropOp41
 70
     1
102
RTVSPost2010Prop42
 90
       50
102
RTVSPost2010PropOp42
 70
     1
102
RTVSPost2010Prop43
 90
        3
102
RTVSPost2010PropOp43
 70
     1
102
RTVSPost2010Prop44ColorIndex
 90
        5
102
RTVSPost2010Prop44ColorRGB
 90
      255
102
RTVSPost2010PropOp44
 70
     1
102
RTVSPost2010Prop45
280
     0
102
RTVSPost2010PropOp45
 70
     1
102
RTVSPost2010Prop46
 90
       50
102
RTVSPost2010PropOp46
 70
     1
102
RTVSPost2010Prop47
 90
       50
102
RTVSPost2010PropOp47
 70
     1
102
RTVSPost2010Prop48
 90
       50
102
RTVSPost2010PropOp48
 70
     1
102
RTVSPost2010Prop49
280
     0
102
RTVSPost2010PropOp49
 70
     1
102
RTVSPost2010Prop50
 90
       50
102
RTVSPost2010PropOp50
 70
     1
102
RTVSPost2010Prop51ColorIndex
 90
      256
102
RTVSPost2010Prop51ColorRGB
 90
-16777216
102
RTVSPost2010PropOp51
 70
     0
102
RTVSPost2010Prop52
140
1.0
102
RTVSPost2010PropOp52
 70
     0
102
RTVSPost2010Prop53
 90
        2
102
RTVSPost2010PropOp53
 70
     1
102
RTVSPost2010Prop54
  1
strokes_ogs.tif
102
RTVSPost2010PropOp54
 70
     1
102
RTVSPost2010Prop55
280
     0
102
RTVSPost2010PropOp55
 70
     1
102
RTVSPost2010Prop56
140
1.0
102
RTVSPost2010PropOp56
 70
     1
102
RTVSPost2010Prop57
140
1.0
102
RTVSPost2010PropOp57
 70
     1
  0
XRECORD
  5
393
102
{ACAD_REACTORS
330
392
102
}
330
392
100
AcDbXrecord
280
     1
102
RTVSPropertyOp0
 70
     1
102
RTVSPropertyOp1
 70
     1
102
RTVSPropertyOp2
 70
     1
102
RTVSPropertyOp3
 70
     1
102
RTVSPropertyOp4
 70
     1
102
RTVSPropertyOp5
 70
     1
102
RTVSPropertyOp6
 70
     1
102
RTVSPropertyOp7
 70
     1
102
RTVSPropertyOp8
 70
     1
102
RTVSPropertyOp9
 70
     1
102
RTVSPropertyOp10
 70
     1
102
RTVSPropertyOp11
 70
     1
102
RTVSPropertyOp12
 70
     1
102
RTVSPropertyOp13
 70
     1
102
RTVSPropertyOp14
 70
     1
102
RTVSPropertyOp15
 70
     1
102
RTVSPropertyOp16
 70
     1
102
RTVSPropertyOp17
 70
     1
102
RTVSPropertyOp18
 70
     1
102
RTVSPropertyOp19
 70
     1
102
RTVSPropertyOp20
 70
     1
102
RTVSPropertyOp21
 70
     1
102
RTVSPropertyOp22
 70
     1
102
RTVSPropertyOp23
 70
     1
102
RTVSPropertyOp24
 70
     1
102
RTVSPropertyOp25
 70
     1
102
RTVSPropertyOp26
 70
     1
102
RTVSPropertyOp27
 70
     1
102
RTVSPropertyOp28
 70
     1
102
RTVSPropertyOp29
 70
     1
102
RTVSPropertyOp30
 70
     1
102
RTVSPropertyOp31
 70
     1
102
RTVSPropertyOp32
 70
     1
102
RTVSPropertyOp33
 70
     1
102
RTVSPropertyOp34
 70
     1
102
RTVSPropertyOp35
 70
     1
102
RTVSPropertyOp36
 70
     1
102
RTVSPropertyOp37
 70
     1
102
RTVSPropertyOp38
 70
     1
102
RTVSPropertyOp39
 70
     1
102
RTVSPropertyOp40
 70
     1
102
RTVSPropertyOp41
 70
     1
102
RTVSPropertyOp42
 70
     1
102
RTVSPropertyOp43
 70
     1
102
RTVSPropertyOp44
 70
     1
102
RTVSPropertyOp45
 70
     1
102
RTVSPropertyOp46
 70
     1
102
RTVSPropertyOp47
 70
     1
102
RTVSPropertyOp48
 70
     1
102
RTVSPropertyOp49
 70
     1
102
RTVSPropertyOp50
 70
     1
102
RTVSPropertyOp51
 70
     0
102
RTVSPropertyOp52
 70
     0
102
RTVSPropertyOp53
 70
     1
102
RTVSPropertyOp54
 70
     1
102
RTVSPropertyOp55
 70
     1
102
RTVSPropertyOp56
 70
     1
102
RTVSPropertyOp57
 70
     1
102
RTVSPost2010Prop28
280
     0
102
RTVSPost2010PropOp28
 70
     1
102
RTVSPost2010Prop29
280
     1
102
RTVSPost2010PropOp29
 70
     1
102
RTVSPost2010Prop30
280
     1
102
RTVSPost2010PropOp30
 70
     1
102
RTVSPost2010Prop31
280
     0
102
RTVSPost2010PropOp31
 70
     1
102
RTVSPost2010Prop32
280
     0
102
RTVSPost2010PropOp32
 70
     1
102
RTVSPost2010Prop33
280
     0
102
RTVSPost2010PropOp33
 70
     1
102
RTVSPost2010Prop34
280
     0
102
RTVSPost2010PropOp34
 70
     1
102
RTVSPost2010Prop35
280
     0
102
RTVSPost2010PropOp35
 70
     1
102
RTVSPost2010Prop36
280
     0
102
RTVSPost2010PropOp36
 70
     1
102
RTVSPost2010Prop37
 90
       50
102
RTVSPost2010PropOp37
 70
     1
102
RTVSPost2010Prop38
140
0.0
102
RTVSPost2010PropOp38
 70
     1
102
RTVSPost2010Prop39
140
1.0
102
RTVSPost2010PropOp39
 70
     1
102
RTVSPost2010Prop40
 90
        0
102
RTVSPost2010PropOp40
 70
     1
102
RTVSPost2010Prop41ColorIndex
 90
       18
102
RTVSPost2010Prop41ColorRGB
 90
        0
102
RTVSPost2010PropOp41
 70
     1
102
RTVSPost2010Prop42
 90
       50
102
RTVSPost2010PropOp42
 70
     1
102
RTVSPost2010Prop43
 90
        3
102
RTVSPost2010PropOp43
 70
     1
102
RTVSPost2010Prop44ColorIndex
 90
        5
102
RTVSPost2010Prop44ColorRGB
 90
      255
102
RTVSPost2010PropOp44
 70
     1
102
RTVSPost2010Prop45
280
     0
102
RTVSPost2010PropOp45
 70
     1
102
RTVSPost2010Prop46
 90
       50
102
RTVSPost2010PropOp46
 70
     1
102
RTVSPost2010Prop47
 90
       50
102
RTVSPost2010PropOp47
 70
     1
102
RTVSPost2010Prop48
 90
       50
102
RTVSPost2010PropOp48
 70
     1
102
RTVSPost2010Prop49
280
     0
102
RTVSPost2010PropOp49
 70
     1
102
RTVSPost2010Prop50
 90
       50
102
RTVSPost2010PropOp50
 70
     1
102
RTVSPost2010Prop51ColorIndex
 90
      256
102
RTVSPost2010Prop51ColorRGB
 90
-16777216
102
RTVSPost2010PropOp51
 70
     0
102
RTVSPost2010Prop52
140
1.0
102
RTVSPost2010PropOp52
 70
     0
102
RTVSPost2010Prop53
 90
        2
102
RTVSPost2010PropOp53
 70
     1
102
RTVSPost2010Prop54
  1
strokes_ogs.tif
102
RTVSPost2010PropOp54
 70
     1
102
RTVSPost2010Prop55
280
     0
102
RTVSPost2010PropOp55
 70
     1
102
RTVSPost2010Prop56
140
1.0
102
RTVSPost2010PropOp56
 70
     1
102
RTVSPost2010Prop57
140
1.0
102
RTVSPost2010PropOp57
 70
     1
  0
XRECORD
  5
385
102
{ACAD_REACTORS
330
384
102
}
330
384
100
AcDbXrecord
280
     1
102
RTVSPropertyOp0
 70
     1
102
RTVSPropertyOp1
 70
     1
102
RTVSPropertyOp2
 70
     1
102
RTVSPropertyOp3
 70
     1
102
RTVSPropertyOp4
 70
     1
102
RTVSPropertyOp5
 70
     1
102
RTVSPropertyOp6
 70
     1
102
RTVSPropertyOp7
 70
     1
102
RTVSPropertyOp8
 70
     1
102
RTVSPropertyOp9
 70
     1
102
RTVSPropertyOp10
 70
     1
102
RTVSPropertyOp11
 70
     1
102
RTVSPropertyOp12
 70
     1
102
RTVSPropertyOp13
 70
     1
102
RTVSPropertyOp14
 70
     1
102
RTVSPropertyOp15
 70
     1
102
RTVSPropertyOp16
 70
     1
102
RTVSPropertyOp17
 70
     1
102
RTVSPropertyOp18
 70
     1
102
RTVSPropertyOp19
 70
     1
102
RTVSPropertyOp20
 70
     1
102
RTVSPropertyOp21
 70
     1
102
RTVSPropertyOp22
 70
     1
102
RTVSPropertyOp23
 70
     1
102
RTVSPropertyOp24
 70
     1
102
RTVSPropertyOp25
 70
     1
102
RTVSPropertyOp26
 70
     1
102
RTVSPropertyOp27
 70
     1
102
RTVSPropertyOp28
 70
     1
102
RTVSPropertyOp29
 70
     1
102
RTVSPropertyOp30
 70
     1
102
RTVSPropertyOp31
 70
     1
102
RTVSPropertyOp32
 70
     1
102
RTVSPropertyOp33
 70
     1
102
RTVSPropertyOp34
 70
     1
102
RTVSPropertyOp35
 70
     1
102
RTVSPropertyOp36
 70
     1
102
RTVSPropertyOp37
 70
     1
102
RTVSPropertyOp38
 70
     1
102
RTVSPropertyOp39
 70
     1
102
RTVSPropertyOp40
 70
     1
102
RTVSPropertyOp41
 70
     1
102
RTVSPropertyOp42
 70
     1
102
RTVSPropertyOp43
 70
     1
102
RTVSPropertyOp44
 70
     1
102
RTVSPropertyOp45
 70
     1
102
RTVSPropertyOp46
 70
     1
102
RTVSPropertyOp47
 70
     1
102
RTVSPropertyOp48
 70
     1
102
RTVSPropertyOp49
 70
     1
102
RTVSPropertyOp50
 70
     1
102
RTVSPropertyOp51
 70
     0
102
RTVSPropertyOp52
 70
     0
102
RTVSPropertyOp53
 70
     1
102
RTVSPropertyOp54
 70
     1
102
RTVSPropertyOp55
 70
     1
102
RTVSPropertyOp56
 70
     1
102
RTVSPropertyOp57
 70
     1
102
RTVSPost2010Prop28
280
     0
102
RTVSPost2010PropOp28
 70
     1
102
RTVSPost2010Prop29
280
     1
102
RTVSPost2010PropOp29
 70
     1
102
RTVSPost2010Prop30
280
     1
102
RTVSPost2010PropOp30
 70
     1
102
RTVSPost2010Prop31
280
     0
102
RTVSPost2010PropOp31
 70
     1
102
RTVSPost2010Prop32
280
     0
102
RTVSPost2010PropOp32
 70
     1
102
RTVSPost2010Prop33
280
     0
102
RTVSPost2010PropOp33
 70
     1
102
RTVSPost2010Prop34
280
     0
102
RTVSPost2010PropOp34
 70
     1
102
RTVSPost2010Prop35
280
     0
102
RTVSPost2010PropOp35
 70
     1
102
RTVSPost2010Prop36
280
     0
102
RTVSPost2010PropOp36
 70
     1
102
RTVSPost2010Prop37
 90
       50
102
RTVSPost2010PropOp37
 70
     1
102
RTVSPost2010Prop38
140
0.0
102
RTVSPost2010PropOp38
 70
     1
102
RTVSPost2010Prop39
140
1.0
102
RTVSPost2010PropOp39
 70
     1
102
RTVSPost2010Prop40
 90
        0
102
RTVSPost2010PropOp40
 70
     1
102
RTVSPost2010Prop41ColorIndex
 90
       18
102
RTVSPost2010Prop41ColorRGB
 90
        0
102
RTVSPost2010PropOp41
 70
     1
102
RTVSPost2010Prop42
 90
       50
102
RTVSPost2010PropOp42
 70
     1
102
RTVSPost2010Prop43
 90
        3
102
RTVSPost2010PropOp43
 70
     1
102
RTVSPost2010Prop44ColorIndex
 90
        5
102
RTVSPost2010Prop44ColorRGB
 90
      255
102
RTVSPost2010PropOp44
 70
     1
102
RTVSPost2010Prop45
280
     0
102
RTVSPost2010PropOp45
 70
     1
102
RTVSPost2010Prop46
 90
       50
102
RTVSPost2010PropOp46
 70
     1
102
RTVSPost2010Prop47
 90
       50
102
RTVSPost2010PropOp47
 70
     1
102
RTVSPost2010Prop48
 90
       50
102
RTVSPost2010PropOp48
 70
     1
102
RTVSPost2010Prop49
280
     0
102
RTVSPost2010PropOp49
 70
     1
102
RTVSPost2010Prop50
 90
       50
102
RTVSPost2010PropOp50
 70
     1
102
RTVSPost2010Prop51ColorIndex
 90
      256
102
RTVSPost2010Prop51ColorRGB
 90
-16777216
102
RTVSPost2010PropOp51
 70
     0
102
RTVSPost2010Prop52
140
1.0
102
RTVSPost2010PropOp52
 70
     0
102
RTVSPost2010Prop53
 90
        2
102
RTVSPost2010PropOp53
 70
     1
102
RTVSPost2010Prop54
  1
strokes_ogs.tif
102
RTVSPost2010PropOp54
 70
     1
102
RTVSPost2010Prop55
280
     0
102
RTVSPost2010PropOp55
 70
     1
102
RTVSPost2010Prop56
140
1.0
102
RTVSPost2010PropOp56
 70
     1
102
RTVSPost2010Prop57
140
1.0
102
RTVSPost2010PropOp57
 70
     1
  0
XRECORD
  5
3A5
102
{ACAD_REACTORS
330
3A4
102
}
330
3A4
100
AcDbXrecord
280
     1
102
RTVSPropertyOp0
 70
     1
102
RTVSPropertyOp1
 70
     1
102
RTVSPropertyOp2
 70
     1
102
RTVSPropertyOp3
 70
     1
102
RTVSPropertyOp4
 70
     1
102
RTVSPropertyOp5
 70
     1
102
RTVSPropertyOp6
 70
     1
102
RTVSPropertyOp7
 70
     1
102
RTVSPropertyOp8
 70
     1
102
RTVSPropertyOp9
 70
     1
102
RTVSPropertyOp10
 70
     1
102
RTVSPropertyOp11
 70
     1
102
RTVSPropertyOp12
 70
     1
102
RTVSPropertyOp13
 70
     1
102
RTVSPropertyOp14
 70
     1
102
RTVSPropertyOp15
 70
     1
102
RTVSPropertyOp16
 70
     1
102
RTVSPropertyOp17
 70
     1
102
RTVSPropertyOp18
 70
     1
102
RTVSPropertyOp19
 70
     1
102
RTVSPropertyOp20
 70
     1
102
RTVSPropertyOp21
 70
     1
102
RTVSPropertyOp22
 70
     1
102
RTVSPropertyOp23
 70
     1
102
RTVSPropertyOp24
 70
     1
102
RTVSPropertyOp25
 70
     1
102
RTVSPropertyOp26
 70
     1
102
RTVSPropertyOp27
 70
     1
102
RTVSPropertyOp28
 70
     1
102
RTVSPropertyOp29
 70
     1
102
RTVSPropertyOp30
 70
     1
102
RTVSPropertyOp31
 70
     1
102
RTVSPropertyOp32
 70
     1
102
RTVSPropertyOp33
 70
     1
102
RTVSPropertyOp34
 70
     1
102
RTVSPropertyOp35
 70
     1
102
RTVSPropertyOp36
 70
     1
102
RTVSPropertyOp37
 70
     1
102
RTVSPropertyOp38
 70
     1
102
RTVSPropertyOp39
 70
     1
102
RTVSPropertyOp40
 70
     1
102
RTVSPropertyOp41
 70
     1
102
RTVSPropertyOp42
 70
     1
102
RTVSPropertyOp43
 70
     1
102
RTVSPropertyOp44
 70
     1
102
RTVSPropertyOp45
 70
     1
102
RTVSPropertyOp46
 70
     1
102
RTVSPropertyOp47
 70
     1
102
RTVSPropertyOp48
 70
     1
102
RTVSPropertyOp49
 70
     1
102
RTVSPropertyOp50
 70
     1
102
RTVSPropertyOp51
 70
     0
102
RTVSPropertyOp52
 70
     0
102
RTVSPropertyOp53
 70
     1
102
RTVSPropertyOp54
 70
     1
102
RTVSPropertyOp55
 70
     1
102
RTVSPropertyOp56
 70
     1
102
RTVSPropertyOp57
 70
     1
102
RTVSPost2010Prop28
280
     0
102
RTVSPost2010PropOp28
 70
     1
102
RTVSPost2010Prop29
280
     1
102
RTVSPost2010PropOp29
 70
     1
102
RTVSPost2010Prop30
280
     1
102
RTVSPost2010PropOp30
 70
     1
102
RTVSPost2010Prop31
280
     0
102
RTVSPost2010PropOp31
 70
     1
102
RTVSPost2010Prop32
280
     0
102
RTVSPost2010PropOp32
 70
     1
102
RTVSPost2010Prop33
280
     0
102
RTVSPost2010PropOp33
 70
     1
102
RTVSPost2010Prop34
280
     0
102
RTVSPost2010PropOp34
 70
     1
102
RTVSPost2010Prop35
280
     0
102
RTVSPost2010PropOp35
 70
     1
102
RTVSPost2010Prop36
280
     0
102
RTVSPost2010PropOp36
 70
     1
102
RTVSPost2010Prop37
 90
       50
102
RTVSPost2010PropOp37
 70
     1
102
RTVSPost2010Prop38
140
0.0
102
RTVSPost2010PropOp38
 70
     1
102
RTVSPost2010Prop39
140
1.0
102
RTVSPost2010PropOp39
 70
     1
102
RTVSPost2010Prop40
 90
        0
102
RTVSPost2010PropOp40
 70
     1
102
RTVSPost2010Prop41ColorIndex
 90
       18
102
RTVSPost2010Prop41ColorRGB
 90
        0
102
RTVSPost2010PropOp41
 70
     1
102
RTVSPost2010Prop42
 90
       50
102
RTVSPost2010PropOp42
 70
     1
102
RTVSPost2010Prop43
 90
        3
102
RTVSPost2010PropOp43
 70
     1
102
RTVSPost2010Prop44ColorIndex
 90
        5
102
RTVSPost2010Prop44ColorRGB
 90
      255
102
RTVSPost2010PropOp44
 70
     1
102
RTVSPost2010Prop45
280
     0
102
RTVSPost2010PropOp45
 70
     1
102
RTVSPost2010Prop46
 90
       50
102
RTVSPost2010PropOp46
 70
     1
102
RTVSPost2010Prop47
 90
       50
102
RTVSPost2010PropOp47
 70
     1
102
RTVSPost2010Prop48
 90
       50
102
RTVSPost2010PropOp48
 70
     1
102
RTVSPost2010Prop49
280
     0
102
RTVSPost2010PropOp49
 70
     1
102
RTVSPost2010Prop50
 90
       50
102
RTVSPost2010PropOp50
 70
     1
102
RTVSPost2010Prop51ColorIndex
 90
      256
102
RTVSPost2010Prop51ColorRGB
 90
-16777216
102
RTVSPost2010PropOp51
 70
     0
102
RTVSPost2010Prop52
140
1.0
102
RTVSPost2010PropOp52
 70
     0
102
RTVSPost2010Prop53
 90
        2
102
RTVSPost2010PropOp53
 70
     1
102
RTVSPost2010Prop54
  1
strokes_ogs.tif
102
RTVSPost2010PropOp54
 70
     1
102
RTVSPost2010Prop55
280
     0
102
RTVSPost2010PropOp55
 70
     1
102
RTVSPost2010Prop56
140
1.0
102
RTVSPost2010PropOp56
 70
     1
102
RTVSPost2010Prop57
140
1.0
102
RTVSPost2010PropOp57
 70
     1
  0
ENDSEC
  0
EOF
