  0
SECTION
  2
HEADER
  9
$ACADVER
  1
AC1015
  9
$ACADMAINTVER
 70
     6
  9
$DWGCODEPAGE
  3
ANSI_1252
  9
$INSBASE
 10
0.0
 20
0.0
 30
0.0
  9
$EXTMIN
 10
1.000000000000000E+20
 20
1.000000000000000E+20
 30
1.000000000000000E+20
  9
$EXTMAX
 10
-1.000000000000000E+20
 20
-1.000000000000000E+20
 30
-1.000000000000000E+20
  9
$LIMMIN
 10
0.0
 20
0.0
  9
$LIMMAX
 10
420.0
 20
297.0
  9
$ORTHOMODE
 70
     0
  9
$REGENMODE
 70
     1
  9
$FILLMODE
 70
     1
  9
$QTEXTMODE
 70
     0
  9
$MIRRTEXT
 70
     1
  9
$LTSCALE
 40
1.0
  9
$ATTMODE
 70
     1
  9
$TEXTSIZE
 40
3.5
  9
$TRACEWID
 40
1.0
  9
$TEXTSTYLE
  7
Standard
  9
$CLAYER
  8
0
  9
$CELTYPE
  6
ByLayer
  9
$CECOLOR
 62
   256
  9
$CELTSCALE
 40
1.0
  9
$DISPSILH
 70
     0
  9
$DIMSCALE
 40
1.0
  9
$DIMASZ
 40
3.302
  9
$DIMEXO
 40
1.0
  9
$DIMDLI
 40
3.75
  9
$DIMRND
 40
0.0
  9
$DIMDLE
 40
0.0
  9
$DIMEXE
 40
1.0
  9
$DIMTP
 40
0.0
  9
$DIMTM
 40
0.0
  9
$DIMTXT
 40
3.5
  9
$DIMCEN
 40
2.5
  9
$DIMTSZ
 40
0.0
  9
$DIMTOL
 70
     0
  9
$DIMLIM
 70
     0
  9
$DIMTIH
 70
     1
  9
$DIMTOH
 70
     1
  9
$DIMSE1
 70
     0
  9
$DIMSE2
 70
     0
  9
$DIMTAD
 70
     1
  9
$DIMZIN
 70
     0
  9
$DIMBLK
  1

  9
$DIMASO
 70
     1
  9
$DIMSHO
 70
     1
  9
$DIMPOST
  1

  9
$DIMAPOST
  1

  9
$DIMALT
 70
     0
  9
$DIMALTD
 70
     3
  9
$DIMALTF
 40
0.0393700787
  9
$DIMLFAC
 40
1.0
  9
$DIMTOFL
 70
     1
  9
$DIMTVP
 40
0.0
  9
$DIMTIX
 70
     0
  9
$DIMSOXD
 70
     0
  9
$DIMSAH
 70
     0
  9
$DIMBLK1
  1

  9
$DIMBLK2
  1

  9
$DIMSTYLE
  2
ISO-25
  9
$DIMCLRD
 70
     0
  9
$DIMCLRE
 70
     0
  9
$DIMCLRT
 70
     0
  9
$DIMTFAC
 40
1.0
  9
$DIMGAP
 40
1.524
  9
$DIMJUST
 70
     0
  9
$DIMSD1
 70
     0
  9
$DIMSD2
 70
     0
  9
$DIMTOLJ
 70
     0
  9
$DIMTZIN
 70
     0
  9
$DIMALTZ
 70
     0
  9
$DIMALTTZ
 70
     0
  9
$DIMUPT
 70
     0
  9
$DIMDEC
 70
     2
  9
$DIMTDEC
 70
     2
  9
$DIMALTU
 70
     2
  9
$DIMALTTD
 70
     3
  9
$DIMTXSTY
  7
Standard
  9
$DIMAUNIT
 70
     0
  9
$DIMADEC
 70
     2
  9
$DIMALTRND
 40
0.0
  9
$DIMAZIN
 70
     0
  9
$DIMDSEP
 70
    44
  9
$DIMATFIT
 70
     3
  9
$DIMFRAC
 70
     0
  9
$DIMLDRBLK
  1

  9
$DIMLUNIT
 70
     2
  9
$DIMLWD
 70
    -2
  9
$DIMLWE
 70
    -2
  9
$DIMTMOVE
 70
     0
  9
$LUNITS
 70
     2
  9
$LUPREC
 70
     2
  9
$SKETCHINC
 40
1.0
  9
$FILLETRAD
 40
10.0
  9
$AUNITS
 70
     0
  9
$AUPREC
 70
     2
  9
$MENU
  1
.
  9
$ELEVATION
 40
0.0
  9
$PELEVATION
 40
0.0
  9
$THICKNESS
 40
0.0
  9
$LIMCHECK
 70
     0
  9
$CHAMFERA
 40
0.0
  9
$CHAMFERB
 40
0.0
  9
$CHAMFERC
 40
0.0
  9
$CHAMFERD
 40
0.0
  9
$SKPOLY
 70
     0
  9
$TDCREATE
 40
2457517.832704942
  9
$TDUCREATE
 40
2457517.749371609
  9
$TDUPDATE
 40
2457518.724762894
  9
$TDUUPDATE
 40
2457518.64142956
  9
$TDINDWG
 40
0.0054167014
  9
$TDUSRTIMER
 40
2457518.634791609
  9
$USRTIMER
 70
     1
  9
$ANGBASE
 50
0.0
  9
$ANGDIR
 70
     0
  9
$PDMODE
 70
     0
  9
$PDSIZE
 40
-1.0
  9
$PLINEWID
 40
0.0
  9
$SPLFRAME
 70
     0
  9
$SPLINETYPE
 70
     6
  9
$SPLINESEGS
 70
     8
  9
$HANDSEED
  5
947
  9
$SURFTAB1
 70
     6
  9
$SURFTAB2
 70
     6
  9
$SURFTYPE
 70
     6
  9
$SURFU
 70
     6
  9
$SURFV
 70
     6
  9
$UCSBASE
  2

  9
$UCSNAME
  2

  9
$UCSORG
 10
0.0
 20
0.0
 30
0.0
  9
$UCSXDIR
 10
1.0
 20
0.0
 30
0.0
  9
$UCSYDIR
 10
0.0
 20
1.0
 30
0.0
  9
$UCSORTHOREF
  2

  9
$UCSORTHOVIEW
 70
     0
  9
$UCSORGTOP
 10
0.0
 20
0.0
 30
0.0
  9
$UCSORGBOTTOM
 10
0.0
 20
0.0
 30
0.0
  9
$UCSORGLEFT
 10
0.0
 20
0.0
 30
0.0
  9
$UCSORGRIGHT
 10
0.0
 20
0.0
 30
0.0
  9
$UCSORGFRONT
 10
0.0
 20
0.0
 30
0.0
  9
$UCSORGBACK
 10
0.0
 20
0.0
 30
0.0
  9
$PUCSBASE
  2

  9
$PUCSNAME
  2

  9
$PUCSORG
 10
0.0
 20
0.0
 30
0.0
  9
$PUCSXDIR
 10
1.0
 20
0.0
 30
0.0
  9
$PUCSYDIR
 10
0.0
 20
1.0
 30
0.0
  9
$PUCSORTHOREF
  2

  9
$PUCSORTHOVIEW
 70
     0
  9
$PUCSORGTOP
 10
0.0
 20
0.0
 30
0.0
  9
$PUCSORGBOTTOM
 10
0.0
 20
0.0
 30
0.0
  9
$PUCSORGLEFT
 10
0.0
 20
0.0
 30
0.0
  9
$PUCSORGRIGHT
 10
0.0
 20
0.0
 30
0.0
  9
$PUCSORGFRONT
 10
0.0
 20
0.0
 30
0.0
  9
$PUCSORGBACK
 10
0.0
 20
0.0
 30
0.0
  9
$USERI1
 70
     0
  9
$USERI2
 70
     0
  9
$USERI3
 70
     0
  9
$USERI4
 70
     0
  9
$USERI5
 70
     0
  9
$USERR1
 40
0.0
  9
$USERR2
 40
0.0
  9
$USERR3
 40
0.0
  9
$USERR4
 40
0.0
  9
$USERR5
 40
0.0
  9
$WORLDVIEW
 70
     1
  9
$SHADEDGE
 70
     3
  9
$SHADEDIF
 70
    70
  9
$TILEMODE
 70
     1
  9
$MAXACTVP
 70
    64
  9
$PINSBASE
 10
0.0
 20
0.0
 30
0.0
  9
$PLIMCHECK
 70
     0
  9
$PEXTMIN
 10
1.000000000000000E+20
 20
1.000000000000000E+20
 30
1.000000000000000E+20
  9
$PEXTMAX
 10
-1.000000000000000E+20
 20
-1.000000000000000E+20
 30
-1.000000000000000E+20
  9
$PLIMMIN
 10
0.0
 20
0.0
  9
$PLIMMAX
 10
0.0
 20
0.0
  9
$UNITMODE
 70
     0
  9
$VISRETAIN
 70
     1
  9
$PLINEGEN
 70
     0
  9
$PSLTSCALE
 70
     1
  9
$TREEDEPTH
 70
  3020
  9
$CMLSTYLE
  2
Standard
  9
$CMLJUST
 70
     0
  9
$CMLSCALE
 40
20.0
  9
$PROXYGRAPHICS
 70
     1
  9
$MEASUREMENT
 70
     1
  9
$CELWEIGHT
370
    -1
  9
$ENDCAPS
280
     0
  9
$JOINSTYLE
280
     0
  9
$LWDISPLAY
290
     1
  9
$INSUNITS
 70
     4
  9
$HYPERLINKBASE
  1

  9
$STYLESHEET
  1

  9
$XEDIT
290
     1
  9
$CEPSNTYPE
380
     0
  9
$PSTYLEMODE
290
     1
  9
$FINGERPRINTGUID
  2
{5930ECFA-7E4F-4645-879A-A62ECCBC1D3D}
  9
$VERSIONGUID
  2
{FAEB1C32-E019-11D5-929B-00C0DF256EC4}
  9
$EXTNAMES
290
     1
  9
$PSVPSCALE
 40
0.0
  9
$OLESTARTUP
290
     0
  0
ENDSEC
  0
SECTION
  2
CLASSES
  0
CLASS
  1
ACDBDICTIONARYWDFLT
  2
AcDbDictionaryWithDefault
  3
ObjectDBX Classes
 90
        0
280
     0
281
     0
  0
CLASS
  1
VISUALSTYLE
  2
AcDbVisualStyle
  3
ObjectDBX Classes
 90
     4095
280
     0
281
     0
  0
CLASS
  1
MATERIAL
  2
AcDbMaterial
  3
ObjectDBX Classes
 90
     1153
280
     0
281
     0
  0
CLASS
  1
SCALE
  2
AcDbScale
  3
ObjectDBX Classes
 90
     1153
280
     0
281
     0
  0
CLASS
  1
TABLESTYLE
  2
AcDbTableStyle
  3
ObjectDBX Classes
 90
     4095
280
     0
281
     0
  0
CLASS
  1
MLEADERSTYLE
  2
AcDbMLeaderStyle
  3
ACDB_MLEADERSTYLE_CLASS
 90
     4095
280
     0
281
     0
  0
CLASS
  1
SUN
  2
AcDbSun
  3
SCENEOE
 90
     1153
280
     0
281
     0
  0
CLASS
  1
ACDBPLACEHOLDER
  2
AcDbPlaceHolder
  3
ObjectDBX Classes
 90
        0
280
     0
281
     0
  0
CLASS
  1
LAYOUT
  2
AcDbLayout
  3
ObjectDBX Classes
 90
        0
280
     0
281
     0
  0
CLASS
  1
RASTERVARIABLES
  2
AcDbRasterVariables
  3
ISM
 90
        0
280
     0
281
     0
  0
CLASS
  1
DICTIONARYVAR
  2
AcDbDictionaryVar
  3
ObjectDBX Classes
 90
        0
280
     0
281
     0
  0
ENDSEC
  0
SECTION
  2
TABLES
  0
TABLE
  2
VPORT
  5
8
330
0
100
AcDbSymbolTable
 70
     1
  0
VPORT
  5
29
330
8
100
AcDbSymbolTableRecord
100
AcDbViewportTableRecord
  2
*Active
 70
     0
 10
0.0
 20
0.0
 11
1.0
 21
1.0
 12
413.2388230618366
 22
36.29479052031512
 13
0.0
 23
0.0
 14
10.0
 24
10.0
 15
10.0
 25
10.0
 16
0.0
 26
0.0
 36
1.0
 17
0.0
 27
0.0
 37
0.0
 40
577.9980025721017
 41
2.055666003976143
 42
50.0
 43
0.0
 44
0.0
 50
0.0
 51
0.0
 71
    16
 72
   100
 73
     1
 74
     3
 75
     0
 76
     0
 77
     0
 78
     0
281
     0
 65
     1
110
0.0
120
0.0
130
0.0
111
1.0
121
0.0
131
0.0
112
0.0
122
1.0
132
0.0
 79
     0
146
0.0
  0
ENDTAB
  0
TABLE
  2
LTYPE
  5
5
330
0
100
AcDbSymbolTable
 70
     6
  0
LTYPE
  5
14
330
5
100
AcDbSymbolTableRecord
100
AcDbLinetypeTableRecord
  2
ByBlock
 70
     0
  3

 72
    65
 73
     0
 40
0.0
  0
LTYPE
  5
15
330
5
100
AcDbSymbolTableRecord
100
AcDbLinetypeTableRecord
  2
ByLayer
 70
     0
  3

 72
    65
 73
     0
 40
0.0
  0
LTYPE
  5
16
330
5
100
AcDbSymbolTableRecord
100
AcDbLinetypeTableRecord
  2
Continuous
 70
     0
  3
Solid line
 72
    65
 73
     0
 40
0.0
  0
LTYPE
  5
6E
330
5
100
AcDbSymbolTableRecord
100
AcDbLinetypeTableRecord
  2
HIDDEN
 70
     0
  3
Hidden __ __ __ __ __ __ __ __ __ __ __ __ __ __
 72
    65
 73
     2
 40
1.905
 49
1.27
 74
     0
 49
-0.635
 74
     0
  0
LTYPE
  5
6F
330
5
100
AcDbSymbolTableRecord
100
AcDbLinetypeTableRecord
  2
PHANTOM
 70
     0
  3
Phantom ______  __  __  ______  __  __  ______
 72
    65
 73
     6
 40
12.7
 49
6.35
 74
     0
 49
-1.27
 74
     0
 49
1.27
 74
     0
 49
-1.27
 74
     0
 49
1.27
 74
     0
 49
-1.27
 74
     0
  0
LTYPE
  5
70
330
5
100
AcDbSymbolTableRecord
100
AcDbLinetypeTableRecord
  2
CENTER
 70
     0
  3
Center ____ _ ____ _ ____ _ ____ _ ____ _ ____
 72
    65
 73
     4
 40
10.16
 49
6.35
 74
     0
 49
-1.27
 74
     0
 49
1.27
 74
     0
 49
-1.27
 74
     0
  0
LTYPE
  5
71
330
5
100
AcDbSymbolTableRecord
100
AcDbLinetypeTableRecord
  2
CENTERX2
 70
     0
  3
Center (2x) ________  __  ________  __  _____
 72
    65
 73
     4
 40
20.32
 49
12.7
 74
     0
 49
-2.54
 74
     0
 49
2.54
 74
     0
 49
-2.54
 74
     0
  0
LTYPE
  5
72
330
5
100
AcDbSymbolTableRecord
100
AcDbLinetypeTableRecord
  2
DOT2
 70
     0
  3
Dot (.5x) ........................................
 72
    65
 73
     2
 40
0.635
 49
0.0
 74
     0
 49
-0.635
 74
     0
  0
ENDTAB
  0
TABLE
  2
LAYER
  5
2
330
0
100
AcDbSymbolTable
 70
     1
  0
LAYER
  5
10
330
2
100
AcDbSymbolTableRecord
100
AcDbLayerTableRecord
  2
0
 70
     0
 62
     7
  6
Continuous
370
    -3
390
F
  0
ENDTAB
  0
TABLE
  2
STYLE
  5
3
330
0
100
AcDbSymbolTable
 70
     1
  0
STYLE
  5
11
330
3
100
AcDbSymbolTableRecord
100
AcDbTextStyleTableRecord
  2
Standard
 70
     0
 40
0.0
 41
1.0
 50
0.0
 71
     0
 42
3.5
  3
txt
  4

  0
ENDTAB
  0
TABLE
  2
VIEW
  5
6
330
0
100
AcDbSymbolTable
 70
     0
  0
ENDTAB
  0
TABLE
  2
UCS
  5
7
330
0
100
AcDbSymbolTable
 70
     0
  0
ENDTAB
  0
TABLE
  2
APPID
  5
9
330
0
100
AcDbSymbolTable
 70
     1
  0
APPID
  5
12
330
9
100
AcDbSymbolTableRecord
100
AcDbRegAppTableRecord
  2
ACAD
 70
     0
  0
ENDTAB
  0
TABLE
  2
DIMSTYLE
  5
A
330
0
100
AcDbSymbolTable
 70
     1
100
AcDbDimStyleTable
  0
DIMSTYLE
105
27
330
A
100
AcDbSymbolTableRecord
100
AcDbDimStyleTableRecord
  2
ISO-25
 70
     0
 41
2.5
 42
0.625
 43
3.75
 44
1.25
 73
     0
 74
     0
 77
     1
 78
     8
140
2.5
141
2.5
143
0.0393700787
147
0.625
171
     3
172
     1
178
     0
271
     2
272
     2
274
     3
278
    44
283
     0
284
     8
340
11
  0
ENDTAB
  0
TABLE
  2
BLOCK_RECORD
  5
1
330
0
100
AcDbSymbolTable
 70
    11
  0
BLOCK_RECORD
  5
1F
330
1
100
AcDbSymbolTableRecord
100
AcDbBlockTableRecord
  2
*Model_Space
340
22
  0
BLOCK_RECORD
  5
1B
330
1
100
AcDbSymbolTableRecord
100
AcDbBlockTableRecord
  2
*Paper_Space
340
1E
  0
BLOCK_RECORD
  5
23
330
1
100
AcDbSymbolTableRecord
100
AcDbBlockTableRecord
  2
*Paper_Space0
340
26
  0
BLOCK_RECORD
  5
121
330
1
100
AcDbSymbolTableRecord
100
AcDbBlockTableRecord
  2
bottom
340
0
102
{BLKREFS
331
0
331
14F
331
0
102
}
  0
BLOCK_RECORD
  5
15F
330
1
100
AcDbSymbolTableRecord
100
AcDbBlockTableRecord
  2
top
340
0
102
{BLKREFS
331
0
102
}
  0
ENDTAB
  0
ENDSEC
  0
SECTION
  2
BLOCKS
  0
BLOCK
  5
20
330
1F
100
AcDbEntity
  8
0
100
AcDbBlockBegin
  2
*Model_Space
 70
     0
 10
0.0
 20
0.0
 30
0.0
  3
*Model_Space
  1
*Model_Space
  0
ENDBLK
  5
21
330
1F
100
AcDbEntity
  8
0
100
AcDbBlockEnd
  0
BLOCK
  5
1C
330
1B
100
AcDbEntity
 67
     1
  8
0
100
AcDbBlockBegin
  2
*Paper_Space
 70
     0
 10
0.0
 20
0.0
 30
0.0
  3
*Paper_Space
  1
*Paper_Space
  0
ENDBLK
  5
1D
330
1B
100
AcDbEntity
 67
     1
  8
0
100
AcDbBlockEnd
  0
BLOCK
  5
24
330
23
100
AcDbEntity
  8
0
100
AcDbBlockBegin
  2
*Paper_Space0
 70
     0
 10
0.0
 20
0.0
 30
0.0
  3
*Paper_Space0
  1
*Paper_Space0
  0
ENDBLK
  5
25
330
23
100
AcDbEntity
  8
0
100
AcDbBlockEnd
  0
BLOCK
  5
12A
330
121
100
AcDbEntity
  8
0
100
AcDbBlockBegin
  2
bottom
 70
     0
 10
0.0
 20
0.0
 30
0.0
  3
bottom
  1
bottom
  0
SPLINE
  5
122
330
121
100
AcDbEntity
  8
0
  6
Continuous
 62
     7
370
    15
100
AcDbSpline
210
0.0
220
0.0
230
1.0
 70
     8
 71
     3
 72
     9
 73
     5
 74
     0
 42
0.000000001
 43
0.00000001
 40
0.3925289326755336
 40
0.3925289326755336
 40
0.3925289326755336
 40
0.3925289326755336
 40
0.4999999999999997
 40
0.6074710673244659
 40
0.6074710673244659
 40
0.6074710673244659
 40
0.6074710673244659
 10
34.57011573070213
 20
-4.678324972349102
 30
0.0
 10
23.04674382046808
 20
-4.884499696881393
 30
0.0
 10
0.0000000000000052
 20
-5.115500303118595
 30
0.0
 10
-23.04674382046808
 20
-4.884499696881401
 30
0.0
 10
-34.57011573070213
 20
-4.678324972349116
 30
0.0
  0
SPLINE
  5
123
330
121
100
AcDbEntity
  8
0
  6
Continuous
 62
     7
370
    15
100
AcDbSpline
210
0.0
220
0.0
230
1.0
 70
     8
 71
     3
 72
    12
 73
     8
 74
     0
 42
0.000000001
 43
0.00000001
 40
0.6074710673244659
 40
0.6074710673244659
 40
0.6074710673244659
 40
0.6074710673244659
 40
0.9166738891634489
 40
0.9166738891634489
 40
0.9305425316982839
 40
0.9305425316982839
 40
1.0
 40
1.0
 40
1.0
 40
1.0
 10
-34.57011573070213
 20
-4.678324972349116
 30
0.0
 10
-60.20883301007426
 20
-25.25157137913748
 30
0.0
 10
-85.84755028944646
 20
-45.07425234044491
 30
0.0
 10
-112.6362383319717
 20
-65.61956139864628
 30
0.0
 10
-113.0
 20
-66.80974136731825
 30
0.0
 10
-113.0
 20
-75.61447637636891
 30
0.0
 10
-113.0
 20
-82.80723818818444
 30
0.0
 10
-113.0
 20
-90.0
 30
0.0
  0
LINE
  5
124
330
121
100
AcDbEntity
  8
0
  6
Continuous
 62
     7
370
    15
100
AcDbLine
 10
-113.0
 20
-90.0
 30
0.0
 11
-115.0
 21
-90.0
 31
0.0
  0
LINE
  5
125
330
121
100
AcDbEntity
  8
0
  6
Continuous
 62
     7
370
    15
100
AcDbLine
 10
113.0
 20
-90.0
 30
0.0
 11
115.0
 21
-90.0
 31
0.0
  0
LINE
  5
126
330
121
100
AcDbEntity
  8
0
100
AcDbLine
 10
-115.0
 20
-90.0
 30
0.0
 11
-115.0
 21
-131.0177401079902
 31
0.0
  0
LINE
  5
127
330
121
100
AcDbEntity
  8
0
100
AcDbLine
 10
-115.0
 20
-131.0177401079902
 30
0.0
 11
115.0
 21
-131.0177401079902
 31
0.0
  0
LINE
  5
128
330
121
100
AcDbEntity
  8
0
100
AcDbLine
 10
115.0
 20
-131.0177401079902
 30
0.0
 11
115.0
 21
-90.0
 31
0.0
  0
SPLINE
  5
129
330
121
100
AcDbEntity
  8
0
  6
Continuous
 62
     7
370
    15
100
AcDbSpline
210
0.0
220
0.0
230
1.0
 70
     8
 71
     3
 72
    12
 73
     8
 74
     0
 42
0.000000001
 43
0.00000001
 40
0.6074710673244659
 40
0.6074710673244659
 40
0.6074710673244659
 40
0.6074710673244659
 40
0.9166738891634489
 40
0.9166738891634489
 40
0.9305425316982839
 40
0.9305425316982839
 40
1.0
 40
1.0
 40
1.0
 40
1.0
 10
34.57011573070211
 20
-4.678324972349116
 30
0.0
 10
60.20883301007424
 20
-25.25157137913748
 30
0.0
 10
85.84755028944645
 20
-45.07425234044491
 30
0.0
 10
112.6362383319717
 20
-65.61956139864628
 30
0.0
 10
113.0
 20
-66.80974136731825
 30
0.0
 10
113.0
 20
-75.61447637636891
 30
0.0
 10
113.0
 20
-82.80723818818444
 30
0.0
 10
113.0
 20
-90.0
 30
0.0
  0
ENDBLK
  5
12B
330
121
100
AcDbEntity
  8
0
100
AcDbBlockEnd
  0
BLOCK
  5
16F
330
15F
100
AcDbEntity
  8
0
100
AcDbBlockBegin
  2
top
 70
     0
 10
0.0
 20
0.0
 30
0.0
  3
top
  1
top
  0
LINE
  5
160
330
15F
100
AcDbEntity
  8
0
  6
CENTERX2
 62
     7
100
AcDbLine
 10
0.0
 20
0.0
 30
0.0
 11
0.0
 21
-29.034409363
 31
0.0
  0
POINT
  5
161
330
15F
100
AcDbEntity
  8
0
  6
Continuous
 62
     7
100
AcDbPoint
 10
0.0
 20
0.0
 30
0.0
  0
LINE
  5
162
330
15F
100
AcDbEntity
  8
0
  6
Continuous
 62
     7
100
AcDbLine
 10
-35.0
 20
78.18182713601462
 30
0.0
 11
-113.1529631255
 21
14.68254459661462
 31
0.0
  0
LINE
  5
163
330
15F
100
AcDbEntity
  8
0
  6
Continuous
 62
     7
100
AcDbLine
 10
-115.0
 20
10.80197459601462
 30
0.0
 11
-115.0
 21
-11.81817286398538
 31
0.0
  0
ARC
  5
164
330
15F
100
AcDbEntity
  8
0
  6
Continuous
 62
     7
100
AcDbCircle
 10
-110.0
 20
10.80197459601462
 30
0.0
 40
5.000000000000011
100
AcDbArc
 50
129.0938588862
 51
180.0
  0
SPLINE
  5
165
330
15F
100
AcDbEntity
  8
0
  6
Continuous
 62
     7
370
    15
100
AcDbSpline
210
0.0
220
0.0
230
1.0
 70
    24
 71
     3
 72
     9
 73
     5
 74
     0
 42
0.000000001
 43
0.00000001
 40
0.3925289326755336
 40
0.3925289326755336
 40
0.3925289326755336
 40
0.3925289326755336
 40
0.4999999999999997
 40
0.6074710673244659
 40
0.6074710673244659
 40
0.6074710673244659
 40
0.6074710673244659
 10
35.0
 20
78.18182713601463
 30
0.0
 10
23.33333333333331
 20
78.18182713601462
 30
0.0
 10
0.0000000000000142
 20
78.18182713601462
 30
0.0
 10
-23.33333333333333
 20
78.18182713601462
 30
0.0
 10
-35.0
 20
78.18182713601462
 30
0.0
  0
LINE
  5
166
330
15F
100
AcDbEntity
  8
0
  6
Continuous
 62
     7
100
AcDbLine
 10
35.0
 20
78.18182713601462
 30
0.0
 11
113.1529631255
 21
14.68254459661462
 31
0.0
  0
ARC
  5
167
330
15F
100
AcDbEntity
  8
0
  6
Continuous
 62
     7
100
AcDbCircle
 10
110.0
 20
10.80197459601462
 30
0.0
 40
5.000000000000011
100
AcDbArc
 50
0.0
 51
50.90614111380002
  0
LINE
  5
168
330
15F
100
AcDbEntity
  8
0
  6
Continuous
 62
     7
100
AcDbLine
 10
115.0
 20
10.80197459601462
 30
0.0
 11
115.0
 21
-11.81817286398538
 31
0.0
  0
LINE
  5
169
330
15F
100
AcDbEntity
  8
0
100
AcDbLine
 10
-115.0
 20
-11.81817286398538
 30
0.0
 11
-121.7993791949058
 21
-11.81817286398538
 31
0.0
  0
LINE
  5
16A
330
15F
100
AcDbEntity
  8
0
100
AcDbLine
 10
-121.7993791949058
 20
-11.81817286398538
 30
0.0
 11
-121.7993791949058
 21
106.5558180627811
 31
0.0
  0
LINE
  5
16B
330
15F
100
AcDbEntity
  8
0
100
AcDbLine
 10
-121.7993791949058
 20
106.5558180627811
 30
0.0
 11
-0.0000000000000054
 21
106.5558180627811
 31
0.0
  0
LINE
  5
16C
330
15F
100
AcDbEntity
  8
0
100
AcDbLine
 10
121.7993791949058
 20
-11.81817286398538
 30
0.0
 11
121.7993791949058
 21
106.5558180627811
 31
0.0
  0
LINE
  5
16D
330
15F
100
AcDbEntity
  8
0
100
AcDbLine
 10
121.7993791949058
 20
106.5558180627811
 30
0.0
 11
-0.0000000000000088
 21
106.5558180627811
 31
0.0
  0
LINE
  5
16E
330
15F
100
AcDbEntity
  8
0
100
AcDbLine
 10
115.0
 20
-11.81817286398538
 30
0.0
 11
121.7993791949058
 21
-11.81817286398538
 31
0.0
  0
ENDBLK
  5
170
330
15F
100
AcDbEntity
  8
0
100
AcDbBlockEnd
  0
ENDSEC
  0
SECTION
  2
ENTITIES
  0
SPLINE
  5
172
330
1F
100
AcDbEntity
  8
0
  6
Continuous
 62
     2
370
    15
100
AcDbSpline
210
0.0
220
0.0
230
1.0
 70
     8
 71
     3
 72
     9
 73
     5
 74
     0
 42
0.000000001
 43
0.00000001
 40
0.3925289326755336
 40
0.3925289326755336
 40
0.3925289326755336
 40
0.3925289326755336
 40
0.4999999999999997
 40
0.6074710673244659
 40
0.6074710673244659
 40
0.6074710673244659
 40
0.6074710673244659
 10
34.57011573070213
 20
73.50350216366552
 30
0.0
 10
23.04674382046808
 20
73.29732743913323
 30
0.0
 10
0.0000000000000052
 20
73.06632683289602
 30
0.0
 10
-23.04674382046808
 20
73.29732743913321
 30
0.0
 10
-34.57011573070213
 20
73.5035021636655
 30
0.0
  0
SPLINE
  5
173
330
1F
100
AcDbEntity
  8
0
  6
Continuous
 62
     2
370
    15
100
AcDbSpline
210
0.0
220
0.0
230
1.0
 70
     8
 71
     3
 72
    12
 73
     8
 74
     0
 42
0.000000001
 43
0.00000001
 40
0.6074710673244659
 40
0.6074710673244659
 40
0.6074710673244659
 40
0.6074710673244659
 40
0.9166738891634489
 40
0.9166738891634489
 40
0.9305425316982839
 40
0.9305425316982839
 40
1.0
 40
1.0
 40
1.0
 40
1.0
 10
-34.57011573070213
 20
73.5035021636655
 30
0.0
 10
-60.20883301007426
 20
52.93025575687714
 30
0.0
 10
-85.84755028944646
 20
33.10757479556971
 30
0.0
 10
-112.6362383319717
 20
12.56226573736834
 30
0.0
 10
-113.0
 20
11.37208576869637
 30
0.0
 10
-113.0
 20
2.567350759645706
 30
0.0
 10
-113.0
 20
-4.625411052169824
 30
0.0
 10
-113.0
 20
-11.81817286398538
 30
0.0
  0
LINE
  5
174
330
1F
100
AcDbEntity
  8
0
  6
Continuous
 62
     2
370
    15
100
AcDbLine
 10
-113.0
 20
-11.81817286398538
 30
0.0
 11
-121.7993791949058
 21
-11.81817286398538
 31
0.0
  0
LINE
  5
175
330
1F
100
AcDbEntity
  8
0
  6
Continuous
 62
     2
370
    15
100
AcDbLine
 10
113.0
 20
-11.81817286398538
 30
0.0
 11
121.7993791949058
 21
-11.81817286398538
 31
0.0
  0
SPLINE
  5
179
330
1F
100
AcDbEntity
  8
0
  6
Continuous
 62
     2
370
    15
100
AcDbSpline
210
0.0
220
0.0
230
1.0
 70
     8
 71
     3
 72
    12
 73
     8
 74
     0
 42
0.000000001
 43
0.00000001
 40
0.6074710673244659
 40
0.6074710673244659
 40
0.6074710673244659
 40
0.6074710673244659
 40
0.9166738891634489
 40
0.9166738891634489
 40
0.9305425316982839
 40
0.9305425316982839
 40
1.0
 40
1.0
 40
1.0
 40
1.0
 10
34.57011573070211
 20
73.5035021636655
 30
0.0
 10
60.20883301007424
 20
52.93025575687714
 30
0.0
 10
85.84755028944645
 20
33.10757479556971
 30
0.0
 10
112.6362383319717
 20
12.56226573736834
 30
0.0
 10
113.0
 20
11.37208576869637
 30
0.0
 10
113.0
 20
2.567350759645706
 30
0.0
 10
113.0
 20
-4.625411052169824
 30
0.0
 10
113.0
 20
-11.81817286398538
 30
0.0
  0
LINE
  5
17A
330
1F
100
AcDbEntity
  8
0
100
AcDbLine
 10
121.7993791949058
 20
-11.81817286398538
 30
0.0
 11
121.7993791949058
 21
-22.21514747788181
 31
0.0
  0
LINE
  5
17B
330
1F
100
AcDbEntity
  8
0
100
AcDbLine
 10
121.7993791949058
 20
-22.21514747788181
 30
0.0
 11
102.6300479890116
 21
-22.21514747788181
 31
0.0
  0
LINE
  5
17C
330
1F
100
AcDbEntity
  8
0
100
AcDbLine
 10
102.6300479890116
 20
-22.21514747788181
 30
0.0
 11
102.6300479890116
 21
3.543786022873959
 31
0.0
  0
LINE
  5
17D
330
1F
100
AcDbEntity
  8
0
100
AcDbLine
 10
102.6300479890116
 20
3.543786022873959
 30
0.0
 11
34.57011573070211
 21
55.8055610444657
 31
0.0
  0
LINE
  5
17E
330
1F
100
AcDbEntity
  8
0
100
AcDbLine
 10
34.57011573070211
 20
55.8055610444657
 30
0.0
 11
-34.57011573070213
 21
55.8055610444657
 31
0.0
  0
LINE
  5
17F
330
1F
100
AcDbEntity
  8
0
100
AcDbLine
 10
-34.57011573070213
 20
55.8055610444657
 30
0.0
 11
-95.88979498687144
 21
10.80197459601462
 31
0.0
  0
LINE
  5
180
330
1F
100
AcDbEntity
  8
0
100
AcDbLine
 10
-95.88979498687144
 20
10.80197459601462
 30
0.0
 11
-95.88979498687144
 21
-22.21514747788178
 31
0.0
  0
LINE
  5
181
330
1F
100
AcDbEntity
  8
0
100
AcDbLine
 10
-95.88979498687144
 20
-22.21514747788178
 30
0.0
 11
-121.7993791949058
 21
-22.21514747788178
 31
0.0
  0
LINE
  5
182
330
1F
100
AcDbEntity
  8
0
100
AcDbLine
 10
-121.7993791949058
 20
-22.21514747788178
 30
0.0
 11
-121.7993791949058
 21
-11.81817286398538
 31
0.0
  0
LINE
  5
44A
330
1F
100
AcDbEntity
  8
0
  6
CENTERX2
 62
     7
100
AcDbLine
 10
0.0
 20
0.0
 30
0.0
 11
0.0
 21
-29.034409363
 31
0.0
  0
POINT
  5
44B
330
1F
100
AcDbEntity
  8
0
  6
Continuous
 62
     7
100
AcDbPoint
 10
0.0
 20
0.0
 30
0.0
  0
LINE
  5
44C
330
1F
100
AcDbEntity
  8
0
  6
Continuous
 62
     7
100
AcDbLine
 10
-35.0
 20
78.18182713601462
 30
0.0
 11
-113.1529631255
 21
14.68254459661462
 31
0.0
  0
LINE
  5
44D
330
1F
100
AcDbEntity
  8
0
  6
Continuous
 62
     7
100
AcDbLine
 10
-115.0
 20
10.80197459601462
 30
0.0
 11
-115.0
 21
-11.81817286398538
 31
0.0
  0
ARC
  5
44E
330
1F
100
AcDbEntity
  8
0
  6
Continuous
 62
     7
100
AcDbCircle
 10
-110.0
 20
10.80197459601462
 30
0.0
 40
5.000000000000011
100
AcDbArc
 50
129.0938588862
 51
180.0
  0
SPLINE
  5
44F
330
1F
100
AcDbEntity
  8
0
  6
Continuous
 62
     7
370
    15
100
AcDbSpline
210
0.0
220
0.0
230
1.0
 70
    24
 71
     3
 72
     9
 73
     5
 74
     0
 42
0.000000001
 43
0.00000001
 40
0.3925289326755336
 40
0.3925289326755336
 40
0.3925289326755336
 40
0.3925289326755336
 40
0.4999999999999997
 40
0.6074710673244659
 40
0.6074710673244659
 40
0.6074710673244659
 40
0.6074710673244659
 10
35.0
 20
78.18182713601463
 30
0.0
 10
23.33333333333331
 20
78.18182713601462
 30
0.0
 10
0.0000000000000142
 20
78.18182713601462
 30
0.0
 10
-23.33333333333333
 20
78.18182713601462
 30
0.0
 10
-35.0
 20
78.18182713601462
 30
0.0
  0
LINE
  5
450
330
1F
100
AcDbEntity
  8
0
  6
Continuous
 62
     7
100
AcDbLine
 10
35.0
 20
78.18182713601462
 30
0.0
 11
113.1529631255
 21
14.68254459661462
 31
0.0
  0
ARC
  5
451
330
1F
100
AcDbEntity
  8
0
  6
Continuous
 62
     7
100
AcDbCircle
 10
110.0
 20
10.80197459601462
 30
0.0
 40
5.000000000000011
100
AcDbArc
 50
0.0
 51
50.90614111380002
  0
LINE
  5
452
330
1F
100
AcDbEntity
  8
0
  6
Continuous
 62
     7
100
AcDbLine
 10
115.0
 20
10.80197459601462
 30
0.0
 11
115.0
 21
-11.81817286398538
 31
0.0
  0
LINE
  5
454
330
1F
100
AcDbEntity
  8
0
100
AcDbLine
 10
-121.7993791949058
 20
-11.81817286398538
 30
0.0
 11
-121.7993791949058
 21
26.98438916030447
 31
0.0
  0
LINE
  5
456
330
1F
100
AcDbEntity
  8
0
100
AcDbLine
 10
121.7993791949058
 20
-11.81817286398538
 30
0.0
 11
121.7993791949058
 21
26.98438916030445
 31
0.0
  0
LINE
  5
459
330
1F
100
AcDbEntity
  8
0
  6
Continuous
 62
     7
100
AcDbLine
 10
-44.45888937641082
 20
89.82353713776362
 30
0.0
 11
-121.7993791949058
 21
26.98438916030447
 31
0.0
  0
LINE
  5
45A
330
1F
100
AcDbEntity
  8
0
  6
Continuous
 62
     7
100
AcDbLine
 10
44.45888937641082
 20
89.82353713776362
 30
0.0
 11
121.7993791949058
 21
26.98438916030446
 31
0.0
  0
LINE
  5
45B
330
1F
100
AcDbEntity
  8
0
100
AcDbLine
 10
44.45888937641082
 20
89.82353713776362
 30
0.0
 11
-44.45888937641082
 21
89.82353713776362
 31
0.0
  0
LWPOLYLINE
  5
45C
330
1F
100
AcDbEntity
  8
0
100
AcDbPolyline
 90
        4
 70
     1
 43
0.0
 10
205.6933106568857
 20
-23.98193098366698
 10
205.6933106568857
 20
276.018069016333
 10
805.6933106568857
 20
276.018069016333
 10
805.6933106568857
 20
-23.98193098366698
  0
SPLINE
  5
724
330
1F
100
AcDbEntity
  8
0
  6
Continuous
 62
     2
370
    15
100
AcDbSpline
210
0.0
220
0.0
230
1.0
 70
     8
 71
     3
 72
     9
 73
     5
 74
     0
 42
0.000000001
 43
0.00000001
 40
0.3925289326755336
 40
0.3925289326755336
 40
0.3925289326755336
 40
0.3925289326755336
 40
0.4999999999999997
 40
0.6074710673244659
 40
0.6074710673244659
 40
0.6074710673244659
 40
0.6074710673244659
 10
229.0104774989177
 20
162.5646328179786
 30
0.0
 10
229.21665222345
 20
151.0412609077446
 30
0.0
 10
229.4476528296872
 20
127.9945170872765
 30
0.0
 10
229.21665222345
 20
104.9477732668084
 30
0.0
 10
229.0104774989177
 20
93.42440135657435
 30
0.0
  0
SPLINE
  5
725
330
1F
100
AcDbEntity
  8
0
  6
Continuous
 62
     2
370
    15
100
AcDbSpline
210
0.0
220
0.0
230
1.0
 70
     8
 71
     3
 72
    12
 73
     8
 74
     0
 42
0.000000001
 43
0.00000001
 40
0.6074710673244659
 40
0.6074710673244659
 40
0.6074710673244659
 40
0.6074710673244659
 40
0.9166738891634489
 40
0.9166738891634489
 40
0.9305425316982839
 40
0.9305425316982839
 40
1.0
 40
1.0
 40
1.0
 40
1.0
 10
229.0104774989177
 20
93.42440135657435
 30
0.0
 10
249.5837239057061
 20
67.78568407720226
 30
0.0
 10
269.4064048670134
 20
42.14696679783006
 30
0.0
 10
289.9517139252148
 20
15.35827875530484
 30
0.0
 10
291.1418938938868
 20
14.99451708727648
 30
0.0
 10
299.9466289029374
 20
14.99451708727642
 30
0.0
 10
307.1393907147529
 20
14.99451708727642
 30
0.0
 10
314.3321525265685
 20
14.99451708727642
 30
0.0
  0
LINE
  5
726
330
1F
100
AcDbEntity
  8
0
  6
Continuous
 62
     2
370
    15
100
AcDbLine
 10
314.3321525265685
 20
14.99451708727642
 30
0.0
 11
314.3321525265685
 21
6.195137892370639
 31
0.0
  0
LINE
  5
727
330
1F
100
AcDbEntity
  8
0
  6
Continuous
 62
     2
370
    15
100
AcDbLine
 10
314.3321525265686
 20
240.9945170872764
 30
0.0
 11
314.3321525265686
 21
249.7938962821822
 31
0.0
  0
SPLINE
  5
728
330
1F
100
AcDbEntity
  8
0
  6
Continuous
 62
     2
370
    15
100
AcDbSpline
210
0.0
220
0.0
230
1.0
 70
     8
 71
     3
 72
    12
 73
     8
 74
     0
 42
0.000000001
 43
0.00000001
 40
0.6074710673244659
 40
0.6074710673244659
 40
0.6074710673244659
 40
0.6074710673244659
 40
0.9166738891634489
 40
0.9166738891634489
 40
0.9305425316982839
 40
0.9305425316982839
 40
1.0
 40
1.0
 40
1.0
 40
1.0
 10
229.0104774989177
 20
162.5646328179786
 30
0.0
 10
249.5837239057061
 20
188.2033500973508
 30
0.0
 10
269.4064048670135
 20
213.8420673767229
 30
0.0
 10
289.9517139252149
 20
240.6307554192481
 30
0.0
 10
291.1418938938868
 20
240.9945170872764
 30
0.0
 10
299.9466289029375
 20
240.9945170872764
 30
0.0
 10
307.1393907147531
 20
240.9945170872764
 30
0.0
 10
314.3321525265686
 20
240.9945170872764
 30
0.0
  0
LINE
  5
729
330
1F
100
AcDbEntity
  8
0
100
AcDbLine
 10
314.3321525265686
 20
249.7938962821822
 30
0.0
 11
324.729127140465
 21
249.7938962821822
 31
0.0
  0
LINE
  5
72A
330
1F
100
AcDbEntity
  8
0
100
AcDbLine
 10
324.729127140465
 20
249.7938962821822
 30
0.0
 11
324.729127140465
 21
230.624565076288
 31
0.0
  0
LINE
  5
72B
330
1F
100
AcDbEntity
  8
0
100
AcDbLine
 10
324.729127140465
 20
230.624565076288
 30
0.0
 11
298.9701936397093
 21
230.624565076288
 31
0.0
  0
LINE
  5
72C
330
1F
100
AcDbEntity
  8
0
100
AcDbLine
 10
298.9701936397093
 20
230.624565076288
 30
0.0
 11
246.7084186181175
 21
162.5646328179786
 31
0.0
  0
LINE
  5
72D
330
1F
100
AcDbEntity
  8
0
100
AcDbLine
 10
246.7084186181175
 20
162.5646328179786
 30
0.0
 11
246.7084186181175
 21
93.42440135657435
 31
0.0
  0
LINE
  5
72E
330
1F
100
AcDbEntity
  8
0
100
AcDbLine
 10
246.7084186181175
 20
93.42440135657435
 30
0.0
 11
291.7120050665685
 21
32.1047221004051
 31
0.0
  0
LINE
  5
72F
330
1F
100
AcDbEntity
  8
0
100
AcDbLine
 10
291.7120050665685
 20
32.1047221004051
 30
0.0
 11
324.7291271404649
 21
32.10472210040504
 31
0.0
  0
LINE
  5
730
330
1F
100
AcDbEntity
  8
0
100
AcDbLine
 10
324.7291271404649
 20
32.10472210040504
 30
0.0
 11
324.7291271404649
 21
6.195137892370639
 31
0.0
  0
LINE
  5
731
330
1F
100
AcDbEntity
  8
0
100
AcDbLine
 10
324.7291271404649
 20
6.195137892370639
 30
0.0
 11
314.3321525265685
 21
6.195137892370639
 31
0.0
  0
LINE
  5
732
330
1F
100
AcDbEntity
  8
0
  6
Continuous
 62
     7
100
AcDbLine
 10
224.3321525265686
 20
92.99451708727648
 30
0.0
 11
287.8314350659685
 21
14.84155396177655
 31
0.0
  0
LINE
  5
733
330
1F
100
AcDbEntity
  8
0
  6
Continuous
 62
     7
100
AcDbLine
 10
291.7120050665685
 20
12.99451708727648
 30
0.0
 11
314.3321525265685
 21
12.99451708727642
 31
0.0
  0
ARC
  5
734
330
1F
100
AcDbEntity
  8
0
  6
Continuous
 62
     7
100
AcDbCircle
 10
291.7120050665685
 20
17.99451708727648
 30
0.0
 40
5.000000000000011
100
AcDbArc
 50
219.0938588862008
 51
270.0
  0
SPLINE
  5
735
330
1F
100
AcDbEntity
  8
0
  6
Continuous
 62
     7
370
    15
100
AcDbSpline
210
0.0
220
0.0
230
1.0
 70
    24
 71
     3
 72
     9
 73
     5
 74
     0
 42
0.000000001
 43
0.00000001
 40
0.3925289326755336
 40
0.3925289326755336
 40
0.3925289326755336
 40
0.3925289326755336
 40
0.4999999999999997
 40
0.6074710673244659
 40
0.6074710673244659
 40
0.6074710673244659
 40
0.6074710673244659
 10
224.3321525265686
 20
162.9945170872765
 30
0.0
 10
224.3321525265686
 20
151.3278504206098
 30
0.0
 10
224.3321525265686
 20
127.9945170872765
 30
0.0
 10
224.3321525265686
 20
104.6611837539432
 30
0.0
 10
224.3321525265686
 20
92.99451708727648
 30
0.0
  0
LINE
  5
736
330
1F
100
AcDbEntity
  8
0
  6
Continuous
 62
     7
100
AcDbLine
 10
224.3321525265686
 20
162.9945170872765
 30
0.0
 11
287.8314350659687
 21
241.1474802127765
 31
0.0
  0
ARC
  5
737
330
1F
100
AcDbEntity
  8
0
  6
Continuous
 62
     7
100
AcDbCircle
 10
291.7120050665686
 20
237.9945170872764
 30
0.0
 40
5.000000000000011
100
AcDbArc
 50
90.0
 51
140.9061411137991
  0
LINE
  5
738
330
1F
100
AcDbEntity
  8
0
  6
Continuous
 62
     7
100
AcDbLine
 10
291.7120050665686
 20
242.9945170872764
 30
0.0
 11
314.3321525265686
 21
242.9945170872764
 31
0.0
  0
LINE
  5
739
330
1F
100
AcDbEntity
  8
0
100
AcDbLine
 10
212.6904425248196
 20
172.4534064636873
 30
0.0
 11
212.6904425248196
 21
83.53562771086573
 31
0.0
  0
LINE
  5
73A
330
1F
100
AcDbEntity
  8
0
100
AcDbLine
 10
314.3321525265685
 20
6.195137892370639
 30
0.0
 11
275.5295905022787
 21
6.195137892370695
 31
0.0
  0
LINE
  5
73B
330
1F
100
AcDbEntity
  8
0
  6
Continuous
 62
     7
100
AcDbLine
 10
212.6904425248196
 20
83.53562771086573
 30
0.0
 11
275.5295905022787
 21
6.195137892370695
 31
0.0
  0
LINE
  5
73C
330
1F
100
AcDbEntity
  8
0
100
AcDbLine
 10
314.3321525265686
 20
249.7938962821822
 30
0.0
 11
275.5295905022788
 21
249.7938962821822
 31
0.0
  0
LINE
  5
73D
330
1F
100
AcDbEntity
  8
0
  6
Continuous
 62
     7
100
AcDbLine
 10
212.6904425248196
 20
172.4534064636873
 30
0.0
 11
275.5295905022788
 21
249.7938962821822
 31
0.0
  0
SPLINE
  5
8DE
330
1F
100
AcDbEntity
  8
0
  6
Continuous
 62
     2
370
    15
100
AcDbSpline
210
0.0
220
0.0
230
1.0
 70
     8
 71
     3
 72
     9
 73
     5
 74
     0
 42
0.000000001
 43
0.00000001
 40
0.3925289326755336
 40
0.3925289326755336
 40
0.3925289326755336
 40
0.3925289326755336
 40
0.4999999999999997
 40
0.6074710673244659
 40
0.6074710673244659
 40
0.6074710673244659
 40
0.6074710673244659
 10
302.0104774989177
 20
162.5646328179786
 30
0.0
 10
302.21665222345
 20
151.0412609077446
 30
0.0
 10
302.4476528296872
 20
127.9945170872765
 30
0.0
 10
302.21665222345
 20
104.9477732668084
 30
0.0
 10
302.0104774989177
 20
93.42440135657436
 30
0.0
  0
SPLINE
  5
8DF
330
1F
100
AcDbEntity
  8
0
  6
Continuous
 62
     2
370
    15
100
AcDbSpline
210
0.0
220
0.0
230
1.0
 70
     8
 71
     3
 72
    12
 73
     8
 74
     0
 42
0.000000001
 43
0.00000001
 40
0.6074710673244659
 40
0.6074710673244659
 40
0.6074710673244659
 40
0.6074710673244659
 40
0.9166738891634489
 40
0.9166738891634489
 40
0.9305425316982839
 40
0.9305425316982839
 40
1.0
 40
1.0
 40
1.0
 40
1.0
 10
302.0104774989177
 20
93.42440135657436
 30
0.0
 10
322.5837239057061
 20
67.78568407720228
 30
0.0
 10
342.4064048670134
 20
42.14696679783008
 30
0.0
 10
362.9517139252148
 20
15.35827875530486
 30
0.0
 10
364.1418938938868
 20
14.9945170872765
 30
0.0
 10
372.9466289029374
 20
14.99451708727644
 30
0.0
 10
380.1393907147529
 20
14.99451708727644
 30
0.0
 10
387.3321525265685
 20
14.99451708727644
 30
0.0
  0
LINE
  5
8E0
330
1F
100
AcDbEntity
  8
0
  6
Continuous
 62
     2
370
    15
100
AcDbLine
 10
387.3321525265685
 20
14.99451708727644
 30
0.0
 11
387.3321525265685
 21
6.195137892370656
 31
0.0
  0
LINE
  5
8E1
330
1F
100
AcDbEntity
  8
0
  6
Continuous
 62
     2
370
    15
100
AcDbLine
 10
387.3321525265686
 20
240.9945170872765
 30
0.0
 11
387.3321525265686
 21
249.7938962821823
 31
0.0
  0
SPLINE
  5
8E2
330
1F
100
AcDbEntity
  8
0
  6
Continuous
 62
     2
370
    15
100
AcDbSpline
210
0.0
220
0.0
230
1.0
 70
     8
 71
     3
 72
    12
 73
     8
 74
     0
 42
0.000000001
 43
0.00000001
 40
0.6074710673244659
 40
0.6074710673244659
 40
0.6074710673244659
 40
0.6074710673244659
 40
0.9166738891634489
 40
0.9166738891634489
 40
0.9305425316982839
 40
0.9305425316982839
 40
1.0
 40
1.0
 40
1.0
 40
1.0
 10
302.0104774989177
 20
162.5646328179786
 30
0.0
 10
322.5837239057061
 20
188.2033500973508
 30
0.0
 10
342.4064048670135
 20
213.842067376723
 30
0.0
 10
362.9517139252149
 20
240.6307554192481
 30
0.0
 10
364.1418938938868
 20
240.9945170872765
 30
0.0
 10
372.9466289029375
 20
240.9945170872765
 30
0.0
 10
380.1393907147531
 20
240.9945170872765
 30
0.0
 10
387.3321525265686
 20
240.9945170872765
 30
0.0
  0
LINE
  5
8E3
330
1F
100
AcDbEntity
  8
0
100
AcDbLine
 10
387.3321525265686
 20
249.7938962821823
 30
0.0
 11
397.729127140465
 21
249.7938962821823
 31
0.0
  0
LINE
  5
8E4
330
1F
100
AcDbEntity
  8
0
100
AcDbLine
 10
397.729127140465
 20
249.7938962821823
 30
0.0
 11
397.729127140465
 21
230.6245650762881
 31
0.0
  0
LINE
  5
8E5
330
1F
100
AcDbEntity
  8
0
100
AcDbLine
 10
397.729127140465
 20
230.6245650762881
 30
0.0
 11
371.9701936397093
 21
230.6245650762881
 31
0.0
  0
LINE
  5
8E6
330
1F
100
AcDbEntity
  8
0
100
AcDbLine
 10
371.9701936397093
 20
230.6245650762881
 30
0.0
 11
319.7084186181175
 21
162.5646328179786
 31
0.0
  0
LINE
  5
8E7
330
1F
100
AcDbEntity
  8
0
100
AcDbLine
 10
319.7084186181175
 20
162.5646328179786
 30
0.0
 11
319.7084186181175
 21
93.42440135657436
 31
0.0
  0
LINE
  5
8E8
330
1F
100
AcDbEntity
  8
0
100
AcDbLine
 10
319.7084186181175
 20
93.42440135657436
 30
0.0
 11
364.7120050665685
 21
32.10472210040512
 31
0.0
  0
LINE
  5
8E9
330
1F
100
AcDbEntity
  8
0
100
AcDbLine
 10
364.7120050665685
 20
32.10472210040512
 30
0.0
 11
397.7291271404649
 21
32.10472210040506
 31
0.0
  0
LINE
  5
8EA
330
1F
100
AcDbEntity
  8
0
100
AcDbLine
 10
397.7291271404649
 20
32.10472210040506
 30
0.0
 11
397.7291271404649
 21
6.195137892370656
 31
0.0
  0
LINE
  5
8EB
330
1F
100
AcDbEntity
  8
0
100
AcDbLine
 10
397.7291271404649
 20
6.195137892370656
 30
0.0
 11
387.3321525265685
 21
6.195137892370656
 31
0.0
  0
LINE
  5
8EC
330
1F
100
AcDbEntity
  8
0
  6
Continuous
 62
     7
100
AcDbLine
 10
297.3321525265686
 20
92.99451708727649
 30
0.0
 11
360.8314350659685
 21
14.84155396177657
 31
0.0
  0
LINE
  5
8ED
330
1F
100
AcDbEntity
  8
0
  6
Continuous
 62
     7
100
AcDbLine
 10
364.7120050665685
 20
12.9945170872765
 30
0.0
 11
387.3321525265685
 21
12.99451708727644
 31
0.0
  0
ARC
  5
8EE
330
1F
100
AcDbEntity
  8
0
  6
Continuous
 62
     7
100
AcDbCircle
 10
364.7120050665685
 20
17.9945170872765
 30
0.0
 40
5.000000000000011
100
AcDbArc
 50
219.0938588862008
 51
270.0
  0
SPLINE
  5
8EF
330
1F
100
AcDbEntity
  8
0
  6
Continuous
 62
     7
370
    15
100
AcDbSpline
210
0.0
220
0.0
230
1.0
 70
    24
 71
     3
 72
     9
 73
     5
 74
     0
 42
0.000000001
 43
0.00000001
 40
0.3925289326755336
 40
0.3925289326755336
 40
0.3925289326755336
 40
0.3925289326755336
 40
0.4999999999999997
 40
0.6074710673244659
 40
0.6074710673244659
 40
0.6074710673244659
 40
0.6074710673244659
 10
297.3321525265686
 20
162.9945170872765
 30
0.0
 10
297.3321525265686
 20
151.3278504206099
 30
0.0
 10
297.3321525265686
 20
127.9945170872765
 30
0.0
 10
297.3321525265686
 20
104.6611837539432
 30
0.0
 10
297.3321525265686
 20
92.99451708727649
 30
0.0
  0
LINE
  5
8F0
330
1F
100
AcDbEntity
  8
0
  6
Continuous
 62
     7
100
AcDbLine
 10
297.3321525265686
 20
162.9945170872765
 30
0.0
 11
360.8314350659687
 21
241.1474802127765
 31
0.0
  0
ARC
  5
8F1
330
1F
100
AcDbEntity
  8
0
  6
Continuous
 62
     7
100
AcDbCircle
 10
364.7120050665686
 20
237.9945170872765
 30
0.0
 40
5.000000000000011
100
AcDbArc
 50
90.0
 51
140.9061411137991
  0
LINE
  5
8F2
330
1F
100
AcDbEntity
  8
0
  6
Continuous
 62
     7
100
AcDbLine
 10
364.7120050665686
 20
242.9945170872765
 30
0.0
 11
387.3321525265686
 21
242.9945170872765
 31
0.0
  0
LINE
  5
8F3
330
1F
100
AcDbEntity
  8
0
100
AcDbLine
 10
285.6904425248196
 20
172.4534064636874
 30
0.0
 11
285.6904425248196
 21
83.53562771086574
 31
0.0
  0
LINE
  5
8F4
330
1F
100
AcDbEntity
  8
0
100
AcDbLine
 10
387.3321525265685
 20
6.195137892370656
 30
0.0
 11
348.5295905022787
 21
6.195137892370713
 31
0.0
  0
LINE
  5
8F5
330
1F
100
AcDbEntity
  8
0
  6
Continuous
 62
     7
100
AcDbLine
 10
285.6904425248196
 20
83.53562771086574
 30
0.0
 11
348.5295905022787
 21
6.195137892370713
 31
0.0
  0
LINE
  5
8F6
330
1F
100
AcDbEntity
  8
0
100
AcDbLine
 10
387.3321525265686
 20
249.7938962821823
 30
0.0
 11
348.5295905022788
 21
249.7938962821823
 31
0.0
  0
LINE
  5
8F7
330
1F
100
AcDbEntity
  8
0
  6
Continuous
 62
     7
100
AcDbLine
 10
285.6904425248196
 20
172.4534064636874
 30
0.0
 11
348.5295905022788
 21
249.7938962821823
 31
0.0
  0
SPLINE
  5
8F8
330
1F
100
AcDbEntity
  8
0
  6
Continuous
 62
     2
370
    15
100
AcDbSpline
210
0.0
220
0.0
230
1.0
 70
     8
 71
     3
 72
     9
 73
     5
 74
     0
 42
0.000000001
 43
0.00000001
 40
0.3925289326755336
 40
0.3925289326755336
 40
0.3925289326755336
 40
0.3925289326755336
 40
0.4999999999999997
 40
0.6074710673244659
 40
0.6074710673244659
 40
0.6074710673244659
 40
0.6074710673244659
 10
375.0104774989177
 20
162.5646328179786
 30
0.0
 10
375.21665222345
 20
151.0412609077446
 30
0.0
 10
375.4476528296872
 20
127.9945170872765
 30
0.0
 10
375.21665222345
 20
104.9477732668085
 30
0.0
 10
375.0104774989177
 20
93.42440135657439
 30
0.0
  0
SPLINE
  5
8F9
330
1F
100
AcDbEntity
  8
0
  6
Continuous
 62
     2
370
    15
100
AcDbSpline
210
0.0
220
0.0
230
1.0
 70
     8
 71
     3
 72
    12
 73
     8
 74
     0
 42
0.000000001
 43
0.00000001
 40
0.6074710673244659
 40
0.6074710673244659
 40
0.6074710673244659
 40
0.6074710673244659
 40
0.9166738891634489
 40
0.9166738891634489
 40
0.9305425316982839
 40
0.9305425316982839
 40
1.0
 40
1.0
 40
1.0
 40
1.0
 10
375.0104774989177
 20
93.42440135657439
 30
0.0
 10
395.5837239057061
 20
67.7856840772023
 30
0.0
 10
415.4064048670134
 20
42.1469667978301
 30
0.0
 10
435.9517139252148
 20
15.35827875530487
 30
0.0
 10
437.1418938938868
 20
14.99451708727651
 30
0.0
 10
445.9466289029374
 20
14.99451708727646
 30
0.0
 10
453.1393907147529
 20
14.99451708727646
 30
0.0
 10
460.3321525265685
 20
14.99451708727646
 30
0.0
  0
LINE
  5
8FA
330
1F
100
AcDbEntity
  8
0
  6
Continuous
 62
     2
370
    15
100
AcDbLine
 10
460.3321525265685
 20
14.99451708727646
 30
0.0
 11
460.3321525265685
 21
6.195137892370674
 31
0.0
  0
LINE
  5
8FB
330
1F
100
AcDbEntity
  8
0
  6
Continuous
 62
     2
370
    15
100
AcDbLine
 10
460.3321525265686
 20
240.9945170872765
 30
0.0
 11
460.3321525265686
 21
249.7938962821823
 31
0.0
  0
SPLINE
  5
8FC
330
1F
100
AcDbEntity
  8
0
  6
Continuous
 62
     2
370
    15
100
AcDbSpline
210
0.0
220
0.0
230
1.0
 70
     8
 71
     3
 72
    12
 73
     8
 74
     0
 42
0.000000001
 43
0.00000001
 40
0.6074710673244659
 40
0.6074710673244659
 40
0.6074710673244659
 40
0.6074710673244659
 40
0.9166738891634489
 40
0.9166738891634489
 40
0.9305425316982839
 40
0.9305425316982839
 40
1.0
 40
1.0
 40
1.0
 40
1.0
 10
375.0104774989177
 20
162.5646328179786
 30
0.0
 10
395.5837239057061
 20
188.2033500973508
 30
0.0
 10
415.4064048670135
 20
213.842067376723
 30
0.0
 10
435.9517139252149
 20
240.6307554192481
 30
0.0
 10
437.1418938938868
 20
240.9945170872765
 30
0.0
 10
445.9466289029375
 20
240.9945170872765
 30
0.0
 10
453.1393907147531
 20
240.9945170872765
 30
0.0
 10
460.3321525265686
 20
240.9945170872765
 30
0.0
  0
LINE
  5
8FD
330
1F
100
AcDbEntity
  8
0
100
AcDbLine
 10
460.3321525265686
 20
249.7938962821823
 30
0.0
 11
470.729127140465
 21
249.7938962821823
 31
0.0
  0
LINE
  5
8FE
330
1F
100
AcDbEntity
  8
0
100
AcDbLine
 10
470.729127140465
 20
249.7938962821823
 30
0.0
 11
470.729127140465
 21
230.6245650762881
 31
0.0
  0
LINE
  5
8FF
330
1F
100
AcDbEntity
  8
0
100
AcDbLine
 10
470.729127140465
 20
230.6245650762881
 30
0.0
 11
444.9701936397093
 21
230.6245650762881
 31
0.0
  0
LINE
  5
900
330
1F
100
AcDbEntity
  8
0
100
AcDbLine
 10
444.9701936397093
 20
230.6245650762881
 30
0.0
 11
392.7084186181175
 21
162.5646328179786
 31
0.0
  0
LINE
  5
901
330
1F
100
AcDbEntity
  8
0
100
AcDbLine
 10
392.7084186181175
 20
162.5646328179786
 30
0.0
 11
392.7084186181175
 21
93.42440135657439
 31
0.0
  0
LINE
  5
902
330
1F
100
AcDbEntity
  8
0
100
AcDbLine
 10
392.7084186181175
 20
93.42440135657439
 30
0.0
 11
437.7120050665685
 21
32.10472210040513
 31
0.0
  0
LINE
  5
903
330
1F
100
AcDbEntity
  8
0
100
AcDbLine
 10
437.7120050665685
 20
32.10472210040513
 30
0.0
 11
470.7291271404649
 21
32.10472210040508
 31
0.0
  0
LINE
  5
904
330
1F
100
AcDbEntity
  8
0
100
AcDbLine
 10
470.7291271404649
 20
32.10472210040508
 30
0.0
 11
470.7291271404649
 21
6.195137892370674
 31
0.0
  0
LINE
  5
905
330
1F
100
AcDbEntity
  8
0
100
AcDbLine
 10
470.7291271404649
 20
6.195137892370674
 30
0.0
 11
460.3321525265685
 21
6.195137892370674
 31
0.0
  0
LINE
  5
906
330
1F
100
AcDbEntity
  8
0
  6
Continuous
 62
     7
100
AcDbLine
 10
370.3321525265686
 20
92.99451708727652
 30
0.0
 11
433.8314350659685
 21
14.84155396177659
 31
0.0
  0
LINE
  5
907
330
1F
100
AcDbEntity
  8
0
  6
Continuous
 62
     7
100
AcDbLine
 10
437.7120050665685
 20
12.99451708727651
 30
0.0
 11
460.3321525265685
 21
12.99451708727646
 31
0.0
  0
ARC
  5
908
330
1F
100
AcDbEntity
  8
0
  6
Continuous
 62
     7
100
AcDbCircle
 10
437.7120050665685
 20
17.99451708727651
 30
0.0
 40
5.000000000000011
100
AcDbArc
 50
219.0938588862008
 51
270.0
  0
SPLINE
  5
909
330
1F
100
AcDbEntity
  8
0
  6
Continuous
 62
     7
370
    15
100
AcDbSpline
210
0.0
220
0.0
230
1.0
 70
    24
 71
     3
 72
     9
 73
     5
 74
     0
 42
0.000000001
 43
0.00000001
 40
0.3925289326755336
 40
0.3925289326755336
 40
0.3925289326755336
 40
0.3925289326755336
 40
0.4999999999999997
 40
0.6074710673244659
 40
0.6074710673244659
 40
0.6074710673244659
 40
0.6074710673244659
 10
370.3321525265686
 20
162.9945170872765
 30
0.0
 10
370.3321525265686
 20
151.3278504206099
 30
0.0
 10
370.3321525265686
 20
127.9945170872766
 30
0.0
 10
370.3321525265686
 20
104.6611837539432
 30
0.0
 10
370.3321525265686
 20
92.99451708727652
 30
0.0
  0
LINE
  5
90A
330
1F
100
AcDbEntity
  8
0
  6
Continuous
 62
     7
100
AcDbLine
 10
370.3321525265686
 20
162.9945170872765
 30
0.0
 11
433.8314350659687
 21
241.1474802127765
 31
0.0
  0
ARC
  5
90B
330
1F
100
AcDbEntity
  8
0
  6
Continuous
 62
     7
100
AcDbCircle
 10
437.7120050665686
 20
237.9945170872765
 30
0.0
 40
5.000000000000011
100
AcDbArc
 50
90.0
 51
140.9061411137991
  0
LINE
  5
90C
330
1F
100
AcDbEntity
  8
0
  6
Continuous
 62
     7
100
AcDbLine
 10
437.7120050665686
 20
242.9945170872765
 30
0.0
 11
460.3321525265686
 21
242.9945170872765
 31
0.0
  0
LINE
  5
90D
330
1F
100
AcDbEntity
  8
0
100
AcDbLine
 10
358.6904425248196
 20
172.4534064636874
 30
0.0
 11
358.6904425248196
 21
83.53562771086577
 31
0.0
  0
LINE
  5
90E
330
1F
100
AcDbEntity
  8
0
100
AcDbLine
 10
460.3321525265685
 20
6.195137892370674
 30
0.0
 11
421.5295905022787
 21
6.195137892370731
 31
0.0
  0
LINE
  5
90F
330
1F
100
AcDbEntity
  8
0
  6
Continuous
 62
     7
100
AcDbLine
 10
358.6904425248196
 20
83.53562771086577
 30
0.0
 11
421.5295905022787
 21
6.195137892370731
 31
0.0
  0
LINE
  5
910
330
1F
100
AcDbEntity
  8
0
100
AcDbLine
 10
460.3321525265686
 20
249.7938962821823
 30
0.0
 11
421.5295905022788
 21
249.7938962821823
 31
0.0
  0
LINE
  5
911
330
1F
100
AcDbEntity
  8
0
  6
Continuous
 62
     7
100
AcDbLine
 10
358.6904425248196
 20
172.4534064636874
 30
0.0
 11
421.5295905022788
 21
249.7938962821823
 31
0.0
  0
SPLINE
  5
912
330
1F
100
AcDbEntity
  8
0
  6
Continuous
 62
     2
370
    15
100
AcDbSpline
210
0.0
220
0.0
230
1.0
 70
     8
 71
     3
 72
     9
 73
     5
 74
     0
 42
0.000000001
 43
0.00000001
 40
0.3925289326755336
 40
0.3925289326755336
 40
0.3925289326755336
 40
0.3925289326755336
 40
0.4999999999999997
 40
0.6074710673244659
 40
0.6074710673244659
 40
0.6074710673244659
 40
0.6074710673244659
 10
448.0104774989177
 20
162.5646328179787
 30
0.0
 10
448.21665222345
 20
151.0412609077447
 30
0.0
 10
448.4476528296872
 20
127.9945170872765
 30
0.0
 10
448.21665222345
 20
104.9477732668085
 30
0.0
 10
448.0104774989177
 20
93.4244013565744
 30
0.0
  0
SPLINE
  5
913
330
1F
100
AcDbEntity
  8
0
  6
Continuous
 62
     2
370
    15
100
AcDbSpline
210
0.0
220
0.0
230
1.0
 70
     8
 71
     3
 72
    12
 73
     8
 74
     0
 42
0.000000001
 43
0.00000001
 40
0.6074710673244659
 40
0.6074710673244659
 40
0.6074710673244659
 40
0.6074710673244659
 40
0.9166738891634489
 40
0.9166738891634489
 40
0.9305425316982839
 40
0.9305425316982839
 40
1.0
 40
1.0
 40
1.0
 40
1.0
 10
448.0104774989177
 20
93.4244013565744
 30
0.0
 10
468.5837239057061
 20
67.78568407720232
 30
0.0
 10
488.4064048670134
 20
42.14696679783012
 30
0.0
 10
508.9517139252148
 20
15.35827875530489
 30
0.0
 10
510.1418938938868
 20
14.99451708727653
 30
0.0
 10
518.9466289029374
 20
14.99451708727647
 30
0.0
 10
526.139390714753
 20
14.99451708727647
 30
0.0
 10
533.3321525265685
 20
14.99451708727647
 30
0.0
  0
LINE
  5
914
330
1F
100
AcDbEntity
  8
0
  6
Continuous
 62
     2
370
    15
100
AcDbLine
 10
533.3321525265685
 20
14.99451708727647
 30
0.0
 11
533.3321525265685
 21
6.195137892370692
 31
0.0
  0
LINE
  5
915
330
1F
100
AcDbEntity
  8
0
  6
Continuous
 62
     2
370
    15
100
AcDbLine
 10
533.3321525265686
 20
240.9945170872765
 30
0.0
 11
533.3321525265686
 21
249.7938962821823
 31
0.0
  0
SPLINE
  5
916
330
1F
100
AcDbEntity
  8
0
  6
Continuous
 62
     2
370
    15
100
AcDbSpline
210
0.0
220
0.0
230
1.0
 70
     8
 71
     3
 72
    12
 73
     8
 74
     0
 42
0.000000001
 43
0.00000001
 40
0.6074710673244659
 40
0.6074710673244659
 40
0.6074710673244659
 40
0.6074710673244659
 40
0.9166738891634489
 40
0.9166738891634489
 40
0.9305425316982839
 40
0.9305425316982839
 40
1.0
 40
1.0
 40
1.0
 40
1.0
 10
448.0104774989177
 20
162.5646328179787
 30
0.0
 10
468.5837239057061
 20
188.2033500973508
 30
0.0
 10
488.4064048670135
 20
213.842067376723
 30
0.0
 10
508.9517139252149
 20
240.6307554192481
 30
0.0
 10
510.1418938938868
 20
240.9945170872765
 30
0.0
 10
518.9466289029375
 20
240.9945170872765
 30
0.0
 10
526.1393907147531
 20
240.9945170872765
 30
0.0
 10
533.3321525265686
 20
240.9945170872765
 30
0.0
  0
LINE
  5
917
330
1F
100
AcDbEntity
  8
0
100
AcDbLine
 10
533.3321525265686
 20
249.7938962821823
 30
0.0
 11
543.729127140465
 21
249.7938962821823
 31
0.0
  0
LINE
  5
918
330
1F
100
AcDbEntity
  8
0
100
AcDbLine
 10
543.729127140465
 20
249.7938962821823
 30
0.0
 11
543.729127140465
 21
230.6245650762881
 31
0.0
  0
LINE
  5
919
330
1F
100
AcDbEntity
  8
0
100
AcDbLine
 10
543.729127140465
 20
230.6245650762881
 30
0.0
 11
517.9701936397094
 21
230.6245650762881
 31
0.0
  0
LINE
  5
91A
330
1F
100
AcDbEntity
  8
0
100
AcDbLine
 10
517.9701936397094
 20
230.6245650762881
 30
0.0
 11
465.7084186181175
 21
162.5646328179787
 31
0.0
  0
LINE
  5
91B
330
1F
100
AcDbEntity
  8
0
100
AcDbLine
 10
465.7084186181175
 20
162.5646328179787
 30
0.0
 11
465.7084186181175
 21
93.4244013565744
 31
0.0
  0
LINE
  5
91C
330
1F
100
AcDbEntity
  8
0
100
AcDbLine
 10
465.7084186181175
 20
93.4244013565744
 30
0.0
 11
510.7120050665685
 21
32.10472210040516
 31
0.0
  0
LINE
  5
91D
330
1F
100
AcDbEntity
  8
0
100
AcDbLine
 10
510.7120050665685
 20
32.10472210040516
 30
0.0
 11
543.7291271404649
 21
32.1047221004051
 31
0.0
  0
LINE
  5
91E
330
1F
100
AcDbEntity
  8
0
100
AcDbLine
 10
543.7291271404649
 20
32.1047221004051
 30
0.0
 11
543.7291271404649
 21
6.195137892370692
 31
0.0
  0
LINE
  5
91F
330
1F
100
AcDbEntity
  8
0
100
AcDbLine
 10
543.7291271404649
 20
6.195137892370692
 30
0.0
 11
533.3321525265685
 21
6.195137892370692
 31
0.0
  0
LINE
  5
920
330
1F
100
AcDbEntity
  8
0
  6
Continuous
 62
     7
100
AcDbLine
 10
443.3321525265686
 20
92.99451708727653
 30
0.0
 11
506.8314350659685
 21
14.84155396177661
 31
0.0
  0
LINE
  5
921
330
1F
100
AcDbEntity
  8
0
  6
Continuous
 62
     7
100
AcDbLine
 10
510.7120050665685
 20
12.99451708727653
 30
0.0
 11
533.3321525265685
 21
12.99451708727647
 31
0.0
  0
ARC
  5
922
330
1F
100
AcDbEntity
  8
0
  6
Continuous
 62
     7
100
AcDbCircle
 10
510.7120050665685
 20
17.99451708727653
 30
0.0
 40
5.000000000000011
100
AcDbArc
 50
219.0938588862008
 51
270.0
  0
SPLINE
  5
923
330
1F
100
AcDbEntity
  8
0
  6
Continuous
 62
     7
370
    15
100
AcDbSpline
210
0.0
220
0.0
230
1.0
 70
    24
 71
     3
 72
     9
 73
     5
 74
     0
 42
0.000000001
 43
0.00000001
 40
0.3925289326755336
 40
0.3925289326755336
 40
0.3925289326755336
 40
0.3925289326755336
 40
0.4999999999999997
 40
0.6074710673244659
 40
0.6074710673244659
 40
0.6074710673244659
 40
0.6074710673244659
 10
443.3321525265686
 20
162.9945170872765
 30
0.0
 10
443.3321525265686
 20
151.3278504206099
 30
0.0
 10
443.3321525265686
 20
127.9945170872766
 30
0.0
 10
443.3321525265686
 20
104.6611837539432
 30
0.0
 10
443.3321525265686
 20
92.99451708727653
 30
0.0
  0
LINE
  5
924
330
1F
100
AcDbEntity
  8
0
  6
Continuous
 62
     7
100
AcDbLine
 10
443.3321525265686
 20
162.9945170872765
 30
0.0
 11
506.8314350659687
 21
241.1474802127765
 31
0.0
  0
ARC
  5
925
330
1F
100
AcDbEntity
  8
0
  6
Continuous
 62
     7
100
AcDbCircle
 10
510.7120050665686
 20
237.9945170872765
 30
0.0
 40
5.000000000000011
100
AcDbArc
 50
90.0
 51
140.9061411137991
  0
LINE
  5
926
330
1F
100
AcDbEntity
  8
0
  6
Continuous
 62
     7
100
AcDbLine
 10
510.7120050665686
 20
242.9945170872765
 30
0.0
 11
533.3321525265686
 21
242.9945170872765
 31
0.0
  0
LINE
  5
927
330
1F
100
AcDbEntity
  8
0
100
AcDbLine
 10
431.6904425248196
 20
172.4534064636874
 30
0.0
 11
431.6904425248196
 21
83.53562771086578
 31
0.0
  0
LINE
  5
928
330
1F
100
AcDbEntity
  8
0
100
AcDbLine
 10
533.3321525265685
 20
6.195137892370692
 30
0.0
 11
494.5295905022787
 21
6.195137892370749
 31
0.0
  0
LINE
  5
929
330
1F
100
AcDbEntity
  8
0
  6
Continuous
 62
     7
100
AcDbLine
 10
431.6904425248196
 20
83.53562771086578
 30
0.0
 11
494.5295905022787
 21
6.195137892370749
 31
0.0
  0
LINE
  5
92A
330
1F
100
AcDbEntity
  8
0
100
AcDbLine
 10
533.3321525265686
 20
249.7938962821823
 30
0.0
 11
494.5295905022788
 21
249.7938962821823
 31
0.0
  0
LINE
  5
92B
330
1F
100
AcDbEntity
  8
0
  6
Continuous
 62
     7
100
AcDbLine
 10
431.6904425248196
 20
172.4534064636874
 30
0.0
 11
494.5295905022788
 21
249.7938962821823
 31
0.0
  0
SPLINE
  5
92C
330
1F
100
AcDbEntity
  8
0
  6
Continuous
 62
     2
370
    15
100
AcDbSpline
210
0.0
220
0.0
230
1.0
 70
     8
 71
     3
 72
     9
 73
     5
 74
     0
 42
0.000000001
 43
0.00000001
 40
0.3925289326755336
 40
0.3925289326755336
 40
0.3925289326755336
 40
0.3925289326755336
 40
0.4999999999999997
 40
0.6074710673244659
 40
0.6074710673244659
 40
0.6074710673244659
 40
0.6074710673244659
 10
521.0104774989177
 20
162.5646328179787
 30
0.0
 10
521.21665222345
 20
151.0412609077447
 30
0.0
 10
521.4476528296872
 20
127.9945170872765
 30
0.0
 10
521.21665222345
 20
104.9477732668085
 30
0.0
 10
521.0104774989177
 20
93.42440135657442
 30
0.0
  0
SPLINE
  5
92D
330
1F
100
AcDbEntity
  8
0
  6
Continuous
 62
     2
370
    15
100
AcDbSpline
210
0.0
220
0.0
230
1.0
 70
     8
 71
     3
 72
    12
 73
     8
 74
     0
 42
0.000000001
 43
0.00000001
 40
0.6074710673244659
 40
0.6074710673244659
 40
0.6074710673244659
 40
0.6074710673244659
 40
0.9166738891634489
 40
0.9166738891634489
 40
0.9305425316982839
 40
0.9305425316982839
 40
1.0
 40
1.0
 40
1.0
 40
1.0
 10
521.0104774989177
 20
93.42440135657442
 30
0.0
 10
541.583723905706
 20
67.78568407720233
 30
0.0
 10
561.4064048670134
 20
42.14696679783013
 30
0.0
 10
581.9517139252148
 20
15.35827875530491
 30
0.0
 10
583.1418938938868
 20
14.99451708727655
 30
0.0
 10
591.9466289029374
 20
14.99451708727649
 30
0.0
 10
599.139390714753
 20
14.99451708727649
 30
0.0
 10
606.3321525265685
 20
14.99451708727649
 30
0.0
  0
LINE
  5
92E
330
1F
100
AcDbEntity
  8
0
  6
Continuous
 62
     2
370
    15
100
AcDbLine
 10
606.3321525265685
 20
14.99451708727649
 30
0.0
 11
606.3321525265685
 21
6.195137892370711
 31
0.0
  0
LINE
  5
92F
330
1F
100
AcDbEntity
  8
0
  6
Continuous
 62
     2
370
    15
100
AcDbLine
 10
606.3321525265686
 20
240.9945170872765
 30
0.0
 11
606.3321525265686
 21
249.7938962821823
 31
0.0
  0
SPLINE
  5
930
330
1F
100
AcDbEntity
  8
0
  6
Continuous
 62
     2
370
    15
100
AcDbSpline
210
0.0
220
0.0
230
1.0
 70
     8
 71
     3
 72
    12
 73
     8
 74
     0
 42
0.000000001
 43
0.00000001
 40
0.6074710673244659
 40
0.6074710673244659
 40
0.6074710673244659
 40
0.6074710673244659
 40
0.9166738891634489
 40
0.9166738891634489
 40
0.9305425316982839
 40
0.9305425316982839
 40
1.0
 40
1.0
 40
1.0
 40
1.0
 10
521.0104774989177
 20
162.5646328179787
 30
0.0
 10
541.583723905706
 20
188.2033500973508
 30
0.0
 10
561.4064048670135
 20
213.842067376723
 30
0.0
 10
581.9517139252149
 20
240.6307554192482
 30
0.0
 10
583.1418938938868
 20
240.9945170872765
 30
0.0
 10
591.9466289029375
 20
240.9945170872765
 30
0.0
 10
599.1393907147531
 20
240.9945170872765
 30
0.0
 10
606.3321525265686
 20
240.9945170872765
 30
0.0
  0
LINE
  5
931
330
1F
100
AcDbEntity
  8
0
100
AcDbLine
 10
606.3321525265686
 20
249.7938962821823
 30
0.0
 11
616.729127140465
 21
249.7938962821823
 31
0.0
  0
LINE
  5
932
330
1F
100
AcDbEntity
  8
0
100
AcDbLine
 10
616.729127140465
 20
249.7938962821823
 30
0.0
 11
616.729127140465
 21
230.6245650762881
 31
0.0
  0
LINE
  5
933
330
1F
100
AcDbEntity
  8
0
100
AcDbLine
 10
616.729127140465
 20
230.6245650762881
 30
0.0
 11
590.9701936397094
 21
230.6245650762881
 31
0.0
  0
LINE
  5
934
330
1F
100
AcDbEntity
  8
0
100
AcDbLine
 10
590.9701936397094
 20
230.6245650762881
 30
0.0
 11
538.7084186181175
 21
162.5646328179787
 31
0.0
  0
LINE
  5
935
330
1F
100
AcDbEntity
  8
0
100
AcDbLine
 10
538.7084186181175
 20
162.5646328179787
 30
0.0
 11
538.7084186181175
 21
93.42440135657442
 31
0.0
  0
LINE
  5
936
330
1F
100
AcDbEntity
  8
0
100
AcDbLine
 10
538.7084186181175
 20
93.42440135657442
 30
0.0
 11
583.7120050665685
 21
32.10472210040517
 31
0.0
  0
LINE
  5
937
330
1F
100
AcDbEntity
  8
0
100
AcDbLine
 10
583.7120050665685
 20
32.10472210040517
 30
0.0
 11
616.7291271404649
 21
32.10472210040511
 31
0.0
  0
LINE
  5
938
330
1F
100
AcDbEntity
  8
0
100
AcDbLine
 10
616.7291271404649
 20
32.10472210040511
 30
0.0
 11
616.7291271404649
 21
6.195137892370711
 31
0.0
  0
LINE
  5
939
330
1F
100
AcDbEntity
  8
0
100
AcDbLine
 10
616.7291271404649
 20
6.195137892370711
 30
0.0
 11
606.3321525265685
 21
6.195137892370711
 31
0.0
  0
LINE
  5
93A
330
1F
100
AcDbEntity
  8
0
  6
Continuous
 62
     7
100
AcDbLine
 10
516.3321525265686
 20
92.99451708727655
 30
0.0
 11
579.8314350659685
 21
14.84155396177663
 31
0.0
  0
LINE
  5
93B
330
1F
100
AcDbEntity
  8
0
  6
Continuous
 62
     7
100
AcDbLine
 10
583.7120050665685
 20
12.99451708727655
 30
0.0
 11
606.3321525265685
 21
12.99451708727649
 31
0.0
  0
ARC
  5
93C
330
1F
100
AcDbEntity
  8
0
  6
Continuous
 62
     7
100
AcDbCircle
 10
583.7120050665685
 20
17.99451708727655
 30
0.0
 40
5.000000000000011
100
AcDbArc
 50
219.0938588862008
 51
270.0
  0
SPLINE
  5
93D
330
1F
100
AcDbEntity
  8
0
  6
Continuous
 62
     7
370
    15
100
AcDbSpline
210
0.0
220
0.0
230
1.0
 70
    24
 71
     3
 72
     9
 73
     5
 74
     0
 42
0.000000001
 43
0.00000001
 40
0.3925289326755336
 40
0.3925289326755336
 40
0.3925289326755336
 40
0.3925289326755336
 40
0.4999999999999997
 40
0.6074710673244659
 40
0.6074710673244659
 40
0.6074710673244659
 40
0.6074710673244659
 10
516.3321525265686
 20
162.9945170872766
 30
0.0
 10
516.3321525265686
 20
151.3278504206099
 30
0.0
 10
516.3321525265686
 20
127.9945170872766
 30
0.0
 10
516.3321525265686
 20
104.6611837539432
 30
0.0
 10
516.3321525265686
 20
92.99451708727655
 30
0.0
  0
LINE
  5
93E
330
1F
100
AcDbEntity
  8
0
  6
Continuous
 62
     7
100
AcDbLine
 10
516.3321525265686
 20
162.9945170872766
 30
0.0
 11
579.8314350659687
 21
241.1474802127766
 31
0.0
  0
ARC
  5
93F
330
1F
100
AcDbEntity
  8
0
  6
Continuous
 62
     7
100
AcDbCircle
 10
583.7120050665686
 20
237.9945170872765
 30
0.0
 40
5.000000000000011
100
AcDbArc
 50
90.0
 51
140.9061411137991
  0
LINE
  5
940
330
1F
100
AcDbEntity
  8
0
  6
Continuous
 62
     7
100
AcDbLine
 10
583.7120050665686
 20
242.9945170872765
 30
0.0
 11
606.3321525265686
 21
242.9945170872765
 31
0.0
  0
LINE
  5
941
330
1F
100
AcDbEntity
  8
0
100
AcDbLine
 10
504.6904425248196
 20
172.4534064636874
 30
0.0
 11
504.6904425248196
 21
83.5356277108658
 31
0.0
  0
LINE
  5
942
330
1F
100
AcDbEntity
  8
0
100
AcDbLine
 10
606.3321525265685
 20
6.195137892370711
 30
0.0
 11
567.5295905022787
 21
6.195137892370767
 31
0.0
  0
LINE
  5
943
330
1F
100
AcDbEntity
  8
0
  6
Continuous
 62
     7
100
AcDbLine
 10
504.6904425248196
 20
83.5356277108658
 30
0.0
 11
567.5295905022787
 21
6.195137892370767
 31
0.0
  0
LINE
  5
944
330
1F
100
AcDbEntity
  8
0
100
AcDbLine
 10
606.3321525265686
 20
249.7938962821823
 30
0.0
 11
567.5295905022788
 21
249.7938962821823
 31
0.0
  0
LINE
  5
945
330
1F
100
AcDbEntity
  8
0
  6
Continuous
 62
     7
100
AcDbLine
 10
504.6904425248196
 20
172.4534064636874
 30
0.0
 11
567.5295905022788
 21
249.7938962821823
 31
0.0
  0
ENDSEC
  0
SECTION
  2
OBJECTS
  0
DICTIONARY
  5
C
330
0
100
AcDbDictionary
281
     1
  3
ACAD_DETAILVIEWSTYLE
350
11F
  3
ACAD_GROUP
350
D
  3
ACAD_IMAGE_VARS
350
B1
  3
ACAD_LAYOUT
350
1A
  3
ACAD_MLINESTYLE
350
17
  3
ACAD_PLOTSETTINGS
350
19
  3
ACAD_PLOTSTYLENAME
350
E
  3
ACAD_SCALELIST
350
47
  3
ACAD_SECTIONVIEWSTYLE
350
120
  3
AcDbVariableDictionary
350
11A
  3
APPDATA
350
AF
  3
DWGPROPS
350
946
  0
DICTIONARY
  5
11F
102
{ACAD_REACTORS
330
C
102
}
330
C
100
AcDbDictionary
281
     1
  0
DICTIONARY
  5
D
102
{ACAD_REACTORS
330
C
102
}
330
C
100
AcDbDictionary
281
     1
  0
RASTERVARIABLES
  5
B1
102
{ACAD_REACTORS
330
C
102
}
330
C
100
AcDbRasterVariables
 90
        0
 70
     1
 71
     1
 72
     1
  0
DICTIONARY
  5
1A
102
{ACAD_REACTORS
330
C
102
}
330
C
100
AcDbDictionary
281
     1
  3
Layout1
350
1E
  3
Layout2
350
26
  3
Model
350
22
  0
DICTIONARY
  5
17
102
{ACAD_REACTORS
330
C
102
}
330
C
100
AcDbDictionary
281
     1
  3
Standard
350
18
  0
DICTIONARY
  5
19
102
{ACAD_REACTORS
330
C
102
}
330
C
100
AcDbDictionary
281
     1
  0
ACDBDICTIONARYWDFLT
  5
E
102
{ACAD_REACTORS
330
C
102
}
330
C
100
AcDbDictionary
281
     1
  3
Normal
350
F
100
AcDbDictionaryWithDefault
340
F
  0
DICTIONARY
  5
47
102
{ACAD_REACTORS
330
C
102
}
330
C
100
AcDbDictionary
281
     1
  3
A0
350
48
  3
A1
350
49
  3
A2
350
4A
  3
A3
350
4B
  3
A4
350
4C
  3
A5
350
4D
  3
A6
350
4E
  3
A7
350
4F
  3
A8
350
50
  3
A9
350
51
  3
B0
350
52
  3
B1
350
53
  3
B2
350
54
  3
B3
350
55
  3
B4
350
56
  3
B5
350
57
  3
B6
350
58
  3
B7
350
59
  3
B8
350
5A
  3
B9
350
5B
  3
C0
350
5C
  3
C1
350
5D
  3
C2
350
5E
  3
C3
350
5F
  3
C4
350
60
  3
C5
350
61
  3
C6
350
62
  3
C7
350
63
  3
C8
350
64
  3
C9
350
65
  3
D0
350
66
  3
D1
350
67
  3
D2
350
68
  0
DICTIONARY
  5
120
102
{ACAD_REACTORS
330
C
102
}
330
C
100
AcDbDictionary
281
     1
  0
DICTIONARY
  5
11A
102
{ACAD_REACTORS
330
C
102
}
330
C
100
AcDbDictionary
281
     1
  0
DICTIONARY
  5
AF
102
{ACAD_REACTORS
330
C
102
}
330
C
100
AcDbDictionary
281
     1
  0
XRECORD
  5
946
102
{ACAD_REACTORS
330
C
102
}
330
C
100
AcDbXrecord
280
     1
  1
DWGPROPS COOKIE
  2

  3

  4

  6

  7

  8
Luis
  9

300
=
301
=
302
=
303
=
304
=
305
=
306
=
307
=
308
=
309
=
 40
0.0
 41
2457517.749371609
 42
2457518.64142956
  1

 90
        0
  0
LAYOUT
  5
1E
102
{ACAD_REACTORS
330
1A
102
}
330
1A
100
AcDbPlotSettings
  1

  2
none_device
  4

  6

 40
0.0
 41
0.0
 42
0.0
 43
0.0
 44
0.0
 45
0.0
 46
0.0
 47
0.0
 48
0.0
 49
0.0
140
0.0
141
0.0
142
1.0
143
1.0
 70
   688
 72
     1
 73
     0
 74
     5
  7

 75
    16
147
1.0
148
0.0
149
0.0
100
AcDbLayout
  1
Layout1
 70
     1
 71
     1
 10
0.0
 20
0.0
 11
420.0
 21
297.0
 12
0.0
 22
0.0
 32
0.0
 14
1.000000000000000E+20
 24
1.000000000000000E+20
 34
1.000000000000000E+20
 15
-1.000000000000000E+20
 25
-1.000000000000000E+20
 35
-1.000000000000000E+20
146
0.0
 13
0.0
 23
0.0
 33
0.0
 16
1.0
 26
0.0
 36
0.0
 17
0.0
 27
1.0
 37
0.0
 76
     0
330
1B
  0
LAYOUT
  5
26
102
{ACAD_REACTORS
330
1A
102
}
330
1A
100
AcDbPlotSettings
  1

  2
none_device
  4

  6

 40
0.0
 41
0.0
 42
0.0
 43
0.0
 44
0.0
 45
0.0
 46
0.0
 47
0.0
 48
0.0
 49
0.0
140
0.0
141
0.0
142
1.0
143
1.0
 70
   688
 72
     1
 73
     0
 74
     5
  7

 75
    16
147
1.0
148
0.0
149
0.0
100
AcDbLayout
  1
Layout2
 70
     1
 71
     2
 10
0.0
 20
0.0
 11
0.0
 21
0.0
 12
0.0
 22
0.0
 32
0.0
 14
0.0
 24
0.0
 34
0.0
 15
0.0
 25
0.0
 35
0.0
146
0.0
 13
0.0
 23
0.0
 33
0.0
 16
1.0
 26
0.0
 36
0.0
 17
0.0
 27
1.0
 37
0.0
 76
     0
330
23
  0
LAYOUT
  5
22
102
{ACAD_REACTORS
330
1A
102
}
330
1A
100
AcDbPlotSettings
  1

  2
none_device
  4
ANSI_A_(11.00_x_8.50_Inches)
  6

 40
6.35
 41
19.05
 42
6.35000508
 43
19.05000254
 44
279.4
 45
215.9
 46
133.34999746
 47
142.6557760227
 48
0.0
 49
0.0
140
0.0
141
0.0
142
0.0470304263
143
1.0
 70
  1696
 72
     0
 73
     0
 74
     0
  7

 75
     0
147
0.0179189148
148
-1300.4909072572
149
0.0
100
AcDbLayout
  1
Model
 70
     1
 71
     0
 10
0.0
 20
0.0
 11
420.0
 21
297.0
 12
0.0
 22
0.0
 32
0.0
 14
1.000000000000000E+20
 24
1.000000000000000E+20
 34
1.000000000000000E+20
 15
-1.000000000000000E+20
 25
-1.000000000000000E+20
 35
-1.000000000000000E+20
146
0.0
 13
0.0
 23
0.0
 33
0.0
 16
1.0
 26
0.0
 36
0.0
 17
0.0
 27
1.0
 37
0.0
 76
     0
330
1F
331
29
  0
MLINESTYLE
  5
18
102
{ACAD_REACTORS
330
17
102
}
330
17
100
AcDbMlineStyle
  2
Standard
 70
     0
  3

 62
   256
 51
90.0
 52
90.0
 71
     2
 49
0.5
 62
   256
  6
BYLAYER
 49
-0.5
 62
   256
  6
BYLAYER
  0
ACDBPLACEHOLDER
  5
F
102
{ACAD_REACTORS
330
E
102
}
330
E
  0
SCALE
  5
48
102
{ACAD_REACTORS
330
47
102
}
330
47
100
AcDbScale
 70
     0
300
1:1
140
1.0
141
1.0
290
     1
  0
SCALE
  5
49
102
{ACAD_REACTORS
330
47
102
}
330
47
100
AcDbScale
 70
     0
300
1:2
140
1.0
141
2.0
290
     0
  0
SCALE
  5
4A
102
{ACAD_REACTORS
330
47
102
}
330
47
100
AcDbScale
 70
     0
300
1:4
140
1.0
141
4.0
290
     0
  0
SCALE
  5
4B
102
{ACAD_REACTORS
330
47
102
}
330
47
100
AcDbScale
 70
     0
300
1:5
140
1.0
141
5.0
290
     0
  0
SCALE
  5
4C
102
{ACAD_REACTORS
330
47
102
}
330
47
100
AcDbScale
 70
     0
300
1:8
140
1.0
141
8.0
290
     0
  0
SCALE
  5
4D
102
{ACAD_REACTORS
330
47
102
}
330
47
100
AcDbScale
 70
     0
300
1:10
140
1.0
141
10.0
290
     0
  0
SCALE
  5
4E
102
{ACAD_REACTORS
330
47
102
}
330
47
100
AcDbScale
 70
     0
300
1:16
140
1.0
141
16.0
290
     0
  0
SCALE
  5
4F
102
{ACAD_REACTORS
330
47
102
}
330
47
100
AcDbScale
 70
     0
300
1:20
140
1.0
141
20.0
290
     0
  0
SCALE
  5
50
102
{ACAD_REACTORS
330
47
102
}
330
47
100
AcDbScale
 70
     0
300
1:30
140
1.0
141
30.0
290
     0
  0
SCALE
  5
51
102
{ACAD_REACTORS
330
47
102
}
330
47
100
AcDbScale
 70
     0
300
1:40
140
1.0
141
40.0
290
     0
  0
SCALE
  5
52
102
{ACAD_REACTORS
330
47
102
}
330
47
100
AcDbScale
 70
     0
300
1:50
140
1.0
141
50.0
290
     0
  0
SCALE
  5
53
102
{ACAD_REACTORS
330
47
102
}
330
47
100
AcDbScale
 70
     0
300
1:100
140
1.0
141
100.0
290
     0
  0
SCALE
  5
54
102
{ACAD_REACTORS
330
47
102
}
330
47
100
AcDbScale
 70
     0
300
2:1
140
2.0
141
1.0
290
     0
  0
SCALE
  5
55
102
{ACAD_REACTORS
330
47
102
}
330
47
100
AcDbScale
 70
     0
300
4:1
140
4.0
141
1.0
290
     0
  0
SCALE
  5
56
102
{ACAD_REACTORS
330
47
102
}
330
47
100
AcDbScale
 70
     0
300
8:1
140
8.0
141
1.0
290
     0
  0
SCALE
  5
57
102
{ACAD_REACTORS
330
47
102
}
330
47
100
AcDbScale
 70
     0
300
10:1
140
10.0
141
1.0
290
     0
  0
SCALE
  5
58
102
{ACAD_REACTORS
330
47
102
}
330
47
100
AcDbScale
 70
     0
300
100:1
140
100.0
141
1.0
290
     0
  0
SCALE
  5
59
102
{ACAD_REACTORS
330
47
102
}
330
47
100
AcDbScale
 70
     0
300
1/128" = 1'-0"
140
0.0078125
141
12.0
290
     0
  0
SCALE
  5
5A
102
{ACAD_REACTORS
330
47
102
}
330
47
100
AcDbScale
 70
     0
300
1/64" = 1'-0"
140
0.015625
141
12.0
290
     0
  0
SCALE
  5
5B
102
{ACAD_REACTORS
330
47
102
}
330
47
100
AcDbScale
 70
     0
300
1/32" = 1'-0"
140
0.03125
141
12.0
290
     0
  0
SCALE
  5
5C
102
{ACAD_REACTORS
330
47
102
}
330
47
100
AcDbScale
 70
     0
300
1/16" = 1'-0"
140
0.0625
141
12.0
290
     0
  0
SCALE
  5
5D
102
{ACAD_REACTORS
330
47
102
}
330
47
100
AcDbScale
 70
     0
300
3/32" = 1'-0"
140
0.09375
141
12.0
290
     0
  0
SCALE
  5
5E
102
{ACAD_REACTORS
330
47
102
}
330
47
100
AcDbScale
 70
     0
300
1/8" = 1'-0"
140
0.125
141
12.0
290
     0
  0
SCALE
  5
5F
102
{ACAD_REACTORS
330
47
102
}
330
47
100
AcDbScale
 70
     0
300
3/16" = 1'-0"
140
0.1875
141
12.0
290
     0
  0
SCALE
  5
60
102
{ACAD_REACTORS
330
47
102
}
330
47
100
AcDbScale
 70
     0
300
1/4" = 1'-0"
140
0.25
141
12.0
290
     0
  0
SCALE
  5
61
102
{ACAD_REACTORS
330
47
102
}
330
47
100
AcDbScale
 70
     0
300
3/8" = 1'-0"
140
0.375
141
12.0
290
     0
  0
SCALE
  5
62
102
{ACAD_REACTORS
330
47
102
}
330
47
100
AcDbScale
 70
     0
300
1/2" = 1'-0"
140
0.5
141
12.0
290
     0
  0
SCALE
  5
63
102
{ACAD_REACTORS
330
47
102
}
330
47
100
AcDbScale
 70
     0
300
3/4" = 1'-0"
140
0.75
141
12.0
290
     0
  0
SCALE
  5
64
102
{ACAD_REACTORS
330
47
102
}
330
47
100
AcDbScale
 70
     0
300
1" = 1'-0"
140
1.0
141
12.0
290
     0
  0
SCALE
  5
65
102
{ACAD_REACTORS
330
47
102
}
330
47
100
AcDbScale
 70
     0
300
1-1/2" = 1'-0"
140
1.5
141
12.0
290
     0
  0
SCALE
  5
66
102
{ACAD_REACTORS
330
47
102
}
330
47
100
AcDbScale
 70
     0
300
3" = 1'-0"
140
3.0
141
12.0
290
     0
  0
SCALE
  5
67
102
{ACAD_REACTORS
330
47
102
}
330
47
100
AcDbScale
 70
     0
300
6" = 1'-0"
140
6.0
141
12.0
290
     0
  0
SCALE
  5
68
102
{ACAD_REACTORS
330
47
102
}
330
47
100
AcDbScale
 70
     0
300
1'-0" = 1'-0"
140
12.0
141
12.0
290
     0
  0
ENDSEC
  0
EOF
