  0
SECTION
  2
HEADER
  9
$ACADVER
  1
AC1009
  9
$DWGCODEPAGE
  3
mac-roman
  9
$INSBASE
 10
0.0
 20
0.0
 30
0.0
  9
$EXTMIN
 10
-248.3893757739182
 20
-447.1644367371673
 30
0.0
  9
$EXTMAX
 10
458.9946362513702
 20
744.5561033294861
 30
0.0
  9
$LIMMIN
 10
0.0
 20
0.0
  9
$LIMMAX
 10
12.0
 20
9.0
  9
$ORTHOMODE
 70
     0
  9
$REGENMODE
 70
     1
  9
$FILLMODE
 70
     1
  9
$QTEXTMODE
 70
     0
  9
$MIRRTEXT
 70
     1
  9
$DRAGMODE
 70
     2
  9
$LTSCALE
 40
1.0
  9
$OSMODE
 70
    37
  9
$ATTMODE
 70
     1
  9
$TEXTSIZE
 40
0.2
  9
$TRACEWID
 40
0.05
  9
$TEXTSTYLE
  7
STANDARD
  9
$CLAYER
  8
0
  9
$CELTYPE
  6
BYLAYER
  9
$CECOLOR
 62
   256
  9
$DIMSCALE
 40
1.0
  9
$DIMASZ
 40
0.18
  9
$DIMEXO
 40
0.0625
  9
$DIMDLI
 40
0.38
  9
$DIMRND
 40
0.0
  9
$DIMDLE
 40
0.0
  9
$DIMEXE
 40
0.18
  9
$DIMTP
 40
0.0
  9
$DIMTM
 40
0.0
  9
$DIMTXT
 40
0.18
  9
$DIMCEN
 40
0.09
  9
$DIMTSZ
 40
0.0
  9
$DIMTOL
 70
     0
  9
$DIMLIM
 70
     0
  9
$DIMTIH
 70
     1
  9
$DIMTOH
 70
     1
  9
$DIMSE1
 70
     0
  9
$DIMSE2
 70
     0
  9
$DIMTAD
 70
     0
  9
$DIMZIN
 70
     0
  9
$DIMBLK
  1

  9
$DIMASO
 70
     1
  9
$DIMSHO
 70
     1
  9
$DIMPOST
  1

  9
$DIMAPOST
  1

  9
$DIMALT
 70
     0
  9
$DIMALTD
 70
     2
  9
$DIMALTF
 40
25.4
  9
$DIMLFAC
 40
1.0
  9
$DIMTOFL
 70
     0
  9
$DIMTVP
 40
0.0
  9
$DIMTIX
 70
     0
  9
$DIMSOXD
 70
     0
  9
$DIMSAH
 70
     0
  9
$DIMBLK1
  1

  9
$DIMBLK2
  1

  9
$DIMSTYLE
  2
STANDARD
  9
$DIMCLRD
 70
     0
  9
$DIMCLRE
 70
     0
  9
$DIMCLRT
 70
     0
  9
$DIMTFAC
 40
1.0
  9
$DIMGAP
 40
0.09
  9
$LUNITS
 70
     2
  9
$LUPREC
 70
     3
  9
$SKETCHINC
 40
0.1
  9
$FILLETRAD
 40
0.5
  9
$AUNITS
 70
     0
  9
$AUPREC
 70
     0
  9
$MENU
  1
.
  9
$ELEVATION
 40
0.0
  9
$PELEVATION
 40
0.0
  9
$THICKNESS
 40
0.0
  9
$LIMCHECK
 70
     0
  9
$CHAMFERA
 40
0.0
  9
$CHAMFERB
 40
0.0
  9
$SKPOLY
 70
     0
  9
$TDCREATE
 40
2457458.623865741
  9
$TDUPDATE
 40
2457458.623900463
  9
$TDINDWG
 40
0.0000000116
  9
$TDUSRTIMER
 40
0.0000000116
  9
$USRTIMER
 70
     1
  9
$ANGBASE
 50
0.0
  9
$ANGDIR
 70
     0
  9
$PDMODE
 70
     0
  9
$PDSIZE
 40
0.0
  9
$PLINEWID
 40
0.0
  9
$COORDS
 70
     1
  9
$SPLFRAME
 70
     0
  9
$SPLINETYPE
 70
     6
  9
$SPLINESEGS
 70
     8
  9
$ATTDIA
 70
     0
  9
$ATTREQ
 70
     1
  9
$HANDLING
 70
     1
  9
$HANDSEED
  5
C10
  9
$SURFTAB1
 70
     6
  9
$SURFTAB2
 70
     6
  9
$SURFTYPE
 70
     6
  9
$SURFU
 70
     6
  9
$SURFV
 70
     6
  9
$UCSNAME
  2

  9
$UCSORG
 10
0.0
 20
0.0
 30
0.0
  9
$UCSXDIR
 10
1.0
 20
0.0
 30
0.0
  9
$UCSYDIR
 10
0.0
 20
1.0
 30
0.0
  9
$PUCSNAME
  2

  9
$PUCSORG
 10
0.0
 20
0.0
 30
0.0
  9
$PUCSXDIR
 10
1.0
 20
0.0
 30
0.0
  9
$PUCSYDIR
 10
0.0
 20
1.0
 30
0.0
  9
$USERI1
 70
     0
  9
$USERI2
 70
     0
  9
$USERI3
 70
     0
  9
$USERI4
 70
     0
  9
$USERI5
 70
     0
  9
$USERR1
 40
0.0
  9
$USERR2
 40
0.0
  9
$USERR3
 40
0.0
  9
$USERR4
 40
0.0
  9
$USERR5
 40
0.0
  9
$WORLDVIEW
 70
     1
  9
$SHADEDGE
 70
     3
  9
$SHADEDIF
 70
    70
  9
$TILEMODE
 70
     1
  9
$MAXACTVP
 70
    64
  9
$PLIMCHECK
 70
     0
  9
$PEXTMIN
 10
1.000000000000000E+20
 20
1.000000000000000E+20
 30
1.000000000000000E+20
  9
$PEXTMAX
 10
-1.000000000000000E+20
 20
-1.000000000000000E+20
 30
-1.000000000000000E+20
  9
$PLIMMIN
 10
0.0
 20
0.0
  9
$PLIMMAX
 10
12.0
 20
9.0
  9
$UNITMODE
 70
     0
  9
$VISRETAIN
 70
     1
  9
$PLINEGEN
 70
     0
  9
$PSLTSCALE
 70
     1
  0
ENDSEC
  0
SECTION
  2
TABLES
  0
TABLE
  2
VPORT
 70
     1
  0
VPORT
  2
*ACTIVE
 70
     0
 10
0.0
 20
0.0
 11
1.0
 21
1.0
 12
105.302630238726
 22
148.6958332961594
 13
0.0
 23
0.0
 14
0.5
 24
0.5
 15
0.5
 25
0.5
 16
0.0
 26
0.0
 36
1.0
 17
0.0
 27
0.0
 37
0.0
 40
1215.554950867986
 41
0.5935821262136878
 42
50.0
 43
0.0
 44
0.0
 50
0.0
 51
0.0
 71
     0
 72
   100
 73
     1
 74
     3
 75
     0
 76
     0
 77
     0
 78
     0
  0
ENDTAB
  0
TABLE
  2
LTYPE
 70
     1
  0
LTYPE
  2
CONTINUOUS
 70
     0
  3
Solid line
 72
    65
 73
     0
 40
0.0
  0
ENDTAB
  0
TABLE
  2
LAYER
 70
     3
  0
LAYER
  2
0
 70
     0
 62
     7
  6
CONTINUOUS
  0
LAYER
  2
LAYER_2
 70
     0
 62
     7
  6
CONTINUOUS
  0
LAYER
  2
LAYER_3
 70
     0
 62
     7
  6
CONTINUOUS
  0
ENDTAB
  0
TABLE
  2
STYLE
 70
     1
  0
STYLE
  2
STANDARD
 70
     0
 40
0.0
 41
1.0
 50
0.0
 71
     0
 42
0.2
  3
txt
  4

  0
ENDTAB
  0
TABLE
  2
VIEW
 70
     0
  0
ENDTAB
  0
TABLE
  2
UCS
 70
     0
  0
ENDTAB
  0
TABLE
  2
APPID
 70
     1
  0
APPID
  2
ACAD
 70
     0
  0
ENDTAB
  0
TABLE
  2
DIMSTYLE
 70
     1
  0
DIMSTYLE
  2
STANDARD
 70
     0
  3

  4

  5

  6

  7

 40
1.0
 41
0.18
 42
0.0625
 43
0.38
 44
0.18
 45
0.0
 46
0.0
 47
0.0
 48
0.0
140
0.18
141
0.09
142
0.0
143
25.4
144
1.0
145
0.0
146
1.0
147
0.09
 71
     0
 72
     0
 73
     1
 74
     1
 75
     0
 76
     0
 77
     0
 78
     0
170
     0
171
     2
172
     0
173
     0
174
     0
175
     0
176
     0
177
     0
178
     0
  0
ENDTAB
  0
ENDSEC
  0
SECTION
  2
BLOCKS
  0
BLOCK
  8
0
  2
$MODEL_SPACE
 70
     0
 10
0.0
 20
0.0
 30
0.0
  3
$MODEL_SPACE
  1

  0
ENDBLK
  5
21
  8
0
  0
BLOCK
 67
     1
  8
0
  2
$PAPER_SPACE
 70
     0
 10
0.0
 20
0.0
 30
0.0
  3
$PAPER_SPACE
  1

  0
ENDBLK
  5
1D
 67
     1
  8
0
  0
BLOCK
  8
0
  2
BLOCK_510
 70
     0
 10
0.0
 20
0.0
 30
0.0
  3
BLOCK_510
  1

  0
INSERT
  5
74
  8
LAYER_2
  2
BLOCK_511
 10
0.0
 20
0.0
 30
0.0
  0
ENDBLK
  5
76
  8
0
  0
BLOCK
  8
0
  2
BLOCK_511
 70
     0
 10
0.0
 20
0.0
 30
0.0
  3
BLOCK_511
  1

  0
LINE
  5
71
  8
LAYER_2
 62
     7
 10
114.0802028794661
 20
439.1745712877758
 30
0.0
 11
114.0802028794661
 21
339.1744736565258
 31
0.0
  0
ENDBLK
  5
73
  8
0
  0
BLOCK
  8
0
  2
BLOCK_508
 70
     0
 10
0.0
 20
0.0
 30
0.0
  3
BLOCK_508
  1

  0
INSERT
  5
92
  8
LAYER_2
  2
BLOCK_509
 10
0.0
 20
0.0
 30
0.0
  0
ENDBLK
  5
94
  8
0
  0
BLOCK
  8
0
  2
BLOCK_509
 70
     0
 10
0.0
 20
0.0
 30
0.0
  3
BLOCK_509
  1

  0
LINE
  5
7A
  8
LAYER_2
 62
     7
 10
114.0802028794661
 20
-447.1644367371673
 30
0.0
 11
118.2804632950827
 21
-440.6580294037244
 31
0.0
  0
LINE
  5
7B
  8
LAYER_2
 62
     7
 10
118.2804632950827
 20
-440.6580294037244
 30
0.0
 11
122.3281059807027
 21
-433.8891057943055
 31
0.0
  0
LINE
  5
7C
  8
LAYER_2
 62
     7
 10
122.3281059807027
 20
-433.8891057943055
 30
0.0
 11
126.2179632930983
 21
-426.8669676667208
 31
0.0
  0
LINE
  5
7D
  8
LAYER_2
 62
     7
 10
126.2179632930983
 20
-426.8669676667208
 30
0.0
 11
129.943834060396
 21
-419.6022948169744
 31
0.0
  0
LINE
  5
7E
  8
LAYER_2
 62
     7
 10
129.943834060396
 20
-419.6022948169744
 30
0.0
 11
133.5002061298194
 21
-412.1054225315223
 31
0.0
  0
LINE
  5
7F
  8
LAYER_2
 62
     7
 10
133.5002061298194
 20
-412.1054225315223
 30
0.0
 11
136.8822563676892
 21
-404.3877196254656
 31
0.0
  0
LINE
  5
80
  8
LAYER_2
 62
     7
 10
136.8822563676892
 20
-404.3877196254656
 30
0.0
 11
140.0848171307774
 21
-396.4602104043572
 31
0.0
  0
LINE
  5
81
  8
LAYER_2
 62
     7
 10
140.0848171307774
 20
-396.4602104043572
 30
0.0
 11
143.1030652854048
 21
-388.3342636832984
 31
0.0
  0
LINE
  5
82
  8
LAYER_2
 62
     7
 10
143.1030652854048
 20
-388.3342636832984
 30
0.0
 11
145.9332112265375
 21
-380.0222818060361
 31
0.0
  0
LINE
  5
83
  8
LAYER_2
 62
     7
 10
145.9332112265375
 20
-380.0222818060361
 30
0.0
 11
148.5700873109478
 21
-371.5356335876717
 31
0.0
  0
LINE
  5
84
  8
LAYER_2
 62
     7
 10
148.5700873109478
 20
-371.5356335876717
 30
0.0
 11
151.0109374622473
 21
-362.8877549005975
 31
0.0
  0
LINE
  5
85
  8
LAYER_2
 62
     7
 10
151.0109374622473
 20
-362.8877549005975
 30
0.0
 11
153.2512830563053
 21
-354.0903590694635
 31
0.0
  0
LINE
  5
86
  8
LAYER_2
 62
     7
 10
153.2512830563053
 20
-354.0903590694635
 30
0.0
 11
155.2883680167335
 21
-345.1565374571136
 31
0.0
  0
LINE
  5
87
  8
LAYER_2
 62
     7
 10
155.2883680167335
 20
-345.1565374571136
 30
0.0
 11
157.1190917575952
 21
-336.0997259359403
 31
0.0
  0
LINE
  5
88
  8
LAYER_2
 62
     7
 10
157.1190917575952
 20
-336.0997259359403
 30
0.0
 11
158.7410427120509
 21
-326.9330158687876
 31
0.0
  0
LINE
  5
89
  8
LAYER_2
 62
     7
 10
158.7410427120509
 20
-326.9330158687876
 30
0.0
 11
160.1511202941636
 21
-317.6694986184993
 31
0.0
  0
LINE
  5
8A
  8
LAYER_2
 62
     7
 10
160.1511202941636
 20
-317.6694986184993
 30
0.0
 11
161.3479464657394
 21
-308.3229545670165
 31
0.0
  0
LINE
  5
8B
  8
LAYER_2
 62
     7
 10
161.3479464657394
 20
-308.3229545670165
 30
0.0
 11
162.3297986790356
 21
-298.9071640962802
 31
0.0
  0
LINE
  5
8C
  8
LAYER_2
 62
     7
 10
162.3297986790356
 20
-298.9071640962802
 30
0.0
 11
163.0946098767611
 21
-289.4355630786828
 31
0.0
  0
LINE
  5
8D
  8
LAYER_2
 62
     7
 10
163.0946098767611
 20
-289.4355630786828
 30
0.0
 11
163.6420355493673
 21
-279.9219318961653
 31
0.0
  0
LINE
  5
8E
  8
LAYER_2
 62
     7
 10
163.6420355493673
 20
-279.9219318961653
 30
0.0
 11
163.9706976586601
 21
-270.3807399497659
 31
0.0
  0
LINE
  5
8F
  8
LAYER_2
 62
     7
 10
163.9706976586601
 20
-270.3807399497659
 30
0.0
 11
164.0802516950911
 21
-260.825423111877
 31
0.0
  0
ENDBLK
  5
91
  8
0
  0
BLOCK
  8
0
  2
BLOCK_506
 70
     0
 10
0.0
 20
0.0
 30
0.0
  3
BLOCK_506
  1

  0
INSERT
  5
9B
  8
LAYER_2
  2
BLOCK_507
 10
0.0
 20
0.0
 30
0.0
  0
ENDBLK
  5
9D
  8
0
  0
BLOCK
  8
0
  2
BLOCK_507
 70
     0
 10
0.0
 20
0.0
 30
0.0
  3
BLOCK_507
  1

  0
LINE
  5
98
  8
LAYER_2
 62
     7
 10
164.0802516950911
 20
-260.825423111877
 30
0.0
 11
164.0802516950911
 21
265.5677693020976
 31
0.0
  0
ENDBLK
  5
9A
  8
0
  0
BLOCK
  8
0
  2
BLOCK_504
 70
     0
 10
0.0
 20
0.0
 30
0.0
  3
BLOCK_504
  1

  0
INSERT
  5
A4
  8
LAYER_2
  2
BLOCK_505
 10
0.0
 20
0.0
 30
0.0
  0
ENDBLK
  5
A6
  8
0
  0
BLOCK
  8
0
  2
BLOCK_505
 70
     0
 10
0.0
 20
0.0
 30
0.0
  3
BLOCK_505
  1

  0
ARC
  5
A1
  8
LAYER_2
 62
     7
 10
464.0811870261294
 20
265.5675766765274
 30
0.0
 40
300.0009353311002
 50
136.4448380758257
 51
179.9999632113407
  0
ENDBLK
  5
A3
  8
0
  0
BLOCK
  8
0
  2
BLOCK_502
 70
     0
 10
0.0
 20
0.0
 30
0.0
  3
BLOCK_502
  1

  0
INSERT
  5
AD
  8
LAYER_2
  2
BLOCK_503
 10
0.0
 20
0.0
 30
0.0
  0
ENDBLK
  5
AF
  8
0
  0
BLOCK
  8
0
  2
BLOCK_503
 70
     0
 10
0.0
 20
0.0
 30
0.0
  3
BLOCK_503
  1

  0
LINE
  5
AA
  8
LAYER_2
 62
     7
 10
239.4200113333742
 20
489.1744478486265
 30
0.0
 11
164.0802516950911
 21
489.1744478486265
 31
0.0
  0
ENDBLK
  5
AC
  8
0
  0
BLOCK
  8
0
  2
BLOCK_500
 70
     0
 10
0.0
 20
0.0
 30
0.0
  3
BLOCK_500
  1

  0
INSERT
  5
B6
  8
LAYER_2
  2
BLOCK_501
 10
0.0
 20
0.0
 30
0.0
  0
ENDBLK
  5
B8
  8
0
  0
BLOCK
  8
0
  2
BLOCK_501
 70
     0
 10
0.0
 20
0.0
 30
0.0
  3
BLOCK_501
  1

  0
ARC
  5
B3
  8
LAYER_2
 62
     7
 10
164.0802347348088
 20
439.1744159930456
 30
0.0
 40
50.00003185558385
 50
89.99998056496052
 51
179.9998220454609
  0
ENDBLK
  5
B5
  8
0
  0
BLOCK
  8
0
  2
BLOCK_498
 70
     0
 10
0.0
 20
0.0
 30
0.0
  3
BLOCK_498
  1

  0
INSERT
  5
BF
  8
LAYER_2
  2
BLOCK_499
 10
0.0
 20
0.0
 30
0.0
  0
ENDBLK
  5
C1
  8
0
  0
BLOCK
  8
0
  2
BLOCK_499
 70
     0
 10
0.0
 20
0.0
 30
0.0
  3
BLOCK_499
  1

  0
LINE
  5
BC
  8
LAYER_2
 62
     7
 10
114.0802028794661
 20
318.1745496166369
 30
0.0
 11
114.0802028794661
 21
-250.8256889563908
 31
0.0
  0
ENDBLK
  5
BE
  8
0
  0
BLOCK
  8
0
  2
BLOCK_496
 70
     0
 10
0.0
 20
0.0
 30
0.0
  3
BLOCK_496
  1

  0
INSERT
  5
C8
  8
LAYER_2
  2
BLOCK_497
 10
0.0
 20
0.0
 30
0.0
  0
ENDBLK
  5
CA
  8
0
  0
BLOCK
  8
0
  2
BLOCK_497
 70
     0
 10
0.0
 20
0.0
 30
0.0
  3
BLOCK_497
  1

  0
ARC
  5
C5
  8
LAYER_2
 62
     7
 10
129.0801486222438
 20
336.1744845079702
 30
0.0
 40
2.999989148555471
 50
270.0000000000016
 51
89.99999999999837
  0
ENDBLK
  5
C7
  8
0
  0
BLOCK
  8
0
  2
BLOCK_494
 70
     0
 10
0.0
 20
0.0
 30
0.0
  3
BLOCK_494
  1

  0
INSERT
  5
D1
  8
LAYER_2
  2
BLOCK_495
 10
0.0
 20
0.0
 30
0.0
  0
ENDBLK
  5
D3
  8
0
  0
BLOCK
  8
0
  2
BLOCK_495
 70
     0
 10
0.0
 20
0.0
 30
0.0
  3
BLOCK_495
  1

  0
LINE
  5
CE
  8
LAYER_2
 62
     7
 10
129.0801486222439
 20
324.174527913748
 30
0.0
 11
129.0801486222439
 21
333.1744953594147
 31
0.0
  0
ENDBLK
  5
D0
  8
0
  0
BLOCK
  8
0
  2
BLOCK_492
 70
     0
 10
0.0
 20
0.0
 30
0.0
  3
BLOCK_492
  1

  0
INSERT
  5
DA
  8
LAYER_2
  2
BLOCK_493
 10
0.0
 20
0.0
 30
0.0
  0
ENDBLK
  5
DC
  8
0
  0
BLOCK
  8
0
  2
BLOCK_493
 70
     0
 10
0.0
 20
0.0
 30
0.0
  3
BLOCK_493
  1

  0
ARC
  5
D7
  8
LAYER_2
 62
     7
 10
129.0801486222439
 20
321.1745387651924
 30
0.0
 40
2.999989148555528
 50
270.0000000000006
 51
89.99999999999945
  0
ENDBLK
  5
D9
  8
0
  0
BLOCK
  8
0
  2
BLOCK_490
 70
     0
 10
0.0
 20
0.0
 30
0.0
  3
BLOCK_490
  1

  0
INSERT
  5
E3
  8
LAYER_2
  2
BLOCK_491
 10
0.0
 20
0.0
 30
0.0
  0
ENDBLK
  5
E5
  8
0
  0
BLOCK
  8
0
  2
BLOCK_491
 70
     0
 10
0.0
 20
0.0
 30
0.0
  3
BLOCK_491
  1

  0
LINE
  5
E0
  8
LAYER_2
 62
     7
 10
114.0802028794661
 20
318.1745496166369
 30
0.0
 11
129.0801486222439
 21
318.1745496166369
 31
0.0
  0
ENDBLK
  5
E2
  8
0
  0
BLOCK
  8
0
  2
BLOCK_488
 70
     0
 10
0.0
 20
0.0
 30
0.0
  3
BLOCK_488
  1

  0
INSERT
  5
EC
  8
LAYER_2
  2
BLOCK_489
 10
0.0
 20
0.0
 30
0.0
  0
ENDBLK
  5
EE
  8
0
  0
BLOCK
  8
0
  2
BLOCK_489
 70
     0
 10
0.0
 20
0.0
 30
0.0
  3
BLOCK_489
  1

  0
LINE
  5
E9
  8
LAYER_2
 62
     7
 10
129.0801486222439
 20
-250.8256889563908
 30
0.0
 11
114.0802028794661
 21
-250.8256889563908
 31
0.0
  0
ENDBLK
  5
EB
  8
0
  0
BLOCK
  8
0
  2
BLOCK_486
 70
     0
 10
0.0
 20
0.0
 30
0.0
  3
BLOCK_486
  1

  0
INSERT
  5
F5
  8
LAYER_2
  2
BLOCK_487
 10
0.0
 20
0.0
 30
0.0
  0
ENDBLK
  5
F7
  8
0
  0
BLOCK
  8
0
  2
BLOCK_487
 70
     0
 10
0.0
 20
0.0
 30
0.0
  3
BLOCK_487
  1

  0
ARC
  5
F2
  8
LAYER_2
 62
     7
 10
129.0801486222438
 20
-253.8256781049463
 30
0.0
 40
2.999989148555528
 50
270.0000000000016
 51
89.99999999999837
  0
ENDBLK
  5
F4
  8
0
  0
BLOCK
  8
0
  2
BLOCK_484
 70
     0
 10
0.0
 20
0.0
 30
0.0
  3
BLOCK_484
  1

  0
INSERT
  5
FE
  8
LAYER_2
  2
BLOCK_485
 10
0.0
 20
0.0
 30
0.0
  0
ENDBLK
  5
100
  8
0
  0
BLOCK
  8
0
  2
BLOCK_485
 70
     0
 10
0.0
 20
0.0
 30
0.0
  3
BLOCK_485
  1

  0
LINE
  5
FB
  8
LAYER_2
 62
     7
 10
129.0801486222439
 20
-265.8256346991686
 30
0.0
 11
129.0801486222439
 21
-256.8256672535019
 31
0.0
  0
ENDBLK
  5
FD
  8
0
  0
BLOCK
  8
0
  2
BLOCK_482
 70
     0
 10
0.0
 20
0.0
 30
0.0
  3
BLOCK_482
  1

  0
INSERT
  5
107
  8
LAYER_2
  2
BLOCK_483
 10
0.0
 20
0.0
 30
0.0
  0
ENDBLK
  5
109
  8
0
  0
BLOCK
  8
0
  2
BLOCK_483
 70
     0
 10
0.0
 20
0.0
 30
0.0
  3
BLOCK_483
  1

  0
ARC
  5
104
  8
LAYER_2
 62
     7
 10
129.0801486222438
 20
-268.8256238477242
 30
0.0
 40
2.999989148555528
 50
270.0000000000022
 51
89.99999999999783
  0
ENDBLK
  5
106
  8
0
  0
BLOCK
  8
0
  2
BLOCK_480
 70
     0
 10
0.0
 20
0.0
 30
0.0
  3
BLOCK_480
  1

  0
INSERT
  5
110
  8
LAYER_2
  2
BLOCK_481
 10
0.0
 20
0.0
 30
0.0
  0
ENDBLK
  5
112
  8
0
  0
BLOCK
  8
0
  2
BLOCK_481
 70
     0
 10
0.0
 20
0.0
 30
0.0
  3
BLOCK_481
  1

  0
LINE
  5
10D
  8
LAYER_2
 62
     7
 10
114.0802028794661
 20
-271.8256129962797
 30
0.0
 11
129.0801486222439
 21
-271.8256129962797
 31
0.0
  0
ENDBLK
  5
10F
  8
0
  0
BLOCK
  8
0
  2
BLOCK_478
 70
     0
 10
0.0
 20
0.0
 30
0.0
  3
BLOCK_478
  1

  0
INSERT
  5
119
  8
LAYER_2
  2
BLOCK_479
 10
0.0
 20
0.0
 30
0.0
  0
ENDBLK
  5
11B
  8
0
  0
BLOCK
  8
0
  2
BLOCK_479
 70
     0
 10
0.0
 20
0.0
 30
0.0
  3
BLOCK_479
  1

  0
LINE
  5
116
  8
LAYER_2
 62
     7
 10
114.0802028794661
 20
-447.1644367371673
 30
0.0
 11
114.0802028794661
 21
-271.8256129962797
 31
0.0
  0
ENDBLK
  5
118
  8
0
  0
BLOCK
  8
0
  2
BLOCK_476
 70
     0
 10
0.0
 20
0.0
 30
0.0
  3
BLOCK_476
  1

  0
INSERT
  5
122
  8
LAYER_2
  2
BLOCK_477
 10
0.0
 20
0.0
 30
0.0
  0
ENDBLK
  5
124
  8
0
  0
BLOCK
  8
0
  2
BLOCK_477
 70
     0
 10
0.0
 20
0.0
 30
0.0
  3
BLOCK_477
  1

  0
ARC
  5
11F
  8
LAYER_2
 62
     7
 10
239.4201470072119
 20
479.1745448602152
 30
0.0
 40
9.99990298933164
 50
316.4442088449206
 51
90.00077736137027
  0
ENDBLK
  5
121
  8
0
  0
BLOCK
  8
0
  2
BLOCK_474
 70
     0
 10
0.0
 20
0.0
 30
0.0
  3
BLOCK_474
  1

  0
INSERT
  5
12B
  8
LAYER_2
  2
BLOCK_475
 10
0.0
 20
0.0
 30
0.0
  0
ENDBLK
  5
12D
  8
0
  0
BLOCK
  8
0
  2
BLOCK_475
 70
     0
 10
0.0
 20
0.0
 30
0.0
  3
BLOCK_475
  1

  0
LINE
  5
128
  8
LAYER_2
 62
     7
 10
129.0801486222439
 20
339.1744736565258
 30
0.0
 11
114.0802028794661
 21
339.1744736565258
 31
0.0
  0
ENDBLK
  5
12A
  8
0
  0
BLOCK
  8
0
  2
BLOCK_472
 70
     0
 10
0.0
 20
0.0
 30
0.0
  3
BLOCK_472
  1

  0
INSERT
  5
134
  8
LAYER_2
  2
BLOCK_473
 10
0.0
 20
0.0
 30
0.0
  0
ENDBLK
  5
136
  8
0
  0
BLOCK
  8
0
  2
BLOCK_473
 70
     0
 10
0.0
 20
0.0
 30
0.0
  3
BLOCK_473
  1

  0
LINE
  5
131
  8
LAYER_2
 62
     7
 10
-238.0557535212153
 20
694.0306774523605
 30
0.0
 11
-238.0557535212153
 21
594.0305798211105
 31
0.0
  0
ENDBLK
  5
133
  8
0
  0
BLOCK
  8
0
  2
BLOCK_470
 70
     0
 10
0.0
 20
0.0
 30
0.0
  3
BLOCK_470
  1

  0
INSERT
  5
152
  8
LAYER_2
  2
BLOCK_471
 10
0.0
 20
0.0
 30
0.0
  0
ENDBLK
  5
154
  8
0
  0
BLOCK
  8
0
  2
BLOCK_471
 70
     0
 10
0.0
 20
0.0
 30
0.0
  3
BLOCK_471
  1

  0
LINE
  5
13A
  8
LAYER_2
 62
     7
 10
-238.0557535212153
 20
-192.3083305725827
 30
0.0
 11
-233.8554931055986
 21
-185.8019232391398
 31
0.0
  0
LINE
  5
13B
  8
LAYER_2
 62
     7
 10
-233.8554931055986
 20
-185.8019232391398
 30
0.0
 11
-229.8076781652044
 21
-179.0329996297209
 31
0.0
  0
LINE
  5
13C
  8
LAYER_2
 62
     7
 10
-229.8076781652044
 20
-179.0329996297209
 30
0.0
 11
-225.917993107583
 21
-172.0108615021362
 31
0.0
  0
LINE
  5
13D
  8
LAYER_2
 62
     7
 10
-225.917993107583
 20
-172.0108615021362
 30
0.0
 11
-222.1921223402853
 21
-164.7461886523899
 31
0.0
  0
LINE
  5
13E
  8
LAYER_2
 62
     7
 10
-222.1921223402853
 20
-164.7461886523899
 30
0.0
 11
-218.6355780160876
 21
-157.2493163669377
 31
0.0
  0
LINE
  5
13F
  8
LAYER_2
 62
     7
 10
-218.6355780160876
 20
-157.2493163669377
 30
0.0
 11
-215.2537000329921
 21
-149.531613460881
 31
0.0
  0
LINE
  5
140
  8
LAYER_2
 62
     7
 10
-215.2537000329921
 20
-149.531613460881
 30
0.0
 11
-212.0511392699039
 21
-141.6041042397726
 31
0.0
  0
LINE
  5
141
  8
LAYER_2
 62
     7
 10
-212.0511392699039
 20
-141.6041042397726
 30
0.0
 11
-209.0327188605023
 21
-133.4781575187138
 31
0.0
  0
LINE
  5
142
  8
LAYER_2
 62
     7
 10
-209.0327188605023
 20
-133.4781575187138
 30
0.0
 11
-206.202917428918
 21
-125.165831131903
 31
0.0
  0
LINE
  5
143
  8
LAYER_2
 62
     7
 10
-206.202917428918
 20
-125.165831131903
 30
0.0
 11
-203.5656968349593
 21
-116.6795274230871
 31
0.0
  0
LINE
  5
144
  8
LAYER_2
 62
     7
 10
-203.5656968349593
 20
-116.6795274230871
 30
0.0
 11
-201.125018938434
 21
-108.0313042264644
 31
0.0
  0
LINE
  5
145
  8
LAYER_2
 62
     7
 10
-201.125018938434
 20
-108.0313042264644
 30
0.0
 11
-198.8846733443761
 21
-99.23425290487894
 31
0.0
  0
LINE
  5
146
  8
LAYER_2
 62
     7
 10
-198.8846733443761
 20
-99.23425290487894
 30
0.0
 11
-196.8474161291736
 21
-90.30043129252907
 31
0.0
  0
LINE
  5
147
  8
LAYER_2
 62
     7
 10
-196.8474161291736
 20
-90.30043129252907
 30
0.0
 11
-195.0166923883118
 21
-81.24361977135577
 31
0.0
  0
LINE
  5
148
  8
LAYER_2
 62
     7
 10
-195.0166923883118
 20
-81.24361977135577
 30
0.0
 11
-193.3949136886305
 21
-72.076909704203
 31
0.0
  0
LINE
  5
149
  8
LAYER_2
 62
     7
 10
-193.3949136886305
 20
-72.076909704203
 30
0.0
 11
-191.9846638517434
 21
-62.81339245391471
 31
0.0
  0
LINE
  5
14A
  8
LAYER_2
 62
     7
 10
-191.9846638517434
 20
-62.81339245391471
 30
0.0
 11
-190.7878376801676
 21
-53.4668484024319
 31
0.0
  0
LINE
  5
14B
  8
LAYER_2
 62
     7
 10
-190.7878376801676
 20
-53.4668484024319
 30
0.0
 11
-189.8061577216457
 21
-44.05105793169557
 31
0.0
  0
LINE
  5
14C
  8
LAYER_2
 62
     7
 10
-189.8061577216457
 20
-44.05105793169557
 30
0.0
 11
-189.041174269146
 21
-34.57945691409819
 31
0.0
  0
LINE
  5
14D
  8
LAYER_2
 62
     7
 10
-189.041174269146
 20
-34.57945691409819
 30
0.0
 11
-188.493920851314
 21
-25.06582573158077
 31
0.0
  0
LINE
  5
14E
  8
LAYER_2
 62
     7
 10
-188.493920851314
 20
-25.06582573158077
 30
0.0
 11
-188.1652587420212
 21
-15.52463378518134
 31
0.0
  0
LINE
  5
14F
  8
LAYER_2
 62
     7
 10
-188.1652587420212
 20
-15.52463378518134
 30
0.0
 11
-188.0557047055902
 21
-5.969316947292393
 31
0.0
  0
ENDBLK
  5
151
  8
0
  0
BLOCK
  8
0
  2
BLOCK_468
 70
     0
 10
0.0
 20
0.0
 30
0.0
  3
BLOCK_468
  1

  0
INSERT
  5
15B
  8
LAYER_2
  2
BLOCK_469
 10
0.0
 20
0.0
 30
0.0
  0
ENDBLK
  5
15D
  8
0
  0
BLOCK
  8
0
  2
BLOCK_469
 70
     0
 10
0.0
 20
0.0
 30
0.0
  3
BLOCK_469
  1

  0
LINE
  5
158
  8
LAYER_2
 62
     7
 10
-188.0557047055902
 20
-5.969316947292393
 30
0.0
 11
-188.0557047055902
 21
520.4238754666823
 31
0.0
  0
ENDBLK
  5
15A
  8
0
  0
BLOCK
  8
0
  2
BLOCK_466
 70
     0
 10
0.0
 20
0.0
 30
0.0
  3
BLOCK_466
  1

  0
INSERT
  5
164
  8
LAYER_2
  2
BLOCK_467
 10
0.0
 20
0.0
 30
0.0
  0
ENDBLK
  5
166
  8
0
  0
BLOCK
  8
0
  2
BLOCK_467
 70
     0
 10
0.0
 20
0.0
 30
0.0
  3
BLOCK_467
  1

  0
ARC
  5
161
  8
LAYER_2
 62
     7
 10
111.9446162221044
 20
520.4237471377212
 30
0.0
 40
300.000320927722
 50
136.4447434514975
 51
179.999975491
  0
ENDBLK
  5
163
  8
0
  0
BLOCK
  8
0
  2
BLOCK_464
 70
     0
 10
0.0
 20
0.0
 30
0.0
  3
BLOCK_464
  1

  0
INSERT
  5
16D
  8
LAYER_2
  2
BLOCK_465
 10
0.0
 20
0.0
 30
0.0
  0
ENDBLK
  5
16F
  8
0
  0
BLOCK
  8
0
  2
BLOCK_465
 70
     0
 10
0.0
 20
0.0
 30
0.0
  3
BLOCK_465
  1

  0
LINE
  5
16A
  8
LAYER_2
 62
     7
 10
-112.7157728125329
 20
744.0307262679854
 30
0.0
 11
-188.0557047055902
 21
744.0307262679854
 31
0.0
  0
ENDBLK
  5
16C
  8
0
  0
BLOCK
  8
0
  2
BLOCK_462
 70
     0
 10
0.0
 20
0.0
 30
0.0
  3
BLOCK_462
  1

  0
INSERT
  5
176
  8
LAYER_2
  2
BLOCK_463
 10
0.0
 20
0.0
 30
0.0
  0
ENDBLK
  5
178
  8
0
  0
BLOCK
  8
0
  2
BLOCK_463
 70
     0
 10
0.0
 20
0.0
 30
0.0
  3
BLOCK_463
  1

  0
ARC
  5
173
  8
LAYER_2
 62
     7
 10
-188.0556849088374
 20
694.0306576556076
 30
0.0
 40
50.00006861238177
 50
90.00002268537649
 51
179.9999773146234
  0
ENDBLK
  5
175
  8
0
  0
BLOCK
  8
0
  2
BLOCK_460
 70
     0
 10
0.0
 20
0.0
 30
0.0
  3
BLOCK_460
  1

  0
INSERT
  5
17F
  8
LAYER_2
  2
BLOCK_461
 10
0.0
 20
0.0
 30
0.0
  0
ENDBLK
  5
181
  8
0
  0
BLOCK
  8
0
  2
BLOCK_461
 70
     0
 10
0.0
 20
0.0
 30
0.0
  3
BLOCK_461
  1

  0
LINE
  5
17C
  8
LAYER_2
 62
     7
 10
-238.0557535212153
 20
573.0306557812215
 30
0.0
 11
-238.0557535212153
 21
4.03076171774231
 31
0.0
  0
ENDBLK
  5
17E
  8
0
  0
BLOCK
  8
0
  2
BLOCK_458
 70
     0
 10
0.0
 20
0.0
 30
0.0
  3
BLOCK_458
  1

  0
INSERT
  5
188
  8
LAYER_2
  2
BLOCK_459
 10
0.0
 20
0.0
 30
0.0
  0
ENDBLK
  5
18A
  8
0
  0
BLOCK
  8
0
  2
BLOCK_459
 70
     0
 10
0.0
 20
0.0
 30
0.0
  3
BLOCK_459
  1

  0
ARC
  5
185
  8
LAYER_2
 62
     7
 10
-223.0558077784375
 20
591.0305906725549
 30
0.0
 40
2.999989148555642
 50
270.0000000000022
 51
89.99999999999783
  0
ENDBLK
  5
187
  8
0
  0
BLOCK
  8
0
  2
BLOCK_456
 70
     0
 10
0.0
 20
0.0
 30
0.0
  3
BLOCK_456
  1

  0
INSERT
  5
191
  8
LAYER_2
  2
BLOCK_457
 10
0.0
 20
0.0
 30
0.0
  0
ENDBLK
  5
193
  8
0
  0
BLOCK
  8
0
  2
BLOCK_457
 70
     0
 10
0.0
 20
0.0
 30
0.0
  3
BLOCK_457
  1

  0
LINE
  5
18E
  8
LAYER_2
 62
     7
 10
-223.0558077784374
 20
579.0306340783327
 30
0.0
 11
-223.0558077784374
 21
588.0306015239993
 31
0.0
  0
ENDBLK
  5
190
  8
0
  0
BLOCK
  8
0
  2
BLOCK_454
 70
     0
 10
0.0
 20
0.0
 30
0.0
  3
BLOCK_454
  1

  0
INSERT
  5
19A
  8
LAYER_2
  2
BLOCK_455
 10
0.0
 20
0.0
 30
0.0
  0
ENDBLK
  5
19C
  8
0
  0
BLOCK
  8
0
  2
BLOCK_455
 70
     0
 10
0.0
 20
0.0
 30
0.0
  3
BLOCK_455
  1

  0
ARC
  5
197
  8
LAYER_2
 62
     7
 10
-223.0558077784374
 20
576.0306449297772
 30
0.0
 40
2.999989148555642
 50
270.0
 51
90.0
  0
ENDBLK
  5
199
  8
0
  0
BLOCK
  8
0
  2
BLOCK_452
 70
     0
 10
0.0
 20
0.0
 30
0.0
  3
BLOCK_452
  1

  0
INSERT
  5
1A3
  8
LAYER_2
  2
BLOCK_453
 10
0.0
 20
0.0
 30
0.0
  0
ENDBLK
  5
1A5
  8
0
  0
BLOCK
  8
0
  2
BLOCK_453
 70
     0
 10
0.0
 20
0.0
 30
0.0
  3
BLOCK_453
  1

  0
LINE
  5
1A0
  8
LAYER_2
 62
     7
 10
-238.0557535212153
 20
573.0306557812215
 30
0.0
 11
-223.0558077784374
 21
573.0306557812215
 31
0.0
  0
ENDBLK
  5
1A2
  8
0
  0
BLOCK
  8
0
  2
BLOCK_450
 70
     0
 10
0.0
 20
0.0
 30
0.0
  3
BLOCK_450
  1

  0
INSERT
  5
1AC
  8
LAYER_2
  2
BLOCK_451
 10
0.0
 20
0.0
 30
0.0
  0
ENDBLK
  5
1AE
  8
0
  0
BLOCK
  8
0
  2
BLOCK_451
 70
     0
 10
0.0
 20
0.0
 30
0.0
  3
BLOCK_451
  1

  0
LINE
  5
1A9
  8
LAYER_2
 62
     7
 10
-223.0558077784374
 20
4.03076171774231
 30
0.0
 11
-238.0557535212153
 21
4.03076171774231
 31
0.0
  0
ENDBLK
  5
1AB
  8
0
  0
BLOCK
  8
0
  2
BLOCK_448
 70
     0
 10
0.0
 20
0.0
 30
0.0
  3
BLOCK_448
  1

  0
INSERT
  5
1B5
  8
LAYER_2
  2
BLOCK_449
 10
0.0
 20
0.0
 30
0.0
  0
ENDBLK
  5
1B7
  8
0
  0
BLOCK
  8
0
  2
BLOCK_449
 70
     0
 10
0.0
 20
0.0
 30
0.0
  3
BLOCK_449
  1

  0
ARC
  5
1B2
  8
LAYER_2
 62
     7
 10
-223.0558077784375
 20
1.030772569186723
 30
0.0
 40
2.99998914855553
 50
270.0000000000011
 51
89.99999999999892
  0
ENDBLK
  5
1B4
  8
0
  0
BLOCK
  8
0
  2
BLOCK_446
 70
     0
 10
0.0
 20
0.0
 30
0.0
  3
BLOCK_446
  1

  0
INSERT
  5
1BE
  8
LAYER_2
  2
BLOCK_447
 10
0.0
 20
0.0
 30
0.0
  0
ENDBLK
  5
1C0
  8
0
  0
BLOCK
  8
0
  2
BLOCK_447
 70
     0
 10
0.0
 20
0.0
 30
0.0
  3
BLOCK_447
  1

  0
LINE
  5
1BB
  8
LAYER_2
 62
     7
 10
-223.0558077784374
 20
-10.96918402503548
 30
0.0
 11
-223.0558077784374
 21
-1.969216579368807
 31
0.0
  0
ENDBLK
  5
1BD
  8
0
  0
BLOCK
  8
0
  2
BLOCK_444
 70
     0
 10
0.0
 20
0.0
 30
0.0
  3
BLOCK_444
  1

  0
INSERT
  5
1C7
  8
LAYER_2
  2
BLOCK_445
 10
0.0
 20
0.0
 30
0.0
  0
ENDBLK
  5
1C9
  8
0
  0
BLOCK
  8
0
  2
BLOCK_445
 70
     0
 10
0.0
 20
0.0
 30
0.0
  3
BLOCK_445
  1

  0
ARC
  5
1C4
  8
LAYER_2
 62
     7
 10
-223.0558077784374
 20
-13.96951768313954
 30
0.0
 40
2.999989148555578
 50
270.0000000000006
 51
89.99999999999945
  0
ENDBLK
  5
1C6
  8
0
  0
BLOCK
  8
0
  2
BLOCK_442
 70
     0
 10
0.0
 20
0.0
 30
0.0
  3
BLOCK_442
  1

  0
INSERT
  5
1D0
  8
LAYER_2
  2
BLOCK_443
 10
0.0
 20
0.0
 30
0.0
  0
ENDBLK
  5
1D2
  8
0
  0
BLOCK
  8
0
  2
BLOCK_443
 70
     0
 10
0.0
 20
0.0
 30
0.0
  3
BLOCK_443
  1

  0
LINE
  5
1CD
  8
LAYER_2
 62
     7
 10
-238.0557535212153
 20
-16.96950683169512
 30
0.0
 11
-223.0558077784374
 21
-16.96950683169512
 31
0.0
  0
ENDBLK
  5
1CF
  8
0
  0
BLOCK
  8
0
  2
BLOCK_440
 70
     0
 10
0.0
 20
0.0
 30
0.0
  3
BLOCK_440
  1

  0
INSERT
  5
1D9
  8
LAYER_2
  2
BLOCK_441
 10
0.0
 20
0.0
 30
0.0
  0
ENDBLK
  5
1DB
  8
0
  0
BLOCK
  8
0
  2
BLOCK_441
 70
     0
 10
0.0
 20
0.0
 30
0.0
  3
BLOCK_441
  1

  0
LINE
  5
1D6
  8
LAYER_2
 62
     7
 10
-238.0557535212153
 20
-192.3083305725827
 30
0.0
 11
-238.0557535212153
 21
-16.96950683169512
 31
0.0
  0
ENDBLK
  5
1D8
  8
0
  0
BLOCK
  8
0
  2
BLOCK_438
 70
     0
 10
0.0
 20
0.0
 30
0.0
  3
BLOCK_438
  1

  0
INSERT
  5
1E2
  8
LAYER_2
  2
BLOCK_439
 10
0.0
 20
0.0
 30
0.0
  0
ENDBLK
  5
1E4
  8
0
  0
BLOCK
  8
0
  2
BLOCK_439
 70
     0
 10
0.0
 20
0.0
 30
0.0
  3
BLOCK_439
  1

  0
ARC
  5
1DF
  8
LAYER_2
 62
     7
 10
-112.7158896705875
 20
734.030644655657
 30
0.0
 40
10.00008161301104
 50
316.4452322853662
 51
89.99933045813127
  0
ENDBLK
  5
1E1
  8
0
  0
BLOCK
  8
0
  2
BLOCK_436
 70
     0
 10
0.0
 20
0.0
 30
0.0
  3
BLOCK_436
  1

  0
INSERT
  5
1EB
  8
LAYER_2
  2
BLOCK_437
 10
0.0
 20
0.0
 30
0.0
  0
ENDBLK
  5
1ED
  8
0
  0
BLOCK
  8
0
  2
BLOCK_437
 70
     0
 10
0.0
 20
0.0
 30
0.0
  3
BLOCK_437
  1

  0
LINE
  5
1E8
  8
LAYER_2
 62
     7
 10
-223.0558077784374
 20
594.0305798211105
 30
0.0
 11
-238.0557535212153
 21
594.0305798211105
 31
0.0
  0
ENDBLK
  5
1EA
  8
0
  0
BLOCK
  8
0
  2
BLOCK_434
 70
     0
 10
0.0
 20
0.0
 30
0.0
  3
BLOCK_434
  1

  0
INSERT
  5
1F4
  8
LAYER_2
  2
BLOCK_435
 10
0.0
 20
0.0
 30
0.0
  0
ENDBLK
  5
1F6
  8
0
  0
BLOCK
  8
0
  2
BLOCK_435
 70
     0
 10
0.0
 20
0.0
 30
0.0
  3
BLOCK_435
  1

  0
LINE
  5
1F1
  8
LAYER_2
 62
     7
 10
76.61720104421376
 20
-371.98211796256
 30
0.0
 11
76.61720104421376
 21
-271.9823648408586
 31
0.0
  0
ENDBLK
  5
1F3
  8
0
  0
BLOCK
  8
0
  2
BLOCK_432
 70
     0
 10
0.0
 20
0.0
 30
0.0
  3
BLOCK_432
  1

  0
INSERT
  5
212
  8
LAYER_2
  2
BLOCK_433
 10
0.0
 20
0.0
 30
0.0
  0
ENDBLK
  5
214
  8
0
  0
BLOCK
  8
0
  2
BLOCK_433
 70
     0
 10
0.0
 20
0.0
 30
0.0
  3
BLOCK_433
  1

  0
LINE
  5
1FA
  8
LAYER_2
 62
     7
 10
76.61720104421376
 20
514.3568900623831
 30
0.0
 11
72.41694062859716
 21
507.8504827289402
 31
0.0
  0
LINE
  5
1FB
  8
LAYER_2
 62
     7
 10
72.41694062859716
 20
507.8504827289402
 30
0.0
 11
68.36912568820286
 21
501.0812146099728
 31
0.0
  0
LINE
  5
1FC
  8
LAYER_2
 62
     7
 10
68.36912568820286
 20
501.0812146099728
 30
0.0
 11
64.47944063058154
 21
494.0592487371623
 31
0.0
  0
LINE
  5
1FD
  8
LAYER_2
 62
     7
 10
64.47944063058154
 20
494.0592487371623
 30
0.0
 11
60.75356986328383
 21
486.794575887416
 31
0.0
  0
LINE
  5
1FE
  8
LAYER_2
 62
     7
 10
60.75356986328383
 20
486.794575887416
 30
0.0
 11
57.19702553908616
 21
479.2978758567381
 31
0.0
  0
LINE
  5
1FF
  8
LAYER_2
 62
     7
 10
57.19702553908616
 20
479.2978758567381
 30
0.0
 11
53.8149753012164
 21
471.5800006959071
 31
0.0
  0
LINE
  5
200
  8
LAYER_2
 62
     7
 10
53.8149753012164
 20
471.5800006959071
 30
0.0
 11
50.61258679290241
 21
463.6523192200244
 31
0.0
  0
LINE
  5
201
  8
LAYER_2
 62
     7
 10
50.61258679290241
 20
463.6523192200244
 30
0.0
 11
47.59416638350076
 21
455.5265447537399
 31
0.0
  0
LINE
  5
202
  8
LAYER_2
 62
     7
 10
47.59416638350076
 20
455.5265447537399
 30
0.0
 11
44.76436495191655
 21
447.2143906217034
 31
0.0
  0
LINE
  5
203
  8
LAYER_2
 62
     7
 10
44.76436495191655
 20
447.2143906217034
 30
0.0
 11
42.1271443579578
 21
438.7280869128874
 31
0.0
  0
LINE
  5
204
  8
LAYER_2
 62
     7
 10
42.1271443579578
 20
438.7280869128874
 30
0.0
 11
39.68646646143255
 21
430.0798637162648
 31
0.0
  0
LINE
  5
205
  8
LAYER_2
 62
     7
 10
39.68646646143255
 20
430.0798637162648
 30
0.0
 11
37.44594861260032
 21
421.2824678851308
 31
0.0
  0
LINE
  5
206
  8
LAYER_2
 62
     7
 10
37.44594861260032
 20
421.2824678851308
 30
0.0
 11
35.40886365217209
 21
412.3489907823295
 31
0.0
  0
LINE
  5
207
  8
LAYER_2
 62
     7
 10
35.40886365217209
 20
412.3489907823295
 30
0.0
 11
33.57813991131033
 21
403.2921792611562
 31
0.0
  0
LINE
  5
208
  8
LAYER_2
 62
     7
 10
33.57813991131033
 20
403.2921792611562
 30
0.0
 11
31.95636121162897
 21
394.1251246844549
 31
0.0
  0
LINE
  5
209
  8
LAYER_2
 62
     7
 10
31.95636121162897
 20
394.1251246844549
 30
0.0
 11
30.54611137474195
 21
384.8617796889408
 31
0.0
  0
LINE
  5
20A
  8
LAYER_2
 62
     7
 10
30.54611137474195
 20
384.8617796889408
 30
0.0
 11
29.34928520316615
 21
375.515235637458
 31
0.0
  0
LINE
  5
20B
  8
LAYER_2
 62
     7
 10
29.34928520316615
 20
375.515235637458
 30
0.0
 11
28.36760524464421
 21
366.0992729119474
 31
0.0
  0
LINE
  5
20C
  8
LAYER_2
 62
     7
 10
28.36760524464421
 20
366.0992729119474
 30
0.0
 11
27.60262179214449
 21
356.6278441491243
 31
0.0
  0
LINE
  5
20D
  8
LAYER_2
 62
     7
 10
27.60262179214449
 20
356.6278441491243
 30
0.0
 11
27.05536837431255
 21
347.1143852213812
 31
0.0
  0
LINE
  5
20E
  8
LAYER_2
 62
     7
 10
27.05536837431255
 20
347.1143852213812
 30
0.0
 11
26.72670626501971
 21
337.5730210202075
 31
0.0
  0
LINE
  5
20F
  8
LAYER_2
 62
     7
 10
26.72670626501971
 20
337.5730210202075
 30
0.0
 11
26.61715222858877
 21
328.0178764370928
 31
0.0
  0
ENDBLK
  5
211
  8
0
  0
BLOCK
  8
0
  2
BLOCK_430
 70
     0
 10
0.0
 20
0.0
 30
0.0
  3
BLOCK_430
  1

  0
INSERT
  5
21B
  8
LAYER_2
  2
BLOCK_431
 10
0.0
 20
0.0
 30
0.0
  0
ENDBLK
  5
21D
  8
0
  0
BLOCK
  8
0
  2
BLOCK_431
 70
     0
 10
0.0
 20
0.0
 30
0.0
  3
BLOCK_431
  1

  0
LINE
  5
218
  8
LAYER_2
 62
     7
 10
26.61715222858877
 20
328.0178764370928
 30
0.0
 11
26.61715222858877
 21
-198.3754882316561
 31
0.0
  0
ENDBLK
  5
21A
  8
0
  0
BLOCK
  8
0
  2
BLOCK_428
 70
     0
 10
0.0
 20
0.0
 30
0.0
  3
BLOCK_428
  1

  0
INSERT
  5
224
  8
LAYER_2
  2
BLOCK_429
 10
0.0
 20
0.0
 30
0.0
  0
ENDBLK
  5
226
  8
0
  0
BLOCK
  8
0
  2
BLOCK_429
 70
     0
 10
0.0
 20
0.0
 30
0.0
  3
BLOCK_429
  1

  0
ARC
  5
221
  8
LAYER_2
 62
     7
 10
-273.38244110132
 20
-198.3754783370207
 30
0.0
 40
299.9995933299089
 50
316.4446879339741
 51
359.9999981102613
  0
ENDBLK
  5
223
  8
0
  0
BLOCK
  8
0
  2
BLOCK_426
 70
     0
 10
0.0
 20
0.0
 30
0.0
  3
BLOCK_426
  1

  0
INSERT
  5
22D
  8
LAYER_2
  2
BLOCK_427
 10
0.0
 20
0.0
 30
0.0
  0
ENDBLK
  5
22F
  8
0
  0
BLOCK
  8
0
  2
BLOCK_427
 70
     0
 10
0.0
 20
0.0
 30
0.0
  3
BLOCK_427
  1

  0
LINE
  5
22A
  8
LAYER_2
 62
     7
 10
-48.72277966446861
 20
-421.982166778185
 30
0.0
 11
26.61715222858877
 21
-421.982166778185
 31
0.0
  0
ENDBLK
  5
22C
  8
0
  0
BLOCK
  8
0
  2
BLOCK_424
 70
     0
 10
0.0
 20
0.0
 30
0.0
  3
BLOCK_424
  1

  0
INSERT
  5
236
  8
LAYER_2
  2
BLOCK_425
 10
0.0
 20
0.0
 30
0.0
  0
ENDBLK
  5
238
  8
0
  0
BLOCK
  8
0
  2
BLOCK_425
 70
     0
 10
0.0
 20
0.0
 30
0.0
  3
BLOCK_425
  1

  0
ARC
  5
233
  8
LAYER_2
 62
     7
 10
26.61735297384233
 20
-371.9823187078135
 30
0.0
 40
49.99984807077444
 50
269.9997699621853
 51
0.0002300378147049
  0
ENDBLK
  5
235
  8
0
  0
BLOCK
  8
0
  2
BLOCK_422
 70
     0
 10
0.0
 20
0.0
 30
0.0
  3
BLOCK_422
  1

  0
INSERT
  5
23F
  8
LAYER_2
  2
BLOCK_423
 10
0.0
 20
0.0
 30
0.0
  0
ENDBLK
  5
241
  8
0
  0
BLOCK
  8
0
  2
BLOCK_423
 70
     0
 10
0.0
 20
0.0
 30
0.0
  3
BLOCK_423
  1

  0
LINE
  5
23C
  8
LAYER_2
 62
     7
 10
76.61720104421376
 20
-250.9820962914212
 30
0.0
 11
76.61720104421376
 21
318.0177977720581
 31
0.0
  0
ENDBLK
  5
23E
  8
0
  0
BLOCK
  8
0
  2
BLOCK_420
 70
     0
 10
0.0
 20
0.0
 30
0.0
  3
BLOCK_420
  1

  0
INSERT
  5
248
  8
LAYER_2
  2
BLOCK_421
 10
0.0
 20
0.0
 30
0.0
  0
ENDBLK
  5
24A
  8
0
  0
BLOCK
  8
0
  2
BLOCK_421
 70
     0
 10
0.0
 20
0.0
 30
0.0
  3
BLOCK_421
  1

  0
ARC
  5
245
  8
LAYER_2
 62
     7
 10
61.61725529649095
 20
-268.9822034375288
 30
0.0
 40
3.000161403329741
 50
89.99999990556226
 51
270.0000000944377
  0
ENDBLK
  5
247
  8
0
  0
BLOCK
  8
0
  2
BLOCK_418
 70
     0
 10
0.0
 20
0.0
 30
0.0
  3
BLOCK_418
  1

  0
INSERT
  5
251
  8
LAYER_2
  2
BLOCK_419
 10
0.0
 20
0.0
 30
0.0
  0
ENDBLK
  5
253
  8
0
  0
BLOCK
  8
0
  2
BLOCK_419
 70
     0
 10
0.0
 20
0.0
 30
0.0
  3
BLOCK_419
  1

  0
LINE
  5
24E
  8
LAYER_2
 62
     7
 10
61.61725530143597
 20
-256.9820745885323
 30
0.0
 11
61.61725530143597
 21
-265.982042034199
 31
0.0
  0
ENDBLK
  5
250
  8
0
  0
BLOCK
  8
0
  2
BLOCK_416
 70
     0
 10
0.0
 20
0.0
 30
0.0
  3
BLOCK_416
  1

  0
INSERT
  5
25A
  8
LAYER_2
  2
BLOCK_417
 10
0.0
 20
0.0
 30
0.0
  0
ENDBLK
  5
25C
  8
0
  0
BLOCK
  8
0
  2
BLOCK_417
 70
     0
 10
0.0
 20
0.0
 30
0.0
  3
BLOCK_417
  1

  0
ARC
  5
257
  8
LAYER_2
 62
     7
 10
61.61708305160676
 20
-253.9820854399767
 30
0.0
 40
2.999989153500575
 50
89.99671025869222
 51
270.0032897413078
  0
ENDBLK
  5
259
  8
0
  0
BLOCK
  8
0
  2
BLOCK_414
 70
     0
 10
0.0
 20
0.0
 30
0.0
  3
BLOCK_414
  1

  0
INSERT
  5
263
  8
LAYER_2
  2
BLOCK_415
 10
0.0
 20
0.0
 30
0.0
  0
ENDBLK
  5
265
  8
0
  0
BLOCK
  8
0
  2
BLOCK_415
 70
     0
 10
0.0
 20
0.0
 30
0.0
  3
BLOCK_415
  1

  0
LINE
  5
260
  8
LAYER_2
 62
     7
 10
76.61720104421376
 20
-250.9820962914212
 30
0.0
 11
61.61725530143597
 21
-250.9820962914212
 31
0.0
  0
ENDBLK
  5
262
  8
0
  0
BLOCK
  8
0
  2
BLOCK_412
 70
     0
 10
0.0
 20
0.0
 30
0.0
  3
BLOCK_412
  1

  0
INSERT
  5
26C
  8
LAYER_2
  2
BLOCK_413
 10
0.0
 20
0.0
 30
0.0
  0
ENDBLK
  5
26E
  8
0
  0
BLOCK
  8
0
  2
BLOCK_413
 70
     0
 10
0.0
 20
0.0
 30
0.0
  3
BLOCK_413
  1

  0
LINE
  5
269
  8
LAYER_2
 62
     7
 10
61.61725530143597
 20
318.0177977720581
 30
0.0
 11
76.61720104421376
 21
318.0177977720581
 31
0.0
  0
ENDBLK
  5
26B
  8
0
  0
BLOCK
  8
0
  2
BLOCK_410
 70
     0
 10
0.0
 20
0.0
 30
0.0
  3
BLOCK_410
  1

  0
INSERT
  5
275
  8
LAYER_2
  2
BLOCK_411
 10
0.0
 20
0.0
 30
0.0
  0
ENDBLK
  5
277
  8
0
  0
BLOCK
  8
0
  2
BLOCK_411
 70
     0
 10
0.0
 20
0.0
 30
0.0
  3
BLOCK_411
  1

  0
ARC
  5
272
  8
LAYER_2
 62
     7
 10
61.6170830516067
 20
321.0177869206137
 30
0.0
 40
2.999989153500547
 50
89.99671025869114
 51
270.0032897413089
  0
ENDBLK
  5
274
  8
0
  0
BLOCK
  8
0
  2
BLOCK_408
 70
     0
 10
0.0
 20
0.0
 30
0.0
  3
BLOCK_408
  1

  0
INSERT
  5
27E
  8
LAYER_2
  2
BLOCK_409
 10
0.0
 20
0.0
 30
0.0
  0
ENDBLK
  5
280
  8
0
  0
BLOCK
  8
0
  2
BLOCK_409
 70
     0
 10
0.0
 20
0.0
 30
0.0
  3
BLOCK_409
  1

  0
LINE
  5
27B
  8
LAYER_2
 62
     7
 10
61.61725530143597
 20
333.0177435148358
 30
0.0
 11
61.61725530143597
 21
324.0177760691692
 31
0.0
  0
ENDBLK
  5
27D
  8
0
  0
BLOCK
  8
0
  2
BLOCK_406
 70
     0
 10
0.0
 20
0.0
 30
0.0
  3
BLOCK_406
  1

  0
INSERT
  5
287
  8
LAYER_2
  2
BLOCK_407
 10
0.0
 20
0.0
 30
0.0
  0
ENDBLK
  5
289
  8
0
  0
BLOCK
  8
0
  2
BLOCK_407
 70
     0
 10
0.0
 20
0.0
 30
0.0
  3
BLOCK_407
  1

  0
ARC
  5
284
  8
LAYER_2
 62
     7
 10
61.61708305160676
 20
336.0177326633914
 30
0.0
 40
2.99998915350066
 50
89.99671025869222
 51
270.0032897413078
  0
ENDBLK
  5
286
  8
0
  0
BLOCK
  8
0
  2
BLOCK_404
 70
     0
 10
0.0
 20
0.0
 30
0.0
  3
BLOCK_404
  1

  0
INSERT
  5
290
  8
LAYER_2
  2
BLOCK_405
 10
0.0
 20
0.0
 30
0.0
  0
ENDBLK
  5
292
  8
0
  0
BLOCK
  8
0
  2
BLOCK_405
 70
     0
 10
0.0
 20
0.0
 30
0.0
  3
BLOCK_405
  1

  0
LINE
  5
28D
  8
LAYER_2
 62
     7
 10
76.61720104421376
 20
339.017721811947
 30
0.0
 11
61.61725530143597
 21
339.017721811947
 31
0.0
  0
ENDBLK
  5
28F
  8
0
  0
BLOCK
  8
0
  2
BLOCK_402
 70
     0
 10
0.0
 20
0.0
 30
0.0
  3
BLOCK_402
  1

  0
INSERT
  5
299
  8
LAYER_2
  2
BLOCK_403
 10
0.0
 20
0.0
 30
0.0
  0
ENDBLK
  5
29B
  8
0
  0
BLOCK
  8
0
  2
BLOCK_403
 70
     0
 10
0.0
 20
0.0
 30
0.0
  3
BLOCK_403
  1

  0
LINE
  5
296
  8
LAYER_2
 62
     7
 10
76.61720104421376
 20
514.3568900623831
 30
0.0
 11
76.61720104421376
 21
339.017721811947
 31
0.0
  0
ENDBLK
  5
298
  8
0
  0
BLOCK
  8
0
  2
BLOCK_400
 70
     0
 10
0.0
 20
0.0
 30
0.0
  3
BLOCK_400
  1

  0
INSERT
  5
2A2
  8
LAYER_2
  2
BLOCK_401
 10
0.0
 20
0.0
 30
0.0
  0
ENDBLK
  5
2A4
  8
0
  0
BLOCK
  8
0
  2
BLOCK_401
 70
     0
 10
0.0
 20
0.0
 30
0.0
  3
BLOCK_401
  1

  0
ARC
  5
29F
  8
LAYER_2
 62
     7
 10
-48.72266280641405
 20
-411.9820851658568
 30
0.0
 40
10.00008161301108
 50
136.4452322853655
 51
269.9993304581315
  0
ENDBLK
  5
2A1
  8
0
  0
BLOCK
  8
0
  2
BLOCK_398
 70
     0
 10
0.0
 20
0.0
 30
0.0
  3
BLOCK_398
  1

  0
INSERT
  5
2AB
  8
LAYER_2
  2
BLOCK_399
 10
0.0
 20
0.0
 30
0.0
  0
ENDBLK
  5
2AD
  8
0
  0
BLOCK
  8
0
  2
BLOCK_399
 70
     0
 10
0.0
 20
0.0
 30
0.0
  3
BLOCK_399
  1

  0
LINE
  5
2A8
  8
LAYER_2
 62
     7
 10
61.61725530143597
 20
-271.9823648408586
 30
0.0
 11
76.61720104421376
 21
-271.9823648408586
 31
0.0
  0
ENDBLK
  5
2AA
  8
0
  0
BLOCK
  8
0
  2
BLOCK_396
 70
     0
 10
0.0
 20
0.0
 30
0.0
  3
BLOCK_396
  1

  0
INSERT
  5
2B4
  8
LAYER_2
  2
BLOCK_397
 10
0.0
 20
0.0
 30
0.0
  0
ENDBLK
  5
2B6
  8
0
  0
BLOCK
  8
0
  2
BLOCK_397
 70
     0
 10
0.0
 20
0.0
 30
0.0
  3
BLOCK_397
  1

  0
ARC
  5
2B1
  8
LAYER_2
 62
     7
 10
226.8397284046616
 20
-233.2486395358719
 30
0.0
 40
3.000120265438875
 50
239.9976470755821
 51
59.99764707558328
  0
ENDBLK
  5
2B3
  8
0
  0
BLOCK
  8
0
  2
BLOCK_394
 70
     0
 10
0.0
 20
0.0
 30
0.0
  3
BLOCK_394
  1

  0
INSERT
  5
2BD
  8
LAYER_2
  2
BLOCK_395
 10
0.0
 20
0.0
 30
0.0
  0
ENDBLK
  5
2BF
  8
0
  0
BLOCK
  8
0
  2
BLOCK_395
 70
     0
 10
0.0
 20
0.0
 30
0.0
  3
BLOCK_395
  1

  0
LINE
  5
2BA
  8
LAYER_2
 62
     7
 10
225.3395615756096
 20
-235.846758296073
 30
0.0
 11
220.8395778527762
 21
-243.6409423219023
 31
0.0
  0
ENDBLK
  5
2BC
  8
0
  0
BLOCK
  8
0
  2
BLOCK_392
 70
     0
 10
0.0
 20
0.0
 30
0.0
  3
BLOCK_392
  1

  0
INSERT
  5
2C6
  8
LAYER_2
  2
BLOCK_393
 10
0.0
 20
0.0
 30
0.0
  0
ENDBLK
  5
2C8
  8
0
  0
BLOCK
  8
0
  2
BLOCK_393
 70
     0
 10
0.0
 20
0.0
 30
0.0
  3
BLOCK_393
  1

  0
ARC
  5
2C3
  8
LAYER_2
 62
     7
 10
219.339787051213
 20
-246.2391787279828
 30
0.0
 40
3.000034144861678
 50
239.9960022888249
 51
60.00498980446878
  0
ENDBLK
  5
2C5
  8
0
  0
BLOCK
  8
0
  2
BLOCK_390
 70
     0
 10
0.0
 20
0.0
 30
0.0
  3
BLOCK_390
  1

  0
INSERT
  5
2CF
  8
LAYER_2
  2
BLOCK_391
 10
0.0
 20
0.0
 30
0.0
  0
ENDBLK
  5
2D1
  8
0
  0
BLOCK
  8
0
  2
BLOCK_391
 70
     0
 10
0.0
 20
0.0
 30
0.0
  3
BLOCK_391
  1

  0
LINE
  5
2CC
  8
LAYER_2
 62
     7
 10
217.8395887042207
 20
-248.8371798423046
 30
0.0
 11
207.3895805688123
 21
-242.8037841189866
 31
0.0
  0
ENDBLK
  5
2CE
  8
0
  0
BLOCK
  8
0
  2
BLOCK_388
 70
     0
 10
0.0
 20
0.0
 30
0.0
  3
BLOCK_388
  1

  0
INSERT
  5
2D8
  8
LAYER_2
  2
BLOCK_389
 10
0.0
 20
0.0
 30
0.0
  0
ENDBLK
  5
2DA
  8
0
  0
BLOCK
  8
0
  2
BLOCK_389
 70
     0
 10
0.0
 20
0.0
 30
0.0
  3
BLOCK_389
  1

  0
ARC
  5
2D5
  8
LAYER_2
 62
     7
 10
322.680420935025
 20
-297.2438719960015
 30
0.0
 40
127.4978471990984
 50
154.7234192058008
 51
205.2765807941992
  0
ENDBLK
  5
2D7
  8
0
  0
BLOCK
  8
0
  2
BLOCK_386
 70
     0
 10
0.0
 20
0.0
 30
0.0
  3
BLOCK_386
  1

  0
INSERT
  5
2E1
  8
LAYER_2
  2
BLOCK_387
 10
0.0
 20
0.0
 30
0.0
  0
ENDBLK
  5
2E3
  8
0
  0
BLOCK
  8
0
  2
BLOCK_387
 70
     0
 10
0.0
 20
0.0
 30
0.0
  3
BLOCK_387
  1

  0
LINE
  5
2DE
  8
LAYER_2
 62
     7
 10
207.3895805688123
 20
-351.6839598730165
 30
0.0
 11
217.8395887042207
 21
-345.6505641496985
 31
0.0
  0
ENDBLK
  5
2E0
  8
0
  0
BLOCK
  8
0
  2
BLOCK_384
 70
     0
 10
0.0
 20
0.0
 30
0.0
  3
BLOCK_384
  1

  0
INSERT
  5
2EA
  8
LAYER_2
  2
BLOCK_385
 10
0.0
 20
0.0
 30
0.0
  0
ENDBLK
  5
2EC
  8
0
  0
BLOCK
  8
0
  2
BLOCK_385
 70
     0
 10
0.0
 20
0.0
 30
0.0
  3
BLOCK_385
  1

  0
ARC
  5
2E7
  8
LAYER_2
 62
     7
 10
219.3396378905288
 20
-348.2486513802596
 30
0.0
 40
3.000034136297201
 50
299.9982996054628
 51
120.0007083012439
  0
ENDBLK
  5
2E9
  8
0
  0
BLOCK
  8
0
  2
BLOCK_382
 70
     0
 10
0.0
 20
0.0
 30
0.0
  3
BLOCK_382
  1

  0
INSERT
  5
2F3
  8
LAYER_2
  2
BLOCK_383
 10
0.0
 20
0.0
 30
0.0
  0
ENDBLK
  5
2F5
  8
0
  0
BLOCK
  8
0
  2
BLOCK_383
 70
     0
 10
0.0
 20
0.0
 30
0.0
  3
BLOCK_383
  1

  0
LINE
  5
2F0
  8
LAYER_2
 62
     7
 10
220.8395778527762
 20
-350.8468016701008
 30
0.0
 11
225.3395615756096
 21
-358.6409856959301
 31
0.0
  0
ENDBLK
  5
2F2
  8
0
  0
BLOCK
  8
0
  2
BLOCK_380
 70
     0
 10
0.0
 20
0.0
 30
0.0
  3
BLOCK_380
  1

  0
INSERT
  5
2FC
  8
LAYER_2
  2
BLOCK_381
 10
0.0
 20
0.0
 30
0.0
  0
ENDBLK
  5
2FE
  8
0
  0
BLOCK
  8
0
  2
BLOCK_381
 70
     0
 10
0.0
 20
0.0
 30
0.0
  3
BLOCK_381
  1

  0
ARC
  5
2F9
  8
LAYER_2
 62
     7
 10
226.8397284046616
 20
-361.2391044561312
 30
0.0
 40
3.000120265438921
 50
300.0023529244162
 51
120.0023529244181
  0
ENDBLK
  5
2FB
  8
0
  0
BLOCK
  8
0
  2
BLOCK_378
 70
     0
 10
0.0
 20
0.0
 30
0.0
  3
BLOCK_378
  1

  0
INSERT
  5
305
  8
LAYER_2
  2
BLOCK_379
 10
0.0
 20
0.0
 30
0.0
  0
ENDBLK
  5
307
  8
0
  0
BLOCK
  8
0
  2
BLOCK_379
 70
     0
 10
0.0
 20
0.0
 30
0.0
  3
BLOCK_379
  1

  0
LINE
  5
302
  8
LAYER_2
 62
     7
 10
228.3398952337136
 20
-363.8372232163324
 30
0.0
 11
217.8895425887568
 21
-369.8706189396504
 31
0.0
  0
ENDBLK
  5
304
  8
0
  0
BLOCK
  8
0
  2
BLOCK_376
 70
     0
 10
0.0
 20
0.0
 30
0.0
  3
BLOCK_376
  1

  0
INSERT
  5
30E
  8
LAYER_2
  2
BLOCK_377
 10
0.0
 20
0.0
 30
0.0
  0
ENDBLK
  5
310
  8
0
  0
BLOCK
  8
0
  2
BLOCK_377
 70
     0
 10
0.0
 20
0.0
 30
0.0
  3
BLOCK_377
  1

  0
ARC
  5
30B
  8
LAYER_2
 62
     7
 10
322.6817676344002
 20
-297.2452790534034
 30
0.0
 40
127.4984330241344
 50
214.7235578350847
 51
265.2765993953307
  0
ENDBLK
  5
30D
  8
0
  0
BLOCK
  8
0
  2
BLOCK_374
 70
     0
 10
0.0
 20
0.0
 30
0.0
  3
BLOCK_374
  1

  0
INSERT
  5
317
  8
LAYER_2
  2
BLOCK_375
 10
0.0
 20
0.0
 30
0.0
  0
ENDBLK
  5
319
  8
0
  0
BLOCK
  8
0
  2
BLOCK_375
 70
     0
 10
0.0
 20
0.0
 30
0.0
  3
BLOCK_375
  1

  0
LINE
  5
314
  8
LAYER_2
 62
     7
 10
312.1828395486904
 20
-424.3107068166654
 30
0.0
 11
312.1828395486904
 21
-412.2439153700293
 31
0.0
  0
ENDBLK
  5
316
  8
0
  0
BLOCK
  8
0
  2
BLOCK_372
 70
     0
 10
0.0
 20
0.0
 30
0.0
  3
BLOCK_372
  1

  0
INSERT
  5
320
  8
LAYER_2
  2
BLOCK_373
 10
0.0
 20
0.0
 30
0.0
  0
ENDBLK
  5
322
  8
0
  0
BLOCK
  8
0
  2
BLOCK_373
 70
     0
 10
0.0
 20
0.0
 30
0.0
  3
BLOCK_373
  1

  0
ARC
  5
31D
  8
LAYER_2
 62
     7
 10
315.182828697246
 20
-412.2439153700294
 30
0.0
 40
2.999989148555471
 50
0.0000000000010856
 51
179.9999999999989
  0
ENDBLK
  5
31F
  8
0
  0
BLOCK
  8
0
  2
BLOCK_370
 70
     0
 10
0.0
 20
0.0
 30
0.0
  3
BLOCK_370
  1

  0
INSERT
  5
329
  8
LAYER_2
  2
BLOCK_371
 10
0.0
 20
0.0
 30
0.0
  0
ENDBLK
  5
32B
  8
0
  0
BLOCK
  8
0
  2
BLOCK_371
 70
     0
 10
0.0
 20
0.0
 30
0.0
  3
BLOCK_371
  1

  0
LINE
  5
326
  8
LAYER_2
 62
     7
 10
318.1828178458015
 20
-412.2439153700293
 30
0.0
 11
327.1827852914682
 21
-412.2439153700293
 31
0.0
  0
ENDBLK
  5
328
  8
0
  0
BLOCK
  8
0
  2
BLOCK_368
 70
     0
 10
0.0
 20
0.0
 30
0.0
  3
BLOCK_368
  1

  0
INSERT
  5
332
  8
LAYER_2
  2
BLOCK_369
 10
0.0
 20
0.0
 30
0.0
  0
ENDBLK
  5
334
  8
0
  0
BLOCK
  8
0
  2
BLOCK_369
 70
     0
 10
0.0
 20
0.0
 30
0.0
  3
BLOCK_369
  1

  0
ARC
  5
32F
  8
LAYER_2
 62
     7
 10
330.1827744400237
 20
-412.2439153700294
 30
0.0
 40
2.999989148555585
 50
0.0000000000021713
 51
179.9999999999978
  0
ENDBLK
  5
331
  8
0
  0
BLOCK
  8
0
  2
BLOCK_366
 70
     0
 10
0.0
 20
0.0
 30
0.0
  3
BLOCK_366
  1

  0
INSERT
  5
33B
  8
LAYER_2
  2
BLOCK_367
 10
0.0
 20
0.0
 30
0.0
  0
ENDBLK
  5
33D
  8
0
  0
BLOCK
  8
0
  2
BLOCK_367
 70
     0
 10
0.0
 20
0.0
 30
0.0
  3
BLOCK_367
  1

  0
LINE
  5
338
  8
LAYER_2
 62
     7
 10
333.1827635885793
 20
-412.2439153700293
 30
0.0
 11
333.1827635885793
 21
-424.3107068166654
 31
0.0
  0
ENDBLK
  5
33A
  8
0
  0
BLOCK
  8
0
  2
BLOCK_364
 70
     0
 10
0.0
 20
0.0
 30
0.0
  3
BLOCK_364
  1

  0
INSERT
  5
344
  8
LAYER_2
  2
BLOCK_365
 10
0.0
 20
0.0
 30
0.0
  0
ENDBLK
  5
346
  8
0
  0
BLOCK
  8
0
  2
BLOCK_365
 70
     0
 10
0.0
 20
0.0
 30
0.0
  3
BLOCK_365
  1

  0
ARC
  5
341
  8
LAYER_2
 62
     7
 10
322.6838379333365
 20
-297.2459464115968
 30
0.0
 40
127.4977677322697
 50
274.7234242117356
 51
325.276599847999
  0
ENDBLK
  5
343
  8
0
  0
BLOCK
  8
0
  2
BLOCK_362
 70
     0
 10
0.0
 20
0.0
 30
0.0
  3
BLOCK_362
  1

  0
INSERT
  5
34D
  8
LAYER_2
  2
BLOCK_363
 10
0.0
 20
0.0
 30
0.0
  0
ENDBLK
  5
34F
  8
0
  0
BLOCK
  8
0
  2
BLOCK_363
 70
     0
 10
0.0
 20
0.0
 30
0.0
  3
BLOCK_363
  1

  0
LINE
  5
34A
  8
LAYER_2
 62
     7
 10
427.4757160389644
 20
-369.8706189396504
 30
0.0
 11
417.0257079035561
 21
-363.8372232163324
 31
0.0
  0
ENDBLK
  5
34C
  8
0
  0
BLOCK
  8
0
  2
BLOCK_360
 70
     0
 10
0.0
 20
0.0
 30
0.0
  3
BLOCK_360
  1

  0
INSERT
  5
356
  8
LAYER_2
  2
BLOCK_361
 10
0.0
 20
0.0
 30
0.0
  0
ENDBLK
  5
358
  8
0
  0
BLOCK
  8
0
  2
BLOCK_361
 70
     0
 10
0.0
 20
0.0
 30
0.0
  3
BLOCK_361
  1

  0
ARC
  5
353
  8
LAYER_2
 62
     7
 10
418.5254987051194
 20
-361.2389868102519
 30
0.0
 40
3.000034144861582
 50
59.99600228882698
 51
240.0049898044667
  0
ENDBLK
  5
355
  8
0
  0
BLOCK
  8
0
  2
BLOCK_358
 70
     0
 10
0.0
 20
0.0
 30
0.0
  3
BLOCK_358
  1

  0
INSERT
  5
35F
  8
LAYER_2
  2
BLOCK_359
 10
0.0
 20
0.0
 30
0.0
  0
ENDBLK
  5
361
  8
0
  0
BLOCK
  8
0
  2
BLOCK_359
 70
     0
 10
0.0
 20
0.0
 30
0.0
  3
BLOCK_359
  1

  0
LINE
  5
35C
  8
LAYER_2
 62
     7
 10
420.0256970521116
 20
-358.6409856959301
 30
0.0
 11
424.525680774945
 21
-350.8468016701008
 31
0.0
  0
ENDBLK
  5
35E
  8
0
  0
BLOCK
  8
0
  2
BLOCK_356
 70
     0
 10
0.0
 20
0.0
 30
0.0
  3
BLOCK_356
  1

  0
INSERT
  5
368
  8
LAYER_2
  2
BLOCK_357
 10
0.0
 20
0.0
 30
0.0
  0
ENDBLK
  5
36A
  8
0
  0
BLOCK
  8
0
  2
BLOCK_357
 70
     0
 10
0.0
 20
0.0
 30
0.0
  3
BLOCK_357
  1

  0
ARC
  5
365
  8
LAYER_2
 62
     7
 10
426.0256207371925
 20
-348.2486513802596
 30
0.0
 40
3.000034136297113
 50
59.99929169875606
 51
240.0017003945352
  0
ENDBLK
  5
367
  8
0
  0
BLOCK
  8
0
  2
BLOCK_354
 70
     0
 10
0.0
 20
0.0
 30
0.0
  3
BLOCK_354
  1

  0
INSERT
  5
371
  8
LAYER_2
  2
BLOCK_355
 10
0.0
 20
0.0
 30
0.0
  0
ENDBLK
  5
373
  8
0
  0
BLOCK
  8
0
  2
BLOCK_355
 70
     0
 10
0.0
 20
0.0
 30
0.0
  3
BLOCK_355
  1

  0
LINE
  5
36E
  8
LAYER_2
 62
     7
 10
427.5256699235006
 20
-345.6505641496985
 30
0.0
 11
437.9756780589089
 21
-351.6839598730165
 31
0.0
  0
ENDBLK
  5
370
  8
0
  0
BLOCK
  8
0
  2
BLOCK_352
 70
     0
 10
0.0
 20
0.0
 30
0.0
  3
BLOCK_352
  1

  0
INSERT
  5
37A
  8
LAYER_2
  2
BLOCK_353
 10
0.0
 20
0.0
 30
0.0
  0
ENDBLK
  5
37C
  8
0
  0
BLOCK
  8
0
  2
BLOCK_353
 70
     0
 10
0.0
 20
0.0
 30
0.0
  3
BLOCK_353
  1

  0
ARC
  5
377
  8
LAYER_2
 62
     7
 10
322.6848376926956
 20
-297.2438719960016
 30
0.0
 40
127.497847199099
 50
334.7234192058009
 51
25.27658079419908
  0
ENDBLK
  5
379
  8
0
  0
BLOCK
  8
0
  2
BLOCK_350
 70
     0
 10
0.0
 20
0.0
 30
0.0
  3
BLOCK_350
  1

  0
INSERT
  5
383
  8
LAYER_2
  2
BLOCK_351
 10
0.0
 20
0.0
 30
0.0
  0
ENDBLK
  5
385
  8
0
  0
BLOCK
  8
0
  2
BLOCK_351
 70
     0
 10
0.0
 20
0.0
 30
0.0
  3
BLOCK_351
  1

  0
LINE
  5
380
  8
LAYER_2
 62
     7
 10
437.9756780589089
 20
-242.8037841189866
 30
0.0
 11
427.5256699235006
 21
-248.8371798423046
 31
0.0
  0
ENDBLK
  5
382
  8
0
  0
BLOCK
  8
0
  2
BLOCK_348
 70
     0
 10
0.0
 20
0.0
 30
0.0
  3
BLOCK_348
  1

  0
INSERT
  5
38C
  8
LAYER_2
  2
BLOCK_349
 10
0.0
 20
0.0
 30
0.0
  0
ENDBLK
  5
38E
  8
0
  0
BLOCK
  8
0
  2
BLOCK_349
 70
     0
 10
0.0
 20
0.0
 30
0.0
  3
BLOCK_349
  1

  0
ARC
  5
389
  8
LAYER_2
 62
     7
 10
426.0254715765083
 20
-246.2391787279829
 30
0.0
 40
3.000034144861753
 50
119.9950101955324
 51
300.003997711175
  0
ENDBLK
  5
38B
  8
0
  0
BLOCK
  8
0
  2
BLOCK_346
 70
     0
 10
0.0
 20
0.0
 30
0.0
  3
BLOCK_346
  1

  0
INSERT
  5
395
  8
LAYER_2
  2
BLOCK_347
 10
0.0
 20
0.0
 30
0.0
  0
ENDBLK
  5
397
  8
0
  0
BLOCK
  8
0
  2
BLOCK_347
 70
     0
 10
0.0
 20
0.0
 30
0.0
  3
BLOCK_347
  1

  0
LINE
  5
392
  8
LAYER_2
 62
     7
 10
424.525680774945
 20
-243.6409423219023
 30
0.0
 11
420.0256970521116
 21
-235.846758296073
 31
0.0
  0
ENDBLK
  5
394
  8
0
  0
BLOCK
  8
0
  2
BLOCK_344
 70
     0
 10
0.0
 20
0.0
 30
0.0
  3
BLOCK_344
  1

  0
INSERT
  5
39E
  8
LAYER_2
  2
BLOCK_345
 10
0.0
 20
0.0
 30
0.0
  0
ENDBLK
  5
3A0
  8
0
  0
BLOCK
  8
0
  2
BLOCK_345
 70
     0
 10
0.0
 20
0.0
 30
0.0
  3
BLOCK_345
  1

  0
ARC
  5
39B
  8
LAYER_2
 62
     7
 10
418.5254987051193
 20
-233.2487571817512
 30
0.0
 40
3.000034144861627
 50
119.9950101955325
 51
300.0039977111728
  0
ENDBLK
  5
39D
  8
0
  0
BLOCK
  8
0
  2
BLOCK_342
 70
     0
 10
0.0
 20
0.0
 30
0.0
  3
BLOCK_342
  1

  0
INSERT
  5
3A7
  8
LAYER_2
  2
BLOCK_343
 10
0.0
 20
0.0
 30
0.0
  0
ENDBLK
  5
3A9
  8
0
  0
BLOCK
  8
0
  2
BLOCK_343
 70
     0
 10
0.0
 20
0.0
 30
0.0
  3
BLOCK_343
  1

  0
LINE
  5
3A4
  8
LAYER_2
 62
     7
 10
417.0257079035561
 20
-230.6505207756707
 30
0.0
 11
427.4757160389644
 21
-224.6171250523527
 31
0.0
  0
ENDBLK
  5
3A6
  8
0
  0
BLOCK
  8
0
  2
BLOCK_340
 70
     0
 10
0.0
 20
0.0
 30
0.0
  3
BLOCK_340
  1

  0
INSERT
  5
3B0
  8
LAYER_2
  2
BLOCK_341
 10
0.0
 20
0.0
 30
0.0
  0
ENDBLK
  5
3B2
  8
0
  0
BLOCK
  8
0
  2
BLOCK_341
 70
     0
 10
0.0
 20
0.0
 30
0.0
  3
BLOCK_341
  1

  0
ARC
  5
3AD
  8
LAYER_2
 62
     7
 10
322.682669337992
 20
-297.2438216459349
 30
0.0
 40
127.4998811566836
 50
34.72384861118312
 51
85.2761273290823
  0
ENDBLK
  5
3AF
  8
0
  0
BLOCK
  8
0
  2
BLOCK_338
 70
     0
 10
0.0
 20
0.0
 30
0.0
  3
BLOCK_338
  1

  0
INSERT
  5
3B9
  8
LAYER_2
  2
BLOCK_339
 10
0.0
 20
0.0
 30
0.0
  0
ENDBLK
  5
3BB
  8
0
  0
BLOCK
  8
0
  2
BLOCK_339
 70
     0
 10
0.0
 20
0.0
 30
0.0
  3
BLOCK_339
  1

  0
LINE
  5
3B6
  8
LAYER_2
 62
     7
 10
333.1827635885793
 20
-170.1770371753377
 30
0.0
 11
333.1827635885793
 21
-182.2438286219738
 31
0.0
  0
ENDBLK
  5
3B8
  8
0
  0
BLOCK
  8
0
  2
BLOCK_336
 70
     0
 10
0.0
 20
0.0
 30
0.0
  3
BLOCK_336
  1

  0
INSERT
  5
3C2
  8
LAYER_2
  2
BLOCK_337
 10
0.0
 20
0.0
 30
0.0
  0
ENDBLK
  5
3C4
  8
0
  0
BLOCK
  8
0
  2
BLOCK_337
 70
     0
 10
0.0
 20
0.0
 30
0.0
  3
BLOCK_337
  1

  0
ARC
  5
3BF
  8
LAYER_2
 62
     7
 10
330.1827744400237
 20
-182.2438286219737
 30
0.0
 40
2.999989148555528
 50
180.0000000000016
 51
359.9999999999984
  0
ENDBLK
  5
3C1
  8
0
  0
BLOCK
  8
0
  2
BLOCK_334
 70
     0
 10
0.0
 20
0.0
 30
0.0
  3
BLOCK_334
  1

  0
INSERT
  5
3CB
  8
LAYER_2
  2
BLOCK_335
 10
0.0
 20
0.0
 30
0.0
  0
ENDBLK
  5
3CD
  8
0
  0
BLOCK
  8
0
  2
BLOCK_335
 70
     0
 10
0.0
 20
0.0
 30
0.0
  3
BLOCK_335
  1

  0
LINE
  5
3C8
  8
LAYER_2
 62
     7
 10
327.1827852914682
 20
-182.2438286219738
 30
0.0
 11
318.1828178458015
 21
-182.2438286219738
 31
0.0
  0
ENDBLK
  5
3CA
  8
0
  0
BLOCK
  8
0
  2
BLOCK_332
 70
     0
 10
0.0
 20
0.0
 30
0.0
  3
BLOCK_332
  1

  0
INSERT
  5
3D4
  8
LAYER_2
  2
BLOCK_333
 10
0.0
 20
0.0
 30
0.0
  0
ENDBLK
  5
3D6
  8
0
  0
BLOCK
  8
0
  2
BLOCK_333
 70
     0
 10
0.0
 20
0.0
 30
0.0
  3
BLOCK_333
  1

  0
ARC
  5
3D1
  8
LAYER_2
 62
     7
 10
315.182828697246
 20
-182.2438286219738
 30
0.0
 40
2.999989148555528
 50
180.0000000000005
 51
359.9999999999994
  0
ENDBLK
  5
3D3
  8
0
  0
BLOCK
  8
0
  2
BLOCK_330
 70
     0
 10
0.0
 20
0.0
 30
0.0
  3
BLOCK_330
  1

  0
INSERT
  5
3DD
  8
LAYER_2
  2
BLOCK_331
 10
0.0
 20
0.0
 30
0.0
  0
ENDBLK
  5
3DF
  8
0
  0
BLOCK
  8
0
  2
BLOCK_331
 70
     0
 10
0.0
 20
0.0
 30
0.0
  3
BLOCK_331
  1

  0
LINE
  5
3DA
  8
LAYER_2
 62
     7
 10
312.1828395486904
 20
-182.2438286219738
 30
0.0
 11
312.1828395486904
 21
-170.1770371753377
 31
0.0
  0
ENDBLK
  5
3DC
  8
0
  0
BLOCK
  8
0
  2
BLOCK_328
 70
     0
 10
0.0
 20
0.0
 30
0.0
  3
BLOCK_328
  1

  0
INSERT
  5
3E6
  8
LAYER_2
  2
BLOCK_329
 10
0.0
 20
0.0
 30
0.0
  0
ENDBLK
  5
3E8
  8
0
  0
BLOCK
  8
0
  2
BLOCK_329
 70
     0
 10
0.0
 20
0.0
 30
0.0
  3
BLOCK_329
  1

  0
ARC
  5
3E3
  8
LAYER_2
 62
     7
 10
322.6829362336056
 20
-297.244489018211
 30
0.0
 40
127.5005464624897
 50
94.72384906311059
 51
145.2759937064739
  0
ENDBLK
  5
3E5
  8
0
  0
BLOCK
  8
0
  2
BLOCK_326
 70
     0
 10
0.0
 20
0.0
 30
0.0
  3
BLOCK_326
  1

  0
INSERT
  5
3EF
  8
LAYER_2
  2
BLOCK_327
 10
0.0
 20
0.0
 30
0.0
  0
ENDBLK
  5
3F1
  8
0
  0
BLOCK
  8
0
  2
BLOCK_327
 70
     0
 10
0.0
 20
0.0
 30
0.0
  3
BLOCK_327
  1

  0
LINE
  5
3EC
  8
LAYER_2
 62
     7
 10
217.8895425887568
 20
-224.6171250523527
 30
0.0
 11
228.3398952337136
 21
-230.6505207756707
 31
0.0
  0
ENDBLK
  5
3EE
  8
0
  0
BLOCK
  8
0
  2
BLOCK_324
 70
     0
 10
0.0
 20
0.0
 30
0.0
  3
BLOCK_324
  1

  0
INSERT
  5
3F8
  8
LAYER_2
  2
BLOCK_325
 10
0.0
 20
0.0
 30
0.0
  0
ENDBLK
  5
3FA
  8
0
  0
BLOCK
  8
0
  2
BLOCK_325
 70
     0
 10
0.0
 20
0.0
 30
0.0
  3
BLOCK_325
  1

  0
CIRCLE
  5
3F5
  8
LAYER_2
 62
     7
 10
322.6826293138606
 20
-297.2436997412273
 30
0.0
 40
99.99992537662406
  0
ENDBLK
  5
3F7
  8
0
  0
BLOCK
  8
0
  2
BLOCK_322
 70
     0
 10
0.0
 20
0.0
 30
0.0
  3
BLOCK_322
  1

  0
INSERT
  5
401
  8
LAYER_2
  2
BLOCK_323
 10
0.0
 20
0.0
 30
0.0
  0
ENDBLK
  5
403
  8
0
  0
BLOCK
  8
0
  2
BLOCK_323
 70
     0
 10
0.0
 20
0.0
 30
0.0
  3
BLOCK_323
  1

  0
ARC
  5
3FE
  8
LAYER_2
 62
     7
 10
233.8327008782013
 20
74.43941545428788
 30
0.0
 40
3.000034136296854
 50
240.0017000673698
 51
59.99929202592272
  0
ENDBLK
  5
400
  8
0
  0
BLOCK
  8
0
  2
BLOCK_320
 70
     0
 10
0.0
 20
0.0
 30
0.0
  3
BLOCK_320
  1

  0
INSERT
  5
40A
  8
LAYER_2
  2
BLOCK_321
 10
0.0
 20
0.0
 30
0.0
  0
ENDBLK
  5
40C
  8
0
  0
BLOCK
  8
0
  2
BLOCK_321
 70
     0
 10
0.0
 20
0.0
 30
0.0
  3
BLOCK_321
  1

  0
LINE
  5
407
  8
LAYER_2
 62
     7
 10
232.3327609011182
 20
71.8412651730119
 30
0.0
 11
227.8327771782849
 21
64.04708114718268
 31
0.0
  0
ENDBLK
  5
409
  8
0
  0
BLOCK
  8
0
  2
BLOCK_318
 70
     0
 10
0.0
 20
0.0
 30
0.0
  3
BLOCK_318
  1

  0
INSERT
  5
413
  8
LAYER_2
  2
BLOCK_319
 10
0.0
 20
0.0
 30
0.0
  0
ENDBLK
  5
415
  8
0
  0
BLOCK
  8
0
  2
BLOCK_319
 70
     0
 10
0.0
 20
0.0
 30
0.0
  3
BLOCK_319
  1

  0
ARC
  5
410
  8
LAYER_2
 62
     7
 10
226.3327280068124
 20
61.44899390805634
 30
0.0
 40
3.000034136296866
 50
240.0017000673699
 51
59.99929202592232
  0
ENDBLK
  5
412
  8
0
  0
BLOCK
  8
0
  2
BLOCK_316
 70
     0
 10
0.0
 20
0.0
 30
0.0
  3
BLOCK_316
  1

  0
INSERT
  5
41C
  8
LAYER_2
  2
BLOCK_317
 10
0.0
 20
0.0
 30
0.0
  0
ENDBLK
  5
41E
  8
0
  0
BLOCK
  8
0
  2
BLOCK_317
 70
     0
 10
0.0
 20
0.0
 30
0.0
  3
BLOCK_317
  1

  0
LINE
  5
419
  8
LAYER_2
 62
     7
 10
224.8327880297293
 20
58.85084362678035
 30
0.0
 11
214.3824353847725
 21
64.88423935009838
 31
0.0
  0
ENDBLK
  5
41B
  8
0
  0
BLOCK
  8
0
  2
BLOCK_314
 70
     0
 10
0.0
 20
0.0
 30
0.0
  3
BLOCK_314
  1

  0
INSERT
  5
425
  8
LAYER_2
  2
BLOCK_315
 10
0.0
 20
0.0
 30
0.0
  0
ENDBLK
  5
427
  8
0
  0
BLOCK
  8
0
  2
BLOCK_315
 70
     0
 10
0.0
 20
0.0
 30
0.0
  3
BLOCK_315
  1

  0
ARC
  5
422
  8
LAYER_2
 62
     7
 10
329.6767427443453
 20
10.44397921830914
 30
0.0
 40
127.5010558102972
 50
154.7240144491776
 51
205.2759855508224
  0
ENDBLK
  5
424
  8
0
  0
BLOCK
  8
0
  2
BLOCK_312
 70
     0
 10
0.0
 20
0.0
 30
0.0
  3
BLOCK_312
  1

  0
INSERT
  5
42E
  8
LAYER_2
  2
BLOCK_313
 10
0.0
 20
0.0
 30
0.0
  0
ENDBLK
  5
430
  8
0
  0
BLOCK
  8
0
  2
BLOCK_313
 70
     0
 10
0.0
 20
0.0
 30
0.0
  3
BLOCK_313
  1

  0
LINE
  5
42B
  8
LAYER_2
 62
     7
 10
214.3824353847725
 20
-43.9962809134801
 30
0.0
 11
224.8327880297293
 21
-37.96254068061354
 31
0.0
  0
ENDBLK
  5
42D
  8
0
  0
BLOCK
  8
0
  2
BLOCK_310
 70
     0
 10
0.0
 20
0.0
 30
0.0
  3
BLOCK_310
  1

  0
INSERT
  5
437
  8
LAYER_2
  2
BLOCK_311
 10
0.0
 20
0.0
 30
0.0
  0
ENDBLK
  5
439
  8
0
  0
BLOCK
  8
0
  2
BLOCK_311
 70
     0
 10
0.0
 20
0.0
 30
0.0
  3
BLOCK_311
  1

  0
ARC
  5
434
  8
LAYER_2
 62
     7
 10
226.332578816457
 20
-40.56077709525924
 30
0.0
 40
3.000034144863007
 50
300.0039980383422
 51
119.9950098683658
  0
ENDBLK
  5
436
  8
0
  0
BLOCK
  8
0
  2
BLOCK_308
 70
     0
 10
0.0
 20
0.0
 30
0.0
  3
BLOCK_308
  1

  0
INSERT
  5
440
  8
LAYER_2
  2
BLOCK_309
 10
0.0
 20
0.0
 30
0.0
  0
ENDBLK
  5
442
  8
0
  0
BLOCK
  8
0
  2
BLOCK_309
 70
     0
 10
0.0
 20
0.0
 30
0.0
  3
BLOCK_309
  1

  0
LINE
  5
43D
  8
LAYER_2
 62
     7
 10
227.8327771782849
 20
-43.15877820101586
 30
0.0
 11
232.3327609011182
 21
-50.9529622268451
 31
0.0
  0
ENDBLK
  5
43F
  8
0
  0
BLOCK
  8
0
  2
BLOCK_306
 70
     0
 10
0.0
 20
0.0
 30
0.0
  3
BLOCK_306
  1

  0
INSERT
  5
449
  8
LAYER_2
  2
BLOCK_307
 10
0.0
 20
0.0
 30
0.0
  0
ENDBLK
  5
44B
  8
0
  0
BLOCK
  8
0
  2
BLOCK_307
 70
     0
 10
0.0
 20
0.0
 30
0.0
  3
BLOCK_307
  1

  0
ARC
  5
446
  8
LAYER_2
 62
     7
 10
233.8325516878459
 20
-53.55119864149079
 30
0.0
 40
3.000034144863006
 50
300.0039980383416
 51
119.9950098683664
  0
ENDBLK
  5
448
  8
0
  0
BLOCK
  8
0
  2
BLOCK_304
 70
     0
 10
0.0
 20
0.0
 30
0.0
  3
BLOCK_304
  1

  0
INSERT
  5
452
  8
LAYER_2
  2
BLOCK_305
 10
0.0
 20
0.0
 30
0.0
  0
ENDBLK
  5
454
  8
0
  0
BLOCK
  8
0
  2
BLOCK_305
 70
     0
 10
0.0
 20
0.0
 30
0.0
  3
BLOCK_305
  1

  0
LINE
  5
44F
  8
LAYER_2
 62
     7
 10
235.3327500496738
 20
-56.14919974724742
 30
0.0
 11
224.8823974047169
 21
-62.18259547056547
 31
0.0
  0
ENDBLK
  5
451
  8
0
  0
BLOCK
  8
0
  2
BLOCK_302
 70
     0
 10
0.0
 20
0.0
 30
0.0
  3
BLOCK_302
  1

  0
INSERT
  5
45B
  8
LAYER_2
  2
BLOCK_303
 10
0.0
 20
0.0
 30
0.0
  0
ENDBLK
  5
45D
  8
0
  0
BLOCK
  8
0
  2
BLOCK_303
 70
     0
 10
0.0
 20
0.0
 30
0.0
  3
BLOCK_303
  1

  0
ARC
  5
458
  8
LAYER_2
 62
     7
 10
329.6749597905838
 20
10.44332870793997
 30
0.0
 40
127.4990431108322
 50
214.7236872933747
 51
265.276469937041
  0
ENDBLK
  5
45A
  8
0
  0
BLOCK
  8
0
  2
BLOCK_300
 70
     0
 10
0.0
 20
0.0
 30
0.0
  3
BLOCK_300
  1

  0
INSERT
  5
464
  8
LAYER_2
  2
BLOCK_301
 10
0.0
 20
0.0
 30
0.0
  0
ENDBLK
  5
466
  8
0
  0
BLOCK
  8
0
  2
BLOCK_301
 70
     0
 10
0.0
 20
0.0
 30
0.0
  3
BLOCK_301
  1

  0
LINE
  5
461
  8
LAYER_2
 62
     7
 10
319.1756943646506
 20
-116.6226833475804
 30
0.0
 11
319.1756943646506
 21
-104.5558919009444
 31
0.0
  0
ENDBLK
  5
463
  8
0
  0
BLOCK
  8
0
  2
BLOCK_298
 70
     0
 10
0.0
 20
0.0
 30
0.0
  3
BLOCK_298
  1

  0
INSERT
  5
46D
  8
LAYER_2
  2
BLOCK_299
 10
0.0
 20
0.0
 30
0.0
  0
ENDBLK
  5
46F
  8
0
  0
BLOCK
  8
0
  2
BLOCK_299
 70
     0
 10
0.0
 20
0.0
 30
0.0
  3
BLOCK_299
  1

  0
ARC
  5
46A
  8
LAYER_2
 62
     7
 10
322.1756835132062
 20
-104.5558919009444
 30
0.0
 40
2.999989148555528
 50
359.9999999999994
 51
180.0000000000005
  0
ENDBLK
  5
46C
  8
0
  0
BLOCK
  8
0
  2
BLOCK_296
 70
     0
 10
0.0
 20
0.0
 30
0.0
  3
BLOCK_296
  1

  0
INSERT
  5
476
  8
LAYER_2
  2
BLOCK_297
 10
0.0
 20
0.0
 30
0.0
  0
ENDBLK
  5
478
  8
0
  0
BLOCK
  8
0
  2
BLOCK_297
 70
     0
 10
0.0
 20
0.0
 30
0.0
  3
BLOCK_297
  1

  0
LINE
  5
473
  8
LAYER_2
 62
     7
 10
325.1756726617617
 20
-104.5558919009444
 30
0.0
 11
334.1756401074283
 21
-104.5558919009444
 31
0.0
  0
ENDBLK
  5
475
  8
0
  0
BLOCK
  8
0
  2
BLOCK_294
 70
     0
 10
0.0
 20
0.0
 30
0.0
  3
BLOCK_294
  1

  0
INSERT
  5
47F
  8
LAYER_2
  2
BLOCK_295
 10
0.0
 20
0.0
 30
0.0
  0
ENDBLK
  5
481
  8
0
  0
BLOCK
  8
0
  2
BLOCK_295
 70
     0
 10
0.0
 20
0.0
 30
0.0
  3
BLOCK_295
  1

  0
ARC
  5
47C
  8
LAYER_2
 62
     7
 10
337.1756292559838
 20
-104.5558919009444
 30
0.0
 40
2.999989148555585
 50
0.0
 51
180.0
  0
ENDBLK
  5
47E
  8
0
  0
BLOCK
  8
0
  2
BLOCK_292
 70
     0
 10
0.0
 20
0.0
 30
0.0
  3
BLOCK_292
  1

  0
INSERT
  5
488
  8
LAYER_2
  2
BLOCK_293
 10
0.0
 20
0.0
 30
0.0
  0
ENDBLK
  5
48A
  8
0
  0
BLOCK
  8
0
  2
BLOCK_293
 70
     0
 10
0.0
 20
0.0
 30
0.0
  3
BLOCK_293
  1

  0
LINE
  5
485
  8
LAYER_2
 62
     7
 10
340.1756184045394
 20
-104.5558919009444
 30
0.0
 11
340.1756184045394
 21
-116.6226833475804
 31
0.0
  0
ENDBLK
  5
487
  8
0
  0
BLOCK
  8
0
  2
BLOCK_290
 70
     0
 10
0.0
 20
0.0
 30
0.0
  3
BLOCK_290
  1

  0
INSERT
  5
491
  8
LAYER_2
  2
BLOCK_291
 10
0.0
 20
0.0
 30
0.0
  0
ENDBLK
  5
493
  8
0
  0
BLOCK
  8
0
  2
BLOCK_291
 70
     0
 10
0.0
 20
0.0
 30
0.0
  3
BLOCK_291
  1

  0
ARC
  5
48E
  8
LAYER_2
 62
     7
 10
329.6766927492963
 20
10.44207705748893
 30
0.0
 40
127.4977677322705
 50
274.7234242117357
 51
325.2765998479987
  0
ENDBLK
  5
490
  8
0
  0
BLOCK
  8
0
  2
BLOCK_288
 70
     0
 10
0.0
 20
0.0
 30
0.0
  3
BLOCK_288
  1

  0
INSERT
  5
49A
  8
LAYER_2
  2
BLOCK_289
 10
0.0
 20
0.0
 30
0.0
  0
ENDBLK
  5
49C
  8
0
  0
BLOCK
  8
0
  2
BLOCK_289
 70
     0
 10
0.0
 20
0.0
 30
0.0
  3
BLOCK_289
  1

  0
LINE
  5
497
  8
LAYER_2
 62
     7
 10
434.4685708549246
 20
-62.18259547056547
 30
0.0
 11
424.0185627195162
 21
-56.14919974724742
 31
0.0
  0
ENDBLK
  5
499
  8
0
  0
BLOCK
  8
0
  2
BLOCK_286
 70
     0
 10
0.0
 20
0.0
 30
0.0
  3
BLOCK_286
  1

  0
INSERT
  5
4A3
  8
LAYER_2
  2
BLOCK_287
 10
0.0
 20
0.0
 30
0.0
  0
ENDBLK
  5
4A5
  8
0
  0
BLOCK
  8
0
  2
BLOCK_287
 70
     0
 10
0.0
 20
0.0
 30
0.0
  3
BLOCK_287
  1

  0
ARC
  5
4A0
  8
LAYER_2
 62
     7
 10
425.5187610813442
 20
-53.5511986414908
 30
0.0
 40
3.000034144863009
 50
60.00499013163483
 51
239.996001961657
  0
ENDBLK
  5
4A2
  8
0
  0
BLOCK
  8
0
  2
BLOCK_284
 70
     0
 10
0.0
 20
0.0
 30
0.0
  3
BLOCK_284
  1

  0
INSERT
  5
4AC
  8
LAYER_2
  2
BLOCK_285
 10
0.0
 20
0.0
 30
0.0
  0
ENDBLK
  5
4AE
  8
0
  0
BLOCK
  8
0
  2
BLOCK_285
 70
     0
 10
0.0
 20
0.0
 30
0.0
  3
BLOCK_285
  1

  0
LINE
  5
4A9
  8
LAYER_2
 62
     7
 10
427.0185518680718
 20
-50.9529622268451
 30
0.0
 11
431.5185355909051
 21
-43.15877820101586
 31
0.0
  0
ENDBLK
  5
4AB
  8
0
  0
BLOCK
  8
0
  2
BLOCK_282
 70
     0
 10
0.0
 20
0.0
 30
0.0
  3
BLOCK_282
  1

  0
INSERT
  5
4B5
  8
LAYER_2
  2
BLOCK_283
 10
0.0
 20
0.0
 30
0.0
  0
ENDBLK
  5
4B7
  8
0
  0
BLOCK
  8
0
  2
BLOCK_283
 70
     0
 10
0.0
 20
0.0
 30
0.0
  3
BLOCK_283
  1

  0
ARC
  5
4B2
  8
LAYER_2
 62
     7
 10
433.018733952733
 20
-40.56077709525925
 30
0.0
 40
3.000034144863021
 50
60.00499013163495
 51
239.9960019616597
  0
ENDBLK
  5
4B4
  8
0
  0
BLOCK
  8
0
  2
BLOCK_280
 70
     0
 10
0.0
 20
0.0
 30
0.0
  3
BLOCK_280
  1

  0
INSERT
  5
4BE
  8
LAYER_2
  2
BLOCK_281
 10
0.0
 20
0.0
 30
0.0
  0
ENDBLK
  5
4C0
  8
0
  0
BLOCK
  8
0
  2
BLOCK_281
 70
     0
 10
0.0
 20
0.0
 30
0.0
  3
BLOCK_281
  1

  0
LINE
  5
4BB
  8
LAYER_2
 62
     7
 10
434.5185247394606
 20
-37.96254068061354
 30
0.0
 11
444.9688773844175
 21
-43.9962809134801
 31
0.0
  0
ENDBLK
  5
4BD
  8
0
  0
BLOCK
  8
0
  2
BLOCK_278
 70
     0
 10
0.0
 20
0.0
 30
0.0
  3
BLOCK_278
  1

  0
INSERT
  5
4C7
  8
LAYER_2
  2
BLOCK_279
 10
0.0
 20
0.0
 30
0.0
  0
ENDBLK
  5
4C9
  8
0
  0
BLOCK
  8
0
  2
BLOCK_279
 70
     0
 10
0.0
 20
0.0
 30
0.0
  3
BLOCK_279
  1

  0
ARC
  5
4C4
  8
LAYER_2
 62
     7
 10
329.6745700248443
 20
10.44397921830914
 30
0.0
 40
127.5010558102976
 50
334.7240144491777
 51
25.2759855508223
  0
ENDBLK
  5
4C6
  8
0
  0
BLOCK
  8
0
  2
BLOCK_276
 70
     0
 10
0.0
 20
0.0
 30
0.0
  3
BLOCK_276
  1

  0
INSERT
  5
4D0
  8
LAYER_2
  2
BLOCK_277
 10
0.0
 20
0.0
 30
0.0
  0
ENDBLK
  5
4D2
  8
0
  0
BLOCK
  8
0
  2
BLOCK_277
 70
     0
 10
0.0
 20
0.0
 30
0.0
  3
BLOCK_277
  1

  0
LINE
  5
4CD
  8
LAYER_2
 62
     7
 10
444.9688773844175
 20
64.88423935009838
 30
0.0
 11
434.5185247394606
 21
58.85084362678035
 31
0.0
  0
ENDBLK
  5
4CF
  8
0
  0
BLOCK
  8
0
  2
BLOCK_274
 70
     0
 10
0.0
 20
0.0
 30
0.0
  3
BLOCK_274
  1

  0
INSERT
  5
4D9
  8
LAYER_2
  2
BLOCK_275
 10
0.0
 20
0.0
 30
0.0
  0
ENDBLK
  5
4DB
  8
0
  0
BLOCK
  8
0
  2
BLOCK_275
 70
     0
 10
0.0
 20
0.0
 30
0.0
  3
BLOCK_275
  1

  0
ARC
  5
4D6
  8
LAYER_2
 62
     7
 10
433.0185847623776
 20
61.44899390805635
 30
0.0
 40
3.000034136296845
 50
120.0007079740773
 51
299.9982999326285
  0
ENDBLK
  5
4D8
  8
0
  0
BLOCK
  8
0
  2
BLOCK_272
 70
     0
 10
0.0
 20
0.0
 30
0.0
  3
BLOCK_272
  1

  0
INSERT
  5
4E2
  8
LAYER_2
  2
BLOCK_273
 10
0.0
 20
0.0
 30
0.0
  0
ENDBLK
  5
4E4
  8
0
  0
BLOCK
  8
0
  2
BLOCK_273
 70
     0
 10
0.0
 20
0.0
 30
0.0
  3
BLOCK_273
  1

  0
LINE
  5
4DF
  8
LAYER_2
 62
     7
 10
431.5185355909051
 20
64.04708114718268
 30
0.0
 11
427.0185518680718
 21
71.8412651730119
 31
0.0
  0
ENDBLK
  5
4E1
  8
0
  0
BLOCK
  8
0
  2
BLOCK_270
 70
     0
 10
0.0
 20
0.0
 30
0.0
  3
BLOCK_270
  1

  0
INSERT
  5
4EB
  8
LAYER_2
  2
BLOCK_271
 10
0.0
 20
0.0
 30
0.0
  0
ENDBLK
  5
4ED
  8
0
  0
BLOCK
  8
0
  2
BLOCK_271
 70
     0
 10
0.0
 20
0.0
 30
0.0
  3
BLOCK_271
  1

  0
ARC
  5
4E8
  8
LAYER_2
 62
     7
 10
425.5186118909887
 20
74.43941545428791
 30
0.0
 40
3.000034136296873
 50
120.0007079740782
 51
299.9982999326296
  0
ENDBLK
  5
4EA
  8
0
  0
BLOCK
  8
0
  2
BLOCK_268
 70
     0
 10
0.0
 20
0.0
 30
0.0
  3
BLOCK_268
  1

  0
INSERT
  5
4F4
  8
LAYER_2
  2
BLOCK_269
 10
0.0
 20
0.0
 30
0.0
  0
ENDBLK
  5
4F6
  8
0
  0
BLOCK
  8
0
  2
BLOCK_269
 70
     0
 10
0.0
 20
0.0
 30
0.0
  3
BLOCK_269
  1

  0
LINE
  5
4F1
  8
LAYER_2
 62
     7
 10
424.0185627195162
 20
77.03750269341424
 30
0.0
 11
434.4685708549246
 21
83.07089841673228
 31
0.0
  0
ENDBLK
  5
4F3
  8
0
  0
BLOCK
  8
0
  2
BLOCK_266
 70
     0
 10
0.0
 20
0.0
 30
0.0
  3
BLOCK_266
  1

  0
INSERT
  5
4FD
  8
LAYER_2
  2
BLOCK_267
 10
0.0
 20
0.0
 30
0.0
  0
ENDBLK
  5
4FF
  8
0
  0
BLOCK
  8
0
  2
BLOCK_267
 70
     0
 10
0.0
 20
0.0
 30
0.0
  3
BLOCK_267
  1

  0
ARC
  5
4FA
  8
LAYER_2
 62
     7
 10
329.6755241539517
 20
10.4442018231493
 30
0.0
 40
127.4998811566844
 50
34.72384861118326
 51
85.27612732908213
  0
ENDBLK
  5
4FC
  8
0
  0
BLOCK
  8
0
  2
BLOCK_264
 70
     0
 10
0.0
 20
0.0
 30
0.0
  3
BLOCK_264
  1

  0
INSERT
  5
506
  8
LAYER_2
  2
BLOCK_265
 10
0.0
 20
0.0
 30
0.0
  0
ENDBLK
  5
508
  8
0
  0
BLOCK
  8
0
  2
BLOCK_265
 70
     0
 10
0.0
 20
0.0
 30
0.0
  3
BLOCK_265
  1

  0
LINE
  5
503
  8
LAYER_2
 62
     7
 10
340.1756184045394
 20
137.5109862937473
 30
0.0
 11
340.1756184045394
 21
125.4441948471112
 31
0.0
  0
ENDBLK
  5
505
  8
0
  0
BLOCK
  8
0
  2
BLOCK_262
 70
     0
 10
0.0
 20
0.0
 30
0.0
  3
BLOCK_262
  1

  0
INSERT
  5
50F
  8
LAYER_2
  2
BLOCK_263
 10
0.0
 20
0.0
 30
0.0
  0
ENDBLK
  5
511
  8
0
  0
BLOCK
  8
0
  2
BLOCK_263
 70
     0
 10
0.0
 20
0.0
 30
0.0
  3
BLOCK_263
  1

  0
ARC
  5
50C
  8
LAYER_2
 62
     7
 10
337.1756292559838
 20
125.4441948471112
 30
0.0
 40
2.999989148555528
 50
179.9999999999997
 51
0.0000000000002714
  0
ENDBLK
  5
50E
  8
0
  0
BLOCK
  8
0
  2
BLOCK_260
 70
     0
 10
0.0
 20
0.0
 30
0.0
  3
BLOCK_260
  1

  0
INSERT
  5
518
  8
LAYER_2
  2
BLOCK_261
 10
0.0
 20
0.0
 30
0.0
  0
ENDBLK
  5
51A
  8
0
  0
BLOCK
  8
0
  2
BLOCK_261
 70
     0
 10
0.0
 20
0.0
 30
0.0
  3
BLOCK_261
  1

  0
LINE
  5
515
  8
LAYER_2
 62
     7
 10
334.1756401074283
 20
125.4441948471112
 30
0.0
 11
325.1756726617617
 21
125.4441948471112
 31
0.0
  0
ENDBLK
  5
517
  8
0
  0
BLOCK
  8
0
  2
BLOCK_258
 70
     0
 10
0.0
 20
0.0
 30
0.0
  3
BLOCK_258
  1

  0
INSERT
  5
521
  8
LAYER_2
  2
BLOCK_259
 10
0.0
 20
0.0
 30
0.0
  0
ENDBLK
  5
523
  8
0
  0
BLOCK
  8
0
  2
BLOCK_259
 70
     0
 10
0.0
 20
0.0
 30
0.0
  3
BLOCK_259
  1

  0
ARC
  5
51E
  8
LAYER_2
 62
     7
 10
322.1756835132062
 20
125.4441948471111
 30
0.0
 40
2.999989148555585
 50
179.9999999999987
 51
0.000000000001357
  0
ENDBLK
  5
520
  8
0
  0
BLOCK
  8
0
  2
BLOCK_256
 70
     0
 10
0.0
 20
0.0
 30
0.0
  3
BLOCK_256
  1

  0
INSERT
  5
52A
  8
LAYER_2
  2
BLOCK_257
 10
0.0
 20
0.0
 30
0.0
  0
ENDBLK
  5
52C
  8
0
  0
BLOCK
  8
0
  2
BLOCK_257
 70
     0
 10
0.0
 20
0.0
 30
0.0
  3
BLOCK_257
  1

  0
LINE
  5
527
  8
LAYER_2
 62
     7
 10
319.1756943646506
 20
125.4441948471112
 30
0.0
 11
319.1756943646506
 21
137.5109862937473
 31
0.0
  0
ENDBLK
  5
529
  8
0
  0
BLOCK
  8
0
  2
BLOCK_254
 70
     0
 10
0.0
 20
0.0
 30
0.0
  3
BLOCK_254
  1

  0
INSERT
  5
533
  8
LAYER_2
  2
BLOCK_255
 10
0.0
 20
0.0
 30
0.0
  0
ENDBLK
  5
535
  8
0
  0
BLOCK
  8
0
  2
BLOCK_255
 70
     0
 10
0.0
 20
0.0
 30
0.0
  3
BLOCK_255
  1

  0
ARC
  5
530
  8
LAYER_2
 62
     7
 10
329.6761284021571
 20
10.44295013719406
 30
0.0
 40
127.5011565738097
 50
94.72397852185479
 51
145.2758642477297
  0
ENDBLK
  5
532
  8
0
  0
BLOCK
  8
0
  2
BLOCK_252
 70
     0
 10
0.0
 20
0.0
 30
0.0
  3
BLOCK_252
  1

  0
INSERT
  5
53C
  8
LAYER_2
  2
BLOCK_253
 10
0.0
 20
0.0
 30
0.0
  0
ENDBLK
  5
53E
  8
0
  0
BLOCK
  8
0
  2
BLOCK_253
 70
     0
 10
0.0
 20
0.0
 30
0.0
  3
BLOCK_253
  1

  0
LINE
  5
539
  8
LAYER_2
 62
     7
 10
224.8823974047169
 20
83.07089841673228
 30
0.0
 11
235.3327500496738
 21
77.03750269341424
 31
0.0
  0
ENDBLK
  5
53B
  8
0
  0
BLOCK
  8
0
  2
BLOCK_250
 70
     0
 10
0.0
 20
0.0
 30
0.0
  3
BLOCK_250
  1

  0
INSERT
  5
545
  8
LAYER_2
  2
BLOCK_251
 10
0.0
 20
0.0
 30
0.0
  0
ENDBLK
  5
547
  8
0
  0
BLOCK
  8
0
  2
BLOCK_251
 70
     0
 10
0.0
 20
0.0
 30
0.0
  3
BLOCK_251
  1

  0
CIRCLE
  5
542
  8
LAYER_2
 62
     7
 10
329.675656384595
 20
10.44380696294147
 30
0.0
 40
100.0000976318434
  0
ENDBLK
  5
544
  8
0
  0
BLOCK
  8
0
  2
BLOCK_248
 70
     0
 10
0.0
 20
0.0
 30
0.0
  3
BLOCK_248
  1

  0
INSERT
  5
54E
  8
LAYER_2
  2
BLOCK_249
 10
0.0
 20
0.0
 30
0.0
  0
ENDBLK
  5
550
  8
0
  0
BLOCK
  8
0
  2
BLOCK_249
 70
     0
 10
0.0
 20
0.0
 30
0.0
  3
BLOCK_249
  1

  0
ARC
  5
54B
  8
LAYER_2
 62
     7
 10
231.501776571313
 20
382.1273370360664
 30
0.0
 40
2.999959547231158
 50
240.0002756258986
 51
59.99907155795448
  0
ENDBLK
  5
54D
  8
0
  0
BLOCK
  8
0
  2
BLOCK_246
 70
     0
 10
0.0
 20
0.0
 30
0.0
  3
BLOCK_246
  1

  0
INSERT
  5
557
  8
LAYER_2
  2
BLOCK_247
 10
0.0
 20
0.0
 30
0.0
  0
ENDBLK
  5
559
  8
0
  0
BLOCK
  8
0
  2
BLOCK_247
 70
     0
 10
0.0
 20
0.0
 30
0.0
  3
BLOCK_247
  1

  0
LINE
  5
554
  8
LAYER_2
 62
     7
 10
230.0018092957982
 20
379.5292886420968
 30
0.0
 11
225.5018255729648
 21
371.7349323614933
 31
0.0
  0
ENDBLK
  5
556
  8
0
  0
BLOCK
  8
0
  2
BLOCK_244
 70
     0
 10
0.0
 20
0.0
 30
0.0
  3
BLOCK_244
  1

  0
INSERT
  5
560
  8
LAYER_2
  2
BLOCK_245
 10
0.0
 20
0.0
 30
0.0
  0
ENDBLK
  5
562
  8
0
  0
BLOCK
  8
0
  2
BLOCK_245
 70
     0
 10
0.0
 20
0.0
 30
0.0
  3
BLOCK_245
  1

  0
ARC
  5
55D
  8
LAYER_2
 62
     7
 10
224.0018036999241
 20
369.1369154898348
 30
0.0
 40
2.999959547231025
 50
240.0002756258964
 51
59.99907155795479
  0
ENDBLK
  5
55F
  8
0
  0
BLOCK
  8
0
  2
BLOCK_242
 70
     0
 10
0.0
 20
0.0
 30
0.0
  3
BLOCK_242
  1

  0
INSERT
  5
569
  8
LAYER_2
  2
BLOCK_243
 10
0.0
 20
0.0
 30
0.0
  0
ENDBLK
  5
56B
  8
0
  0
BLOCK
  8
0
  2
BLOCK_243
 70
     0
 10
0.0
 20
0.0
 30
0.0
  3
BLOCK_243
  1

  0
LINE
  5
566
  8
LAYER_2
 62
     7
 10
222.5018364244093
 20
366.5388670958653
 30
0.0
 11
212.0514837794524
 21
372.5722628191833
 31
0.0
  0
ENDBLK
  5
568
  8
0
  0
BLOCK
  8
0
  2
BLOCK_240
 70
     0
 10
0.0
 20
0.0
 30
0.0
  3
BLOCK_240
  1

  0
INSERT
  5
572
  8
LAYER_2
  2
BLOCK_241
 10
0.0
 20
0.0
 30
0.0
  0
ENDBLK
  5
574
  8
0
  0
BLOCK
  8
0
  2
BLOCK_241
 70
     0
 10
0.0
 20
0.0
 30
0.0
  3
BLOCK_241
  1

  0
ARC
  5
56F
  8
LAYER_2
 62
     7
 10
327.3454070241511
 20
318.1320888147812
 30
0.0
 40
127.5006716954231
 50
154.7239757456299
 51
205.2760242543701
  0
ENDBLK
  5
571
  8
0
  0
BLOCK
  8
0
  2
BLOCK_238
 70
     0
 10
0.0
 20
0.0
 30
0.0
  3
BLOCK_238
  1

  0
INSERT
  5
57B
  8
LAYER_2
  2
BLOCK_239
 10
0.0
 20
0.0
 30
0.0
  0
ENDBLK
  5
57D
  8
0
  0
BLOCK
  8
0
  2
BLOCK_239
 70
     0
 10
0.0
 20
0.0
 30
0.0
  3
BLOCK_239
  1

  0
LINE
  5
578
  8
LAYER_2
 62
     7
 10
212.0514837794524
 20
263.6919148103791
 30
0.0
 11
222.5018364244093
 21
269.7253105336972
 31
0.0
  0
ENDBLK
  5
57A
  8
0
  0
BLOCK
  8
0
  2
BLOCK_236
 70
     0
 10
0.0
 20
0.0
 30
0.0
  3
BLOCK_236
  1

  0
INSERT
  5
584
  8
LAYER_2
  2
BLOCK_237
 10
0.0
 20
0.0
 30
0.0
  0
ENDBLK
  5
586
  8
0
  0
BLOCK
  8
0
  2
BLOCK_237
 70
     0
 10
0.0
 20
0.0
 30
0.0
  3
BLOCK_237
  1

  0
ARC
  5
581
  8
LAYER_2
 62
     7
 10
224.0017291072191
 20
267.1272190730427
 30
0.0
 40
2.999959549372657
 50
300.0025734741834
 51
119.9980793419642
  0
ENDBLK
  5
583
  8
0
  0
BLOCK
  8
0
  2
BLOCK_234
 70
     0
 10
0.0
 20
0.0
 30
0.0
  3
BLOCK_234
  1

  0
INSERT
  5
58D
  8
LAYER_2
  2
BLOCK_235
 10
0.0
 20
0.0
 30
0.0
  0
ENDBLK
  5
58F
  8
0
  0
BLOCK
  8
0
  2
BLOCK_235
 70
     0
 10
0.0
 20
0.0
 30
0.0
  3
BLOCK_235
  1

  0
LINE
  5
58A
  8
LAYER_2
 62
     7
 10
225.5018255729648
 20
264.5292452680691
 30
0.0
 11
230.0018092957982
 21
256.7348889874656
 31
0.0
  0
ENDBLK
  5
58C
  8
0
  0
BLOCK
  8
0
  2
BLOCK_232
 70
     0
 10
0.0
 20
0.0
 30
0.0
  3
BLOCK_232
  1

  0
INSERT
  5
596
  8
LAYER_2
  2
BLOCK_233
 10
0.0
 20
0.0
 30
0.0
  0
ENDBLK
  5
598
  8
0
  0
BLOCK
  8
0
  2
BLOCK_233
 70
     0
 10
0.0
 20
0.0
 30
0.0
  3
BLOCK_233
  1

  0
ARC
  5
593
  8
LAYER_2
 62
     7
 10
231.5017765713131
 20
254.1368405934961
 30
0.0
 40
2.99995954723108
 50
300.0009284420442
 51
119.9997243741039
  0
ENDBLK
  5
595
  8
0
  0
BLOCK
  8
0
  2
BLOCK_230
 70
     0
 10
0.0
 20
0.0
 30
0.0
  3
BLOCK_230
  1

  0
INSERT
  5
59F
  8
LAYER_2
  2
BLOCK_231
 10
0.0
 20
0.0
 30
0.0
  0
ENDBLK
  5
5A1
  8
0
  0
BLOCK
  8
0
  2
BLOCK_231
 70
     0
 10
0.0
 20
0.0
 30
0.0
  3
BLOCK_231
  1

  0
LINE
  5
59C
  8
LAYER_2
 62
     7
 10
233.0017984443537
 20
251.5388237218375
 30
0.0
 11
222.5514457993969
 21
245.5054279985195
 31
0.0
  0
ENDBLK
  5
59E
  8
0
  0
BLOCK
  8
0
  2
BLOCK_228
 70
     0
 10
0.0
 20
0.0
 30
0.0
  3
BLOCK_228
  1

  0
INSERT
  5
5A8
  8
LAYER_2
  2
BLOCK_229
 10
0.0
 20
0.0
 30
0.0
  0
ENDBLK
  5
5AA
  8
0
  0
BLOCK
  8
0
  2
BLOCK_229
 70
     0
 10
0.0
 20
0.0
 30
0.0
  3
BLOCK_229
  1

  0
ARC
  5
5A5
  8
LAYER_2
 62
     7
 10
327.3448253145176
 20
318.1323654357633
 30
0.0
 40
127.5002918887382
 50
214.7238523737953
 51
265.2761478548016
  0
ENDBLK
  5
5A7
  8
0
  0
BLOCK
  8
0
  2
BLOCK_226
 70
     0
 10
0.0
 20
0.0
 30
0.0
  3
BLOCK_226
  1

  0
INSERT
  5
5B1
  8
LAYER_2
  2
BLOCK_227
 10
0.0
 20
0.0
 30
0.0
  0
ENDBLK
  5
5B3
  8
0
  0
BLOCK
  8
0
  2
BLOCK_227
 70
     0
 10
0.0
 20
0.0
 30
0.0
  3
BLOCK_227
  1

  0
LINE
  5
5AE
  8
LAYER_2
 62
     7
 10
316.8447427593305
 20
191.0651678667302
 30
0.0
 11
316.8447427593305
 21
203.1321315681406
 31
0.0
  0
ENDBLK
  5
5B0
  8
0
  0
BLOCK
  8
0
  2
BLOCK_224
 70
     0
 10
0.0
 20
0.0
 30
0.0
  3
BLOCK_224
  1

  0
INSERT
  5
5BA
  8
LAYER_2
  2
BLOCK_225
 10
0.0
 20
0.0
 30
0.0
  0
ENDBLK
  5
5BC
  8
0
  0
BLOCK
  8
0
  2
BLOCK_225
 70
     0
 10
0.0
 20
0.0
 30
0.0
  3
BLOCK_225
  1

  0
ARC
  5
5B7
  8
LAYER_2
 62
     7
 10
319.8447319078861
 20
203.1321315681406
 30
0.0
 40
2.999989148555528
 50
0.0000000000010856
 51
179.9999999999989
  0
ENDBLK
  5
5B9
  8
0
  0
BLOCK
  8
0
  2
BLOCK_222
 70
     0
 10
0.0
 20
0.0
 30
0.0
  3
BLOCK_222
  1

  0
INSERT
  5
5C3
  8
LAYER_2
  2
BLOCK_223
 10
0.0
 20
0.0
 30
0.0
  0
ENDBLK
  5
5C5
  8
0
  0
BLOCK
  8
0
  2
BLOCK_223
 70
     0
 10
0.0
 20
0.0
 30
0.0
  3
BLOCK_223
  1

  0
LINE
  5
5C0
  8
LAYER_2
 62
     7
 10
322.8447210564416
 20
203.1321315681406
 30
0.0
 11
331.8446885021083
 21
203.1321315681406
 31
0.0
  0
ENDBLK
  5
5C2
  8
0
  0
BLOCK
  8
0
  2
BLOCK_220
 70
     0
 10
0.0
 20
0.0
 30
0.0
  3
BLOCK_220
  1

  0
INSERT
  5
5CC
  8
LAYER_2
  2
BLOCK_221
 10
0.0
 20
0.0
 30
0.0
  0
ENDBLK
  5
5CE
  8
0
  0
BLOCK
  8
0
  2
BLOCK_221
 70
     0
 10
0.0
 20
0.0
 30
0.0
  3
BLOCK_221
  1

  0
ARC
  5
5C9
  8
LAYER_2
 62
     7
 10
334.8446776506638
 20
203.1321315681406
 30
0.0
 40
2.999989148555585
 50
0.0000000000010856
 51
179.9999999999989
  0
ENDBLK
  5
5CB
  8
0
  0
BLOCK
  8
0
  2
BLOCK_218
 70
     0
 10
0.0
 20
0.0
 30
0.0
  3
BLOCK_218
  1

  0
INSERT
  5
5D5
  8
LAYER_2
  2
BLOCK_219
 10
0.0
 20
0.0
 30
0.0
  0
ENDBLK
  5
5D7
  8
0
  0
BLOCK
  8
0
  2
BLOCK_219
 70
     0
 10
0.0
 20
0.0
 30
0.0
  3
BLOCK_219
  1

  0
LINE
  5
5D2
  8
LAYER_2
 62
     7
 10
337.8446667992194
 20
203.1321315681406
 30
0.0
 11
337.8446667992194
 21
191.0651678667302
 31
0.0
  0
ENDBLK
  5
5D4
  8
0
  0
BLOCK
  8
0
  2
BLOCK_216
 70
     0
 10
0.0
 20
0.0
 30
0.0
  3
BLOCK_216
  1

  0
INSERT
  5
5DE
  8
LAYER_2
  2
BLOCK_217
 10
0.0
 20
0.0
 30
0.0
  0
ENDBLK
  5
5E0
  8
0
  0
BLOCK
  8
0
  2
BLOCK_217
 70
     0
 10
0.0
 20
0.0
 30
0.0
  3
BLOCK_217
  1

  0
ARC
  5
5DB
  8
LAYER_2
 62
     7
 10
327.344924025146
 20
318.1311137660478
 30
0.0
 40
127.499016488795
 50
274.7237462942782
 51
325.2764347675616
  0
ENDBLK
  5
5DD
  8
0
  0
BLOCK
  8
0
  2
BLOCK_214
 70
     0
 10
0.0
 20
0.0
 30
0.0
  3
BLOCK_214
  1

  0
INSERT
  5
5E7
  8
LAYER_2
  2
BLOCK_215
 10
0.0
 20
0.0
 30
0.0
  0
ENDBLK
  5
5E9
  8
0
  0
BLOCK
  8
0
  2
BLOCK_215
 70
     0
 10
0.0
 20
0.0
 30
0.0
  3
BLOCK_215
  1

  0
LINE
  5
5E4
  8
LAYER_2
 62
     7
 10
432.1376192496045
 20
245.5054279985195
 30
0.0
 11
421.6876111141962
 21
251.5388237218375
 31
0.0
  0
ENDBLK
  5
5E6
  8
0
  0
BLOCK
  8
0
  2
BLOCK_212
 70
     0
 10
0.0
 20
0.0
 30
0.0
  3
BLOCK_212
  1

  0
INSERT
  5
5F0
  8
LAYER_2
  2
BLOCK_213
 10
0.0
 20
0.0
 30
0.0
  0
ENDBLK
  5
5F2
  8
0
  0
BLOCK
  8
0
  2
BLOCK_213
 70
     0
 10
0.0
 20
0.0
 30
0.0
  3
BLOCK_213
  1

  0
ARC
  5
5ED
  8
LAYER_2
 62
     7
 10
423.1873746184751
 20
254.1369897647328
 30
0.0
 40
2.999959558930914
 50
59.99457768377432
 51
240.004769500078
  0
ENDBLK
  5
5EF
  8
0
  0
BLOCK
  8
0
  2
BLOCK_210
 70
     0
 10
0.0
 20
0.0
 30
0.0
  3
BLOCK_210
  1

  0
INSERT
  5
5F9
  8
LAYER_2
  2
BLOCK_211
 10
0.0
 20
0.0
 30
0.0
  0
ENDBLK
  5
5FB
  8
0
  0
BLOCK
  8
0
  2
BLOCK_211
 70
     0
 10
0.0
 20
0.0
 30
0.0
  3
BLOCK_211
  1

  0
LINE
  5
5F6
  8
LAYER_2
 62
     7
 10
424.6876002627517
 20
256.7348889874656
 30
0.0
 11
429.1875839855851
 21
264.5292452680691
 31
0.0
  0
ENDBLK
  5
5F8
  8
0
  0
BLOCK
  8
0
  2
BLOCK_208
 70
     0
 10
0.0
 20
0.0
 30
0.0
  3
BLOCK_208
  1

  0
INSERT
  5
602
  8
LAYER_2
  2
BLOCK_209
 10
0.0
 20
0.0
 30
0.0
  0
ENDBLK
  5
604
  8
0
  0
BLOCK
  8
0
  2
BLOCK_209
 70
     0
 10
0.0
 20
0.0
 30
0.0
  3
BLOCK_209
  1

  0
ARC
  5
5FF
  8
LAYER_2
 62
     7
 10
430.6876804513308
 20
267.1272190730427
 30
0.0
 40
2.99995954937263
 50
60.0019206580353
 51
239.9974265258161
  0
ENDBLK
  5
601
  8
0
  0
BLOCK
  8
0
  2
BLOCK_206
 70
     0
 10
0.0
 20
0.0
 30
0.0
  3
BLOCK_206
  1

  0
INSERT
  5
60B
  8
LAYER_2
  2
BLOCK_207
 10
0.0
 20
0.0
 30
0.0
  0
ENDBLK
  5
60D
  8
0
  0
BLOCK
  8
0
  2
BLOCK_207
 70
     0
 10
0.0
 20
0.0
 30
0.0
  3
BLOCK_207
  1

  0
LINE
  5
608
  8
LAYER_2
 62
     7
 10
432.1875731341406
 20
269.7253105336972
 30
0.0
 11
442.6379257790975
 21
263.6919148103791
 31
0.0
  0
ENDBLK
  5
60A
  8
0
  0
BLOCK
  8
0
  2
BLOCK_204
 70
     0
 10
0.0
 20
0.0
 30
0.0
  3
BLOCK_204
  1

  0
INSERT
  5
614
  8
LAYER_2
  2
BLOCK_205
 10
0.0
 20
0.0
 30
0.0
  0
ENDBLK
  5
616
  8
0
  0
BLOCK
  8
0
  2
BLOCK_205
 70
     0
 10
0.0
 20
0.0
 30
0.0
  3
BLOCK_205
  1

  0
ARC
  5
611
  8
LAYER_2
 62
     7
 10
327.3440025343987
 20
318.1320888147812
 30
0.0
 40
127.5006716954231
 50
334.7239757456299
 51
25.27602425437011
  0
ENDBLK
  5
613
  8
0
  0
BLOCK
  8
0
  2
BLOCK_202
 70
     0
 10
0.0
 20
0.0
 30
0.0
  3
BLOCK_202
  1

  0
INSERT
  5
61D
  8
LAYER_2
  2
BLOCK_203
 10
0.0
 20
0.0
 30
0.0
  0
ENDBLK
  5
61F
  8
0
  0
BLOCK
  8
0
  2
BLOCK_203
 70
     0
 10
0.0
 20
0.0
 30
0.0
  3
BLOCK_203
  1

  0
LINE
  5
61A
  8
LAYER_2
 62
     7
 10
442.6379257790975
 20
372.5722628191833
 30
0.0
 11
432.1875731341406
 21
366.5388670958653
 31
0.0
  0
ENDBLK
  5
61C
  8
0
  0
BLOCK
  8
0
  2
BLOCK_200
 70
     0
 10
0.0
 20
0.0
 30
0.0
  3
BLOCK_200
  1

  0
INSERT
  5
626
  8
LAYER_2
  2
BLOCK_201
 10
0.0
 20
0.0
 30
0.0
  0
ENDBLK
  5
628
  8
0
  0
BLOCK
  8
0
  2
BLOCK_201
 70
     0
 10
0.0
 20
0.0
 30
0.0
  3
BLOCK_201
  1

  0
ARC
  5
623
  8
LAYER_2
 62
     7
 10
430.6876058586258
 20
369.1369154898348
 30
0.0
 40
2.999959547231045
 50
120.0009284420452
 51
299.9997243741045
  0
ENDBLK
  5
625
  8
0
  0
BLOCK
  8
0
  2
BLOCK_198
 70
     0
 10
0.0
 20
0.0
 30
0.0
  3
BLOCK_198
  1

  0
INSERT
  5
62F
  8
LAYER_2
  2
BLOCK_199
 10
0.0
 20
0.0
 30
0.0
  0
ENDBLK
  5
631
  8
0
  0
BLOCK
  8
0
  2
BLOCK_199
 70
     0
 10
0.0
 20
0.0
 30
0.0
  3
BLOCK_199
  1

  0
LINE
  5
62C
  8
LAYER_2
 62
     7
 10
429.1875839855851
 20
371.7349323614933
 30
0.0
 11
424.6876002627517
 21
379.5292886420968
 31
0.0
  0
ENDBLK
  5
62E
  8
0
  0
BLOCK
  8
0
  2
BLOCK_196
 70
     0
 10
0.0
 20
0.0
 30
0.0
  3
BLOCK_196
  1

  0
INSERT
  5
638
  8
LAYER_2
  2
BLOCK_197
 10
0.0
 20
0.0
 30
0.0
  0
ENDBLK
  5
63A
  8
0
  0
BLOCK
  8
0
  2
BLOCK_197
 70
     0
 10
0.0
 20
0.0
 30
0.0
  3
BLOCK_197
  1

  0
ARC
  5
635
  8
LAYER_2
 62
     7
 10
423.1873746184751
 20
382.1271878648297
 30
0.0
 40
2.999959558930892
 50
119.9952304999232
 51
300.0054223162245
  0
ENDBLK
  5
637
  8
0
  0
BLOCK
  8
0
  2
BLOCK_194
 70
     0
 10
0.0
 20
0.0
 30
0.0
  3
BLOCK_194
  1

  0
INSERT
  5
641
  8
LAYER_2
  2
BLOCK_195
 10
0.0
 20
0.0
 30
0.0
  0
ENDBLK
  5
643
  8
0
  0
BLOCK
  8
0
  2
BLOCK_195
 70
     0
 10
0.0
 20
0.0
 30
0.0
  3
BLOCK_195
  1

  0
LINE
  5
63E
  8
LAYER_2
 62
     7
 10
421.6876111141962
 20
384.7253539077249
 30
0.0
 11
432.1376192496045
 21
390.758749631043
 31
0.0
  0
ENDBLK
  5
640
  8
0
  0
BLOCK
  8
0
  2
BLOCK_192
 70
     0
 10
0.0
 20
0.0
 30
0.0
  3
BLOCK_192
  1

  0
INSERT
  5
64A
  8
LAYER_2
  2
BLOCK_193
 10
0.0
 20
0.0
 30
0.0
  0
ENDBLK
  5
64C
  8
0
  0
BLOCK
  8
0
  2
BLOCK_193
 70
     0
 10
0.0
 20
0.0
 30
0.0
  3
BLOCK_193
  1

  0
ARC
  5
647
  8
LAYER_2
 62
     7
 10
327.3449240251464
 20
318.1330638635152
 30
0.0
 40
127.4990164887943
 50
34.72356523243824
 51
85.27625370572193
  0
ENDBLK
  5
649
  8
0
  0
BLOCK
  8
0
  2
BLOCK_190
 70
     0
 10
0.0
 20
0.0
 30
0.0
  3
BLOCK_190
  1

  0
INSERT
  5
653
  8
LAYER_2
  2
BLOCK_191
 10
0.0
 20
0.0
 30
0.0
  0
ENDBLK
  5
655
  8
0
  0
BLOCK
  8
0
  2
BLOCK_191
 70
     0
 10
0.0
 20
0.0
 30
0.0
  3
BLOCK_191
  1

  0
LINE
  5
650
  8
LAYER_2
 62
     7
 10
337.8446667992194
 20
445.1990097628322
 30
0.0
 11
337.8446667992194
 21
433.1320460614219
 31
0.0
  0
ENDBLK
  5
652
  8
0
  0
BLOCK
  8
0
  2
BLOCK_188
 70
     0
 10
0.0
 20
0.0
 30
0.0
  3
BLOCK_188
  1

  0
INSERT
  5
65C
  8
LAYER_2
  2
BLOCK_189
 10
0.0
 20
0.0
 30
0.0
  0
ENDBLK
  5
65E
  8
0
  0
BLOCK
  8
0
  2
BLOCK_189
 70
     0
 10
0.0
 20
0.0
 30
0.0
  3
BLOCK_189
  1

  0
ARC
  5
659
  8
LAYER_2
 62
     7
 10
334.8446776506638
 20
433.1320460614219
 30
0.0
 40
2.999989148555528
 50
180.0
 51
0.0
  0
ENDBLK
  5
65B
  8
0
  0
BLOCK
  8
0
  2
BLOCK_186
 70
     0
 10
0.0
 20
0.0
 30
0.0
  3
BLOCK_186
  1

  0
INSERT
  5
665
  8
LAYER_2
  2
BLOCK_187
 10
0.0
 20
0.0
 30
0.0
  0
ENDBLK
  5
667
  8
0
  0
BLOCK
  8
0
  2
BLOCK_187
 70
     0
 10
0.0
 20
0.0
 30
0.0
  3
BLOCK_187
  1

  0
LINE
  5
662
  8
LAYER_2
 62
     7
 10
331.8446885021083
 20
433.1320460614219
 30
0.0
 11
322.8447210564416
 21
433.1320460614219
 31
0.0
  0
ENDBLK
  5
664
  8
0
  0
BLOCK
  8
0
  2
BLOCK_184
 70
     0
 10
0.0
 20
0.0
 30
0.0
  3
BLOCK_184
  1

  0
INSERT
  5
66E
  8
LAYER_2
  2
BLOCK_185
 10
0.0
 20
0.0
 30
0.0
  0
ENDBLK
  5
670
  8
0
  0
BLOCK
  8
0
  2
BLOCK_185
 70
     0
 10
0.0
 20
0.0
 30
0.0
  3
BLOCK_185
  1

  0
ARC
  5
66B
  8
LAYER_2
 62
     7
 10
319.8447319078861
 20
433.1320460614218
 30
0.0
 40
2.999989148555642
 50
179.9999999999989
 51
0.0000000000010856
  0
ENDBLK
  5
66D
  8
0
  0
BLOCK
  8
0
  2
BLOCK_182
 70
     0
 10
0.0
 20
0.0
 30
0.0
  3
BLOCK_182
  1

  0
INSERT
  5
677
  8
LAYER_2
  2
BLOCK_183
 10
0.0
 20
0.0
 30
0.0
  0
ENDBLK
  5
679
  8
0
  0
BLOCK
  8
0
  2
BLOCK_183
 70
     0
 10
0.0
 20
0.0
 30
0.0
  3
BLOCK_183
  1

  0
LINE
  5
674
  8
LAYER_2
 62
     7
 10
316.8447427593305
 20
433.1320460614219
 30
0.0
 11
316.8447427593305
 21
445.1990097628322
 31
0.0
  0
ENDBLK
  5
676
  8
0
  0
BLOCK
  8
0
  2
BLOCK_180
 70
     0
 10
0.0
 20
0.0
 30
0.0
  3
BLOCK_180
  1

  0
INSERT
  5
680
  8
LAYER_2
  2
BLOCK_181
 10
0.0
 20
0.0
 30
0.0
  0
ENDBLK
  5
682
  8
0
  0
BLOCK
  8
0
  2
BLOCK_181
 70
     0
 10
0.0
 20
0.0
 30
0.0
  3
BLOCK_181
  1

  0
ARC
  5
67D
  8
LAYER_2
 62
     7
 10
327.3448253145174
 20
318.1318121937994
 30
0.0
 40
127.5002918887379
 50
94.72385214519826
 51
145.2761476262048
  0
ENDBLK
  5
67F
  8
0
  0
BLOCK
  8
0
  2
BLOCK_178
 70
     0
 10
0.0
 20
0.0
 30
0.0
  3
BLOCK_178
  1

  0
INSERT
  5
689
  8
LAYER_2
  2
BLOCK_179
 10
0.0
 20
0.0
 30
0.0
  0
ENDBLK
  5
68B
  8
0
  0
BLOCK
  8
0
  2
BLOCK_179
 70
     0
 10
0.0
 20
0.0
 30
0.0
  3
BLOCK_179
  1

  0
LINE
  5
686
  8
LAYER_2
 62
     7
 10
222.5514457993969
 20
390.758749631043
 30
0.0
 11
233.0017984443537
 21
384.7253539077249
 31
0.0
  0
ENDBLK
  5
688
  8
0
  0
BLOCK
  8
0
  2
BLOCK_176
 70
     0
 10
0.0
 20
0.0
 30
0.0
  3
BLOCK_176
  1

  0
INSERT
  5
692
  8
LAYER_2
  2
BLOCK_177
 10
0.0
 20
0.0
 30
0.0
  0
ENDBLK
  5
694
  8
0
  0
BLOCK
  8
0
  2
BLOCK_177
 70
     0
 10
0.0
 20
0.0
 30
0.0
  3
BLOCK_177
  1

  0
CIRCLE
  5
68F
  8
LAYER_2
 62
     7
 10
327.3445325245007
 20
318.1321749421684
 30
0.0
 40
99.999925376624
  0
ENDBLK
  5
691
  8
0
  0
BLOCK
  8
0
  2
BLOCK_174
 70
     0
 10
0.0
 20
0.0
 30
0.0
  3
BLOCK_174
  1

  0
INSERT
  5
69B
  8
LAYER_2
  2
BLOCK_175
 10
0.0
 20
0.0
 30
0.0
  0
ENDBLK
  5
69D
  8
0
  0
BLOCK
  8
0
  2
BLOCK_175
 70
     0
 10
0.0
 20
0.0
 30
0.0
  3
BLOCK_175
  1

  0
ARC
  5
698
  8
LAYER_2
 62
     7
 10
235.6516366970941
 20
681.4845755579478
 30
0.0
 40
3.000034139343557
 50
240.0033451467267
 51
59.99764694656434
  0
ENDBLK
  5
69A
  8
0
  0
BLOCK
  8
0
  2
BLOCK_172
 70
     0
 10
0.0
 20
0.0
 30
0.0
  3
BLOCK_172
  1

  0
INSERT
  5
6A4
  8
LAYER_2
  2
BLOCK_173
 10
0.0
 20
0.0
 30
0.0
  0
ENDBLK
  5
6A6
  8
0
  0
BLOCK
  8
0
  2
BLOCK_173
 70
     0
 10
0.0
 20
0.0
 30
0.0
  3
BLOCK_173
  1

  0
LINE
  5
6A1
  8
LAYER_2
 62
     7
 10
234.1517713173301
 20
678.8863822087507
 30
0.0
 11
229.6517875944968
 21
671.0921981829214
 31
0.0
  0
ENDBLK
  5
6A3
  8
0
  0
BLOCK
  8
0
  2
BLOCK_170
 70
     0
 10
0.0
 20
0.0
 30
0.0
  3
BLOCK_170
  1

  0
INSERT
  5
6AD
  8
LAYER_2
  2
BLOCK_171
 10
0.0
 20
0.0
 30
0.0
  0
ENDBLK
  5
6AF
  8
0
  0
BLOCK
  8
0
  2
BLOCK_171
 70
     0
 10
0.0
 20
0.0
 30
0.0
  3
BLOCK_171
  1

  0
ARC
  5
6AA
  8
LAYER_2
 62
     7
 10
228.1516638257053
 20
668.4941540117162
 30
0.0
 40
3.000034139343571
 50
240.0033451467262
 51
59.99764694656528
  0
ENDBLK
  5
6AC
  8
0
  0
BLOCK
  8
0
  2
BLOCK_168
 70
     0
 10
0.0
 20
0.0
 30
0.0
  3
BLOCK_168
  1

  0
INSERT
  5
6B6
  8
LAYER_2
  2
BLOCK_169
 10
0.0
 20
0.0
 30
0.0
  0
ENDBLK
  5
6B8
  8
0
  0
BLOCK
  8
0
  2
BLOCK_169
 70
     0
 10
0.0
 20
0.0
 30
0.0
  3
BLOCK_169
  1

  0
LINE
  5
6B3
  8
LAYER_2
 62
     7
 10
226.6517984459412
 20
665.8959606625191
 30
0.0
 11
216.2014458009844
 21
671.9293563858371
 31
0.0
  0
ENDBLK
  5
6B5
  8
0
  0
BLOCK
  8
0
  2
BLOCK_166
 70
     0
 10
0.0
 20
0.0
 30
0.0
  3
BLOCK_166
  1

  0
INSERT
  5
6BF
  8
LAYER_2
  2
BLOCK_167
 10
0.0
 20
0.0
 30
0.0
  0
ENDBLK
  5
6C1
  8
0
  0
BLOCK
  8
0
  2
BLOCK_167
 70
     0
 10
0.0
 20
0.0
 30
0.0
  3
BLOCK_167
  1

  0
ARC
  5
6BC
  8
LAYER_2
 62
     7
 10
331.4953690455121
 20
617.4891823814351
 30
0.0
 40
127.5006716952684
 50
154.7239757455971
 51
205.276024254403
  0
ENDBLK
  5
6BE
  8
0
  0
BLOCK
  8
0
  2
BLOCK_164
 70
     0
 10
0.0
 20
0.0
 30
0.0
  3
BLOCK_164
  1

  0
INSERT
  5
6C8
  8
LAYER_2
  2
BLOCK_165
 10
0.0
 20
0.0
 30
0.0
  0
ENDBLK
  5
6CA
  8
0
  0
BLOCK
  8
0
  2
BLOCK_165
 70
     0
 10
0.0
 20
0.0
 30
0.0
  3
BLOCK_165
  1

  0
LINE
  5
6C5
  8
LAYER_2
 62
     7
 10
216.2014458009844
 20
563.0490083770329
 30
0.0
 11
226.6517984459412
 21
569.0825763551252
 31
0.0
  0
ENDBLK
  5
6C7
  8
0
  0
BLOCK
  8
0
  2
BLOCK_162
 70
     0
 10
0.0
 20
0.0
 30
0.0
  3
BLOCK_162
  1

  0
INSERT
  5
6D1
  8
LAYER_2
  2
BLOCK_163
 10
0.0
 20
0.0
 30
0.0
  0
ENDBLK
  5
6D3
  8
0
  0
BLOCK
  8
0
  2
BLOCK_163
 70
     0
 10
0.0
 20
0.0
 30
0.0
  3
BLOCK_163
  1

  0
ARC
  5
6CE
  8
LAYER_2
 62
     7
 10
228.1516638257052
 20
566.4843830059281
 30
0.0
 40
3.00003413934351
 50
300.0023530534347
 51
119.9966548532729
  0
ENDBLK
  5
6D0
  8
0
  0
BLOCK
  8
0
  2
BLOCK_160
 70
     0
 10
0.0
 20
0.0
 30
0.0
  3
BLOCK_160
  1

  0
INSERT
  5
6DA
  8
LAYER_2
  2
BLOCK_161
 10
0.0
 20
0.0
 30
0.0
  0
ENDBLK
  5
6DC
  8
0
  0
BLOCK
  8
0
  2
BLOCK_161
 70
     0
 10
0.0
 20
0.0
 30
0.0
  3
BLOCK_161
  1

  0
LINE
  5
6D7
  8
LAYER_2
 62
     7
 10
229.6517875944968
 20
563.8863388347229
 30
0.0
 11
234.1517713173301
 21
556.0921548088936
 31
0.0
  0
ENDBLK
  5
6D9
  8
0
  0
BLOCK
  8
0
  2
BLOCK_158
 70
     0
 10
0.0
 20
0.0
 30
0.0
  3
BLOCK_158
  1

  0
INSERT
  5
6E3
  8
LAYER_2
  2
BLOCK_159
 10
0.0
 20
0.0
 30
0.0
  0
ENDBLK
  5
6E5
  8
0
  0
BLOCK
  8
0
  2
BLOCK_159
 70
     0
 10
0.0
 20
0.0
 30
0.0
  3
BLOCK_159
  1

  0
ARC
  5
6E0
  8
LAYER_2
 62
     7
 10
235.6516366970942
 20
553.4939614596965
 30
0.0
 40
3.000034139343496
 50
300.0023530534343
 51
119.9966548532744
  0
ENDBLK
  5
6E2
  8
0
  0
BLOCK
  8
0
  2
BLOCK_156
 70
     0
 10
0.0
 20
0.0
 30
0.0
  3
BLOCK_156
  1

  0
INSERT
  5
6EC
  8
LAYER_2
  2
BLOCK_157
 10
0.0
 20
0.0
 30
0.0
  0
ENDBLK
  5
6EE
  8
0
  0
BLOCK
  8
0
  2
BLOCK_157
 70
     0
 10
0.0
 20
0.0
 30
0.0
  3
BLOCK_157
  1

  0
LINE
  5
6E9
  8
LAYER_2
 62
     7
 10
237.1517604658857
 20
550.8959172884913
 30
0.0
 11
226.7014078209288
 21
544.8625215651733
 31
0.0
  0
ENDBLK
  5
6EB
  8
0
  0
BLOCK
  8
0
  2
BLOCK_154
 70
     0
 10
0.0
 20
0.0
 30
0.0
  3
BLOCK_154
  1

  0
INSERT
  5
6F5
  8
LAYER_2
  2
BLOCK_155
 10
0.0
 20
0.0
 30
0.0
  0
ENDBLK
  5
6F7
  8
0
  0
BLOCK
  8
0
  2
BLOCK_155
 70
     0
 10
0.0
 20
0.0
 30
0.0
  3
BLOCK_155
  1

  0
ARC
  5
6F2
  8
LAYER_2
 62
     7
 10
331.4945545075685
 20
617.4894577855107
 30
0.0
 40
127.5000998322768
 50
214.7239115227568
 51
265.2762457076587
  0
ENDBLK
  5
6F4
  8
0
  0
BLOCK
  8
0
  2
BLOCK_152
 70
     0
 10
0.0
 20
0.0
 30
0.0
  3
BLOCK_152
  1

  0
INSERT
  5
6FE
  8
LAYER_2
  2
BLOCK_153
 10
0.0
 20
0.0
 30
0.0
  0
ENDBLK
  5
700
  8
0
  0
BLOCK
  8
0
  2
BLOCK_153
 70
     0
 10
0.0
 20
0.0
 30
0.0
  3
BLOCK_153
  1

  0
LINE
  5
6FB
  8
LAYER_2
 62
     7
 10
320.9947047808624
 20
490.4224336881583
 30
0.0
 11
320.9947047808624
 21
502.4892251347944
 31
0.0
  0
ENDBLK
  5
6FD
  8
0
  0
BLOCK
  8
0
  2
BLOCK_150
 70
     0
 10
0.0
 20
0.0
 30
0.0
  3
BLOCK_150
  1

  0
INSERT
  5
707
  8
LAYER_2
  2
BLOCK_151
 10
0.0
 20
0.0
 30
0.0
  0
ENDBLK
  5
709
  8
0
  0
BLOCK
  8
0
  2
BLOCK_151
 70
     0
 10
0.0
 20
0.0
 30
0.0
  3
BLOCK_151
  1

  0
ARC
  5
704
  8
LAYER_2
 62
     7
 10
323.994693929418
 20
502.4892251347945
 30
0.0
 40
2.999989148555528
 50
359.9999999999978
 51
180.0000000000022
  0
ENDBLK
  5
706
  8
0
  0
BLOCK
  8
0
  2
BLOCK_148
 70
     0
 10
0.0
 20
0.0
 30
0.0
  3
BLOCK_148
  1

  0
INSERT
  5
710
  8
LAYER_2
  2
BLOCK_149
 10
0.0
 20
0.0
 30
0.0
  0
ENDBLK
  5
712
  8
0
  0
BLOCK
  8
0
  2
BLOCK_149
 70
     0
 10
0.0
 20
0.0
 30
0.0
  3
BLOCK_149
  1

  0
LINE
  5
70D
  8
LAYER_2
 62
     7
 10
326.9946830779735
 20
502.4892251347944
 30
0.0
 11
335.9946505236402
 21
502.4892251347944
 31
0.0
  0
ENDBLK
  5
70F
  8
0
  0
BLOCK
  8
0
  2
BLOCK_146
 70
     0
 10
0.0
 20
0.0
 30
0.0
  3
BLOCK_146
  1

  0
INSERT
  5
719
  8
LAYER_2
  2
BLOCK_147
 10
0.0
 20
0.0
 30
0.0
  0
ENDBLK
  5
71B
  8
0
  0
BLOCK
  8
0
  2
BLOCK_147
 70
     0
 10
0.0
 20
0.0
 30
0.0
  3
BLOCK_147
  1

  0
ARC
  5
716
  8
LAYER_2
 62
     7
 10
338.9946396721958
 20
502.4892251347945
 30
0.0
 40
2.999989148555585
 50
359.9999999999989
 51
180.0000000000011
  0
ENDBLK
  5
718
  8
0
  0
BLOCK
  8
0
  2
BLOCK_144
 70
     0
 10
0.0
 20
0.0
 30
0.0
  3
BLOCK_144
  1

  0
INSERT
  5
722
  8
LAYER_2
  2
BLOCK_145
 10
0.0
 20
0.0
 30
0.0
  0
ENDBLK
  5
724
  8
0
  0
BLOCK
  8
0
  2
BLOCK_145
 70
     0
 10
0.0
 20
0.0
 30
0.0
  3
BLOCK_145
  1

  0
LINE
  5
71F
  8
LAYER_2
 62
     7
 10
341.9946288207514
 20
502.4892251347944
 30
0.0
 11
341.9946288207514
 21
490.4224336881583
 31
0.0
  0
ENDBLK
  5
721
  8
0
  0
BLOCK
  8
0
  2
BLOCK_142
 70
     0
 10
0.0
 20
0.0
 30
0.0
  3
BLOCK_142
  1

  0
INSERT
  5
72B
  8
LAYER_2
  2
BLOCK_143
 10
0.0
 20
0.0
 30
0.0
  0
ENDBLK
  5
72D
  8
0
  0
BLOCK
  8
0
  2
BLOCK_143
 70
     0
 10
0.0
 20
0.0
 30
0.0
  3
BLOCK_143
  1

  0
ARC
  5
728
  8
LAYER_2
 62
     7
 10
331.4947790940453
 20
617.4894577855108
 30
0.0
 40
127.5000998322769
 50
274.7237542923413
 51
325.2760884772432
  0
ENDBLK
  5
72A
  8
0
  0
BLOCK
  8
0
  2
BLOCK_140
 70
     0
 10
0.0
 20
0.0
 30
0.0
  3
BLOCK_140
  1

  0
INSERT
  5
734
  8
LAYER_2
  2
BLOCK_141
 10
0.0
 20
0.0
 30
0.0
  0
ENDBLK
  5
736
  8
0
  0
BLOCK
  8
0
  2
BLOCK_141
 70
     0
 10
0.0
 20
0.0
 30
0.0
  3
BLOCK_141
  1

  0
LINE
  5
731
  8
LAYER_2
 62
     7
 10
436.287925780685
 20
544.8625215651733
 30
0.0
 11
425.8375731357281
 21
550.8959172884913
 31
0.0
  0
ENDBLK
  5
733
  8
0
  0
BLOCK
  8
0
  2
BLOCK_138
 70
     0
 10
0.0
 20
0.0
 30
0.0
  3
BLOCK_138
  1

  0
INSERT
  5
73D
  8
LAYER_2
  2
BLOCK_139
 10
0.0
 20
0.0
 30
0.0
  0
ENDBLK
  5
73F
  8
0
  0
BLOCK
  8
0
  2
BLOCK_139
 70
     0
 10
0.0
 20
0.0
 30
0.0
  3
BLOCK_139
  1

  0
ARC
  5
73A
  8
LAYER_2
 62
     7
 10
427.3376969045196
 20
553.4939614596965
 30
0.0
 40
3.0000341393436
 50
60.00334514672524
 51
239.9976469465659
  0
ENDBLK
  5
73C
  8
0
  0
BLOCK
  8
0
  2
BLOCK_136
 70
     0
 10
0.0
 20
0.0
 30
0.0
  3
BLOCK_136
  1

  0
INSERT
  5
746
  8
LAYER_2
  2
BLOCK_137
 10
0.0
 20
0.0
 30
0.0
  0
ENDBLK
  5
748
  8
0
  0
BLOCK
  8
0
  2
BLOCK_137
 70
     0
 10
0.0
 20
0.0
 30
0.0
  3
BLOCK_137
  1

  0
LINE
  5
743
  8
LAYER_2
 62
     7
 10
428.8375622842837
 20
556.0921548088936
 30
0.0
 11
433.337546007117
 21
563.8863388347229
 31
0.0
  0
ENDBLK
  5
745
  8
0
  0
BLOCK
  8
0
  2
BLOCK_134
 70
     0
 10
0.0
 20
0.0
 30
0.0
  3
BLOCK_134
  1

  0
INSERT
  5
74F
  8
LAYER_2
  2
BLOCK_135
 10
0.0
 20
0.0
 30
0.0
  0
ENDBLK
  5
751
  8
0
  0
BLOCK
  8
0
  2
BLOCK_135
 70
     0
 10
0.0
 20
0.0
 30
0.0
  3
BLOCK_135
  1

  0
ARC
  5
74C
  8
LAYER_2
 62
     7
 10
434.8376697759085
 20
566.4843830059282
 30
0.0
 40
3.000034139343501
 50
60.00334514672416
 51
239.9976469465667
  0
ENDBLK
  5
74E
  8
0
  0
BLOCK
  8
0
  2
BLOCK_132
 70
     0
 10
0.0
 20
0.0
 30
0.0
  3
BLOCK_132
  1

  0
INSERT
  5
758
  8
LAYER_2
  2
BLOCK_133
 10
0.0
 20
0.0
 30
0.0
  0
ENDBLK
  5
75A
  8
0
  0
BLOCK
  8
0
  2
BLOCK_133
 70
     0
 10
0.0
 20
0.0
 30
0.0
  3
BLOCK_133
  1

  0
LINE
  5
755
  8
LAYER_2
 62
     7
 10
436.3375351556726
 20
569.0825763551252
 30
0.0
 11
446.7878878006294
 21
563.0490083770329
 31
0.0
  0
ENDBLK
  5
757
  8
0
  0
BLOCK
  8
0
  2
BLOCK_130
 70
     0
 10
0.0
 20
0.0
 30
0.0
  3
BLOCK_130
  1

  0
INSERT
  5
761
  8
LAYER_2
  2
BLOCK_131
 10
0.0
 20
0.0
 30
0.0
  0
ENDBLK
  5
763
  8
0
  0
BLOCK
  8
0
  2
BLOCK_131
 70
     0
 10
0.0
 20
0.0
 30
0.0
  3
BLOCK_131
  1

  0
ARC
  5
75E
  8
LAYER_2
 62
     7
 10
331.4939645561021
 20
617.4891823814351
 30
0.0
 40
127.5006716952681
 50
334.723975745597
 51
25.27602425440297
  0
ENDBLK
  5
760
  8
0
  0
BLOCK
  8
0
  2
BLOCK_128
 70
     0
 10
0.0
 20
0.0
 30
0.0
  3
BLOCK_128
  1

  0
INSERT
  5
76A
  8
LAYER_2
  2
BLOCK_129
 10
0.0
 20
0.0
 30
0.0
  0
ENDBLK
  5
76C
  8
0
  0
BLOCK
  8
0
  2
BLOCK_129
 70
     0
 10
0.0
 20
0.0
 30
0.0
  3
BLOCK_129
  1

  0
LINE
  5
767
  8
LAYER_2
 62
     7
 10
446.7878878006294
 20
671.9293563858371
 30
0.0
 11
436.3375351556726
 21
665.8959606625191
 31
0.0
  0
ENDBLK
  5
769
  8
0
  0
BLOCK
  8
0
  2
BLOCK_126
 70
     0
 10
0.0
 20
0.0
 30
0.0
  3
BLOCK_126
  1

  0
INSERT
  5
773
  8
LAYER_2
  2
BLOCK_127
 10
0.0
 20
0.0
 30
0.0
  0
ENDBLK
  5
775
  8
0
  0
BLOCK
  8
0
  2
BLOCK_127
 70
     0
 10
0.0
 20
0.0
 30
0.0
  3
BLOCK_127
  1

  0
ARC
  5
770
  8
LAYER_2
 62
     7
 10
434.8376697759086
 20
668.4941540117162
 30
0.0
 40
3.000034139343525
 50
120.0023530534352
 51
299.9966548532729
  0
ENDBLK
  5
772
  8
0
  0
BLOCK
  8
0
  2
BLOCK_124
 70
     0
 10
0.0
 20
0.0
 30
0.0
  3
BLOCK_124
  1

  0
INSERT
  5
77C
  8
LAYER_2
  2
BLOCK_125
 10
0.0
 20
0.0
 30
0.0
  0
ENDBLK
  5
77E
  8
0
  0
BLOCK
  8
0
  2
BLOCK_125
 70
     0
 10
0.0
 20
0.0
 30
0.0
  3
BLOCK_125
  1

  0
LINE
  5
779
  8
LAYER_2
 62
     7
 10
433.337546007117
 20
671.0921981829214
 30
0.0
 11
428.8375622842837
 21
678.8863822087507
 31
0.0
  0
ENDBLK
  5
77B
  8
0
  0
BLOCK
  8
0
  2
BLOCK_122
 70
     0
 10
0.0
 20
0.0
 30
0.0
  3
BLOCK_122
  1

  0
INSERT
  5
785
  8
LAYER_2
  2
BLOCK_123
 10
0.0
 20
0.0
 30
0.0
  0
ENDBLK
  5
787
  8
0
  0
BLOCK
  8
0
  2
BLOCK_123
 70
     0
 10
0.0
 20
0.0
 30
0.0
  3
BLOCK_123
  1

  0
ARC
  5
782
  8
LAYER_2
 62
     7
 10
427.3376969045197
 20
681.4845755579478
 30
0.0
 40
3.000034139343525
 50
120.0023530534352
 51
299.9966548532729
  0
ENDBLK
  5
784
  8
0
  0
BLOCK
  8
0
  2
BLOCK_120
 70
     0
 10
0.0
 20
0.0
 30
0.0
  3
BLOCK_120
  1

  0
INSERT
  5
78E
  8
LAYER_2
  2
BLOCK_121
 10
0.0
 20
0.0
 30
0.0
  0
ENDBLK
  5
790
  8
0
  0
BLOCK
  8
0
  2
BLOCK_121
 70
     0
 10
0.0
 20
0.0
 30
0.0
  3
BLOCK_121
  1

  0
LINE
  5
78B
  8
LAYER_2
 62
     7
 10
425.8375731357281
 20
684.082619729153
 30
0.0
 11
436.287925780685
 21
690.1160154524711
 31
0.0
  0
ENDBLK
  5
78D
  8
0
  0
BLOCK
  8
0
  2
BLOCK_118
 70
     0
 10
0.0
 20
0.0
 30
0.0
  3
BLOCK_118
  1

  0
INSERT
  5
797
  8
LAYER_2
  2
BLOCK_119
 10
0.0
 20
0.0
 30
0.0
  0
ENDBLK
  5
799
  8
0
  0
BLOCK
  8
0
  2
BLOCK_119
 70
     0
 10
0.0
 20
0.0
 30
0.0
  3
BLOCK_119
  1

  0
ARC
  5
794
  8
LAYER_2
 62
     7
 10
331.4944869398978
 20
617.4885732047032
 30
0.0
 40
127.5006282005334
 50
34.72402363749737
 51
85.27613359291807
  0
ENDBLK
  5
796
  8
0
  0
BLOCK
  8
0
  2
BLOCK_116
 70
     0
 10
0.0
 20
0.0
 30
0.0
  3
BLOCK_116
  1

  0
INSERT
  5
7A0
  8
LAYER_2
  2
BLOCK_117
 10
0.0
 20
0.0
 30
0.0
  0
ENDBLK
  5
7A2
  8
0
  0
BLOCK
  8
0
  2
BLOCK_117
 70
     0
 10
0.0
 20
0.0
 30
0.0
  3
BLOCK_117
  1

  0
LINE
  5
79D
  8
LAYER_2
 62
     7
 10
341.9946288207514
 20
744.5561033294861
 30
0.0
 11
341.9946288207514
 21
732.48931188285
 31
0.0
  0
ENDBLK
  5
79F
  8
0
  0
BLOCK
  8
0
  2
BLOCK_114
 70
     0
 10
0.0
 20
0.0
 30
0.0
  3
BLOCK_114
  1

  0
INSERT
  5
7A9
  8
LAYER_2
  2
BLOCK_115
 10
0.0
 20
0.0
 30
0.0
  0
ENDBLK
  5
7AB
  8
0
  0
BLOCK
  8
0
  2
BLOCK_115
 70
     0
 10
0.0
 20
0.0
 30
0.0
  3
BLOCK_115
  1

  0
ARC
  5
7A6
  8
LAYER_2
 62
     7
 10
338.9946396721959
 20
732.48931188285
 30
0.0
 40
2.999989148555699
 50
180.0
 51
0.0
  0
ENDBLK
  5
7A8
  8
0
  0
BLOCK
  8
0
  2
BLOCK_112
 70
     0
 10
0.0
 20
0.0
 30
0.0
  3
BLOCK_112
  1

  0
INSERT
  5
7B2
  8
LAYER_2
  2
BLOCK_113
 10
0.0
 20
0.0
 30
0.0
  0
ENDBLK
  5
7B4
  8
0
  0
BLOCK
  8
0
  2
BLOCK_113
 70
     0
 10
0.0
 20
0.0
 30
0.0
  3
BLOCK_113
  1

  0
LINE
  5
7AF
  8
LAYER_2
 62
     7
 10
335.9946505236402
 20
732.48931188285
 30
0.0
 11
326.9946830779735
 21
732.48931188285
 31
0.0
  0
ENDBLK
  5
7B1
  8
0
  0
BLOCK
  8
0
  2
BLOCK_110
 70
     0
 10
0.0
 20
0.0
 30
0.0
  3
BLOCK_110
  1

  0
INSERT
  5
7BB
  8
LAYER_2
  2
BLOCK_111
 10
0.0
 20
0.0
 30
0.0
  0
ENDBLK
  5
7BD
  8
0
  0
BLOCK
  8
0
  2
BLOCK_111
 70
     0
 10
0.0
 20
0.0
 30
0.0
  3
BLOCK_111
  1

  0
ARC
  5
7B8
  8
LAYER_2
 62
     7
 10
323.9946939294181
 20
732.48931188285
 30
0.0
 40
2.999989148555699
 50
180.0
 51
0.0
  0
ENDBLK
  5
7BA
  8
0
  0
BLOCK
  8
0
  2
BLOCK_108
 70
     0
 10
0.0
 20
0.0
 30
0.0
  3
BLOCK_108
  1

  0
INSERT
  5
7C4
  8
LAYER_2
  2
BLOCK_109
 10
0.0
 20
0.0
 30
0.0
  0
ENDBLK
  5
7C6
  8
0
  0
BLOCK
  8
0
  2
BLOCK_109
 70
     0
 10
0.0
 20
0.0
 30
0.0
  3
BLOCK_109
  1

  0
LINE
  5
7C1
  8
LAYER_2
 62
     7
 10
320.9947047808624
 20
732.48931188285
 30
0.0
 11
320.9947047808624
 21
744.5561033294861
 31
0.0
  0
ENDBLK
  5
7C3
  8
0
  0
BLOCK
  8
0
  2
BLOCK_106
 70
     0
 10
0.0
 20
0.0
 30
0.0
  3
BLOCK_106
  1

  0
INSERT
  5
7CD
  8
LAYER_2
  2
BLOCK_107
 10
0.0
 20
0.0
 30
0.0
  0
ENDBLK
  5
7CF
  8
0
  0
BLOCK
  8
0
  2
BLOCK_107
 70
     0
 10
0.0
 20
0.0
 30
0.0
  3
BLOCK_107
  1

  0
ARC
  5
7CA
  8
LAYER_2
 62
     7
 10
331.494846661716
 20
617.4885732047031
 30
0.0
 40
127.5006282005335
 50
94.72386640708194
 51
145.2759763625025
  0
ENDBLK
  5
7CC
  8
0
  0
BLOCK
  8
0
  2
BLOCK_104
 70
     0
 10
0.0
 20
0.0
 30
0.0
  3
BLOCK_104
  1

  0
INSERT
  5
7D6
  8
LAYER_2
  2
BLOCK_105
 10
0.0
 20
0.0
 30
0.0
  0
ENDBLK
  5
7D8
  8
0
  0
BLOCK
  8
0
  2
BLOCK_105
 70
     0
 10
0.0
 20
0.0
 30
0.0
  3
BLOCK_105
  1

  0
LINE
  5
7D3
  8
LAYER_2
 62
     7
 10
226.7014078209288
 20
690.1160154524711
 30
0.0
 11
237.1517604658857
 21
684.082619729153
 31
0.0
  0
ENDBLK
  5
7D5
  8
0
  0
BLOCK
  8
0
  2
BLOCK_102
 70
     0
 10
0.0
 20
0.0
 30
0.0
  3
BLOCK_102
  1

  0
INSERT
  5
7DF
  8
LAYER_2
  2
BLOCK_103
 10
0.0
 20
0.0
 30
0.0
  0
ENDBLK
  5
7E1
  8
0
  0
BLOCK
  8
0
  2
BLOCK_103
 70
     0
 10
0.0
 20
0.0
 30
0.0
  3
BLOCK_103
  1

  0
CIRCLE
  5
7DC
  8
LAYER_2
 62
     7
 10
331.4946668008068
 20
617.489268508822
 30
0.0
 40
100.0000976312499
  0
ENDBLK
  5
7DE
  8
0
  0
BLOCK
  8
0
  2
BLOCK_100
 70
     0
 10
0.0
 20
0.0
 30
0.0
  3
BLOCK_100
  1

  0
INSERT
  5
7E9
  8
LAYER_2
  2
BLOCK_101
 10
0.0
 20
0.0
 30
0.0
  0
ENDBLK
  5
7EB
  8
0
  0
BLOCK
  8
0
  2
BLOCK_101
 70
     0
 10
0.0
 20
0.0
 30
0.0
  3
BLOCK_101
  1

  0
LINE
  5
7E5
  8
LAYER_2
 62
     7
 10
-162.2893188070839
 20
-349.9307507805729
 30
0.0
 11
-158.3004149994874
 21
-350.0168781677041
 31
0.0
  0
LINE
  5
7E6
  8
LAYER_2
 62
     7
 10
-158.3004149994874
 20
-350.0168781677041
 30
0.0
 11
-154.2894625807853
 21
-349.7033744785464
 31
0.0
  0
ENDBLK
  5
7E8
  8
0
  0
BLOCK
  8
0
  2
BLOCK_98
 70
     0
 10
0.0
 20
0.0
 30
0.0
  3
BLOCK_98
  1

  0
INSERT
  5
7F2
  8
LAYER_2
  2
BLOCK_99
 10
0.0
 20
0.0
 30
0.0
  0
ENDBLK
  5
7F4
  8
0
  0
BLOCK
  8
0
  2
BLOCK_99
 70
     0
 10
0.0
 20
0.0
 30
0.0
  3
BLOCK_99
  1

  0
ARC
  5
7EF
  8
LAYER_2
 62
     7
 10
290.7568447666833
 20
376.2432510966132
 30
0.0
 40
300.218728447454
 50
144.7298674908708
 51
146.5791711374671
  0
ENDBLK
  5
7F1
  8
0
  0
BLOCK
  8
0
  2
BLOCK_96
 70
     0
 10
0.0
 20
0.0
 30
0.0
  3
BLOCK_96
  1

  0
INSERT
  5
802
  8
LAYER_2
  2
BLOCK_97
 10
0.0
 20
0.0
 30
0.0
  0
ENDBLK
  5
804
  8
0
  0
BLOCK
  8
0
  2
BLOCK_97
 70
     0
 10
0.0
 20
0.0
 30
0.0
  3
BLOCK_97
  1

  0
LINE
  5
7F8
  8
LAYER_2
 62
     7
 10
-206.0329019667209
 20
-323.9647215986963
 30
0.0
 11
-199.1828463586244
 21
-331.0571396741802
 31
0.0
  0
LINE
  5
7F9
  8
LAYER_2
 62
     7
 10
-199.1828463586244
 20
-331.0571396741802
 30
0.0
 11
-192.4309759718575
 21
-336.8989880885183
 31
0.0
  0
LINE
  5
7FA
  8
LAYER_2
 62
     7
 10
-192.4309759718575
 20
-336.8989880885183
 30
0.0
 11
-185.8947685624673
 21
-341.5278183825
 31
0.0
  0
LINE
  5
7FB
  8
LAYER_2
 62
     7
 10
-185.8947685624673
 20
-341.5278183825
 30
0.0
 11
-179.6672417085554
 21
-345.0156330517669
 31
0.0
  0
LINE
  5
7FC
  8
LAYER_2
 62
     7
 10
-179.6672417085554
 20
-345.0156330517669
 30
0.0
 11
-173.7923203775589
 21
-347.4836994574
 31
0.0
  0
LINE
  5
7FD
  8
LAYER_2
 62
     7
 10
-173.7923203775589
 20
-347.4836994574
 30
0.0
 11
-168.2563964423109
 21
-349.063275737387
 31
0.0
  0
LINE
  5
7FE
  8
LAYER_2
 62
     7
 10
-168.2563964423109
 20
-349.063275737387
 30
0.0
 11
-162.97575408252
 21
-349.8756292528089
 31
0.0
  0
LINE
  5
7FF
  8
LAYER_2
 62
     7
 10
-162.97575408252
 20
-349.8756292528089
 30
0.0
 11
-162.2893188070839
 21
-349.9307507805729
 31
0.0
  0
ENDBLK
  5
801
  8
0
  0
BLOCK
  8
0
  2
BLOCK_94
 70
     0
 10
0.0
 20
0.0
 30
0.0
  3
BLOCK_94
  1

  0
INSERT
  5
83C
  8
LAYER_2
  2
BLOCK_95
 10
0.0
 20
0.0
 30
0.0
  0
ENDBLK
  5
83E
  8
0
  0
BLOCK
  8
0
  2
BLOCK_95
 70
     0
 10
0.0
 20
0.0
 30
0.0
  3
BLOCK_95
  1

  0
LINE
  5
808
  8
LAYER_2
 62
     7
 10
-206.0329019667209
 20
-387.6593694777379
 30
0.0
 11
-200.6208292141677
 21
-390.4206135091657
 31
0.0
  0
LINE
  5
809
  8
LAYER_2
 62
     7
 10
-200.6208292141677
 20
-390.4206135091657
 30
0.0
 11
-195.1503620931395
 21
-392.8394150493596
 31
0.0
  0
LINE
  5
80A
  8
LAYER_2
 62
     7
 10
-195.1503620931395
 20
-392.8394150493596
 30
0.0
 11
-189.6289075589296
 21
-394.912673512383
 31
0.0
  0
LINE
  5
80B
  8
LAYER_2
 62
     7
 10
-189.6289075589296
 20
-394.912673512383
 30
0.0
 11
-184.064389331154
 21
-396.637288312299
 31
0.0
  0
LINE
  5
80C
  8
LAYER_2
 62
     7
 10
-184.064389331154
 20
-396.637288312299
 30
0.0
 11
-178.4649033842032
 21
-398.0108478822681
 31
0.0
  0
LINE
  5
80D
  8
LAYER_2
 62
     7
 10
-178.4649033842032
 20
-398.0108478822681
 30
0.0
 11
-172.8382011829189
 21
-399.0312851649991
 31
0.0
  0
LINE
  5
80E
  8
LAYER_2
 62
     7
 10
-172.8382011829189
 20
-399.0312851649991
 30
0.0
 11
-167.1925509564658
 21
-399.6972221222979
 31
0.0
  0
LINE
  5
80F
  8
LAYER_2
 62
     7
 10
-167.1925509564658
 20
-399.6972221222979
 30
0.0
 11
-161.5357041696855
 21
-400.007625225519
 31
0.0
  0
LINE
  5
810
  8
LAYER_2
 62
     7
 10
-161.5357041696855
 20
-400.007625225519
 30
0.0
 11
-155.8759290517428
 21
-399.9621499651137
 31
0.0
  0
LINE
  5
811
  8
LAYER_2
 62
     7
 10
-155.8759290517428
 20
-399.9621499651137
 30
0.0
 11
-150.221321577028
 21
-399.5611408506306
 31
0.0
  0
LINE
  5
812
  8
LAYER_2
 62
     7
 10
-150.221321577028
 20
-399.5611408506306
 30
0.0
 11
-144.5796332103829
 21
-398.8045978820697
 31
0.0
  0
LINE
  5
813
  8
LAYER_2
 62
     7
 10
-144.5796332103829
 20
-398.8045978820697
 30
0.0
 11
-138.959132180972
 21
-397.6938990976251
 31
0.0
  0
LINE
  5
814
  8
LAYER_2
 62
     7
 10
-138.959132180972
 20
-397.6938990976251
 30
0.0
 11
-133.3679144631858
 21
-396.230422535491
 31
0.0
  0
LINE
  5
815
  8
LAYER_2
 62
     7
 10
-133.3679144631858
 20
-396.230422535491
 30
0.0
 11
-127.8135592670918
 21
-394.4169242720555
 31
0.0
  0
LINE
  5
816
  8
LAYER_2
 62
     7
 10
-127.8135592670918
 20
-394.4169242720555
 30
0.0
 11
-122.3043348218545
 21
-392.2551268550612
 31
0.0
  0
LINE
  5
817
  8
LAYER_2
 62
     7
 10
-122.3043348218545
 20
-392.2551268550612
 30
0.0
 11
-116.8479925923158
 21
-389.7484753799935
 31
0.0
  0
LINE
  5
818
  8
LAYER_2
 62
     7
 10
-116.8479925923158
 20
-389.7484753799935
 30
0.0
 11
-111.4522840433175
 21
-386.9004149423374
 31
0.0
  0
LINE
  5
819
  8
LAYER_2
 62
     7
 10
-111.4522840433175
 20
-386.9004149423374
 30
0.0
 11
-106.1247883849271
 21
-383.715424166224
 31
0.0
  0
LINE
  5
81A
  8
LAYER_2
 62
     7
 10
-106.1247883849271
 20
-383.715424166224
 30
0.0
 11
-100.8732570819866
 21
-380.1976371662353
 31
0.0
  0
LINE
  5
81B
  8
LAYER_2
 62
     7
 10
-100.8732570819866
 20
-380.1976371662353
 30
0.0
 11
-95.705097089789
 21
-376.3522215855995
 31
0.0
  0
LINE
  5
81C
  8
LAYER_2
 62
     7
 10
-95.705097089789
 20
-376.3522215855995
 30
0.0
 11
-90.6277153636278
 21
-372.1843450675442
 31
0.0
  0
LINE
  5
81D
  8
LAYER_2
 62
     7
 10
-90.6277153636278
 20
-372.1843450675442
 30
0.0
 11
-85.64817434924768
 21
-367.700208783943
 31
0.0
  0
LINE
  5
81E
  8
LAYER_2
 62
     7
 10
-85.64817434924768
 20
-367.700208783943
 30
0.0
 11
-80.77370874716769
 21
-362.9063584162179
 31
0.0
  0
LINE
  5
81F
  8
LAYER_2
 62
     7
 10
-80.77370874716769
 20
-362.9063584162179
 30
0.0
 11
-76.01120874835831
 21
-357.8093396457907
 31
0.0
  0
LINE
  5
820
  8
LAYER_2
 62
     7
 10
-76.01120874835831
 20
-357.8093396457907
 30
0.0
 11
-71.3673922890158
 21
-352.4167316827292
 31
0.0
  0
LINE
  5
821
  8
LAYER_2
 62
     7
 10
-71.3673922890158
 20
-352.4167316827292
 30
0.0
 11
-66.84914956011063
 21
-346.7357692275522
 31
0.0
  0
LINE
  5
822
  8
LAYER_2
 62
     7
 10
-66.84914956011063
 20
-346.7357692275522
 30
0.0
 11
-62.46250947874201
 21
-340.7747205094244
 31
0.0
  0
LINE
  5
823
  8
LAYER_2
 62
     7
 10
-62.46250947874201
 20
-340.7747205094244
 30
0.0
 11
-58.21401772633192
 21
-334.5421982670589
 31
0.0
  0
LINE
  5
824
  8
LAYER_2
 62
     7
 10
-58.21401772633192
 20
-334.5421982670589
 30
0.0
 11
-54.10970321997952
 21
-328.0468152391689
 31
0.0
  0
LINE
  5
825
  8
LAYER_2
 62
     7
 10
-54.10970321997952
 20
-328.0468152391689
 30
0.0
 11
-50.1552503672355
 21
-321.298217693113
 31
0.0
  0
LINE
  5
826
  8
LAYER_2
 62
     7
 10
-50.1552503672355
 20
-321.298217693113
 30
0.0
 11
-46.3563435756505
 21
-314.3057073867014
 31
0.0
  0
LINE
  5
827
  8
LAYER_2
 62
     7
 10
-46.3563435756505
 20
-314.3057073867014
 30
0.0
 11
-42.71849499800093
 21
-307.0792750968413
 31
0.0
  0
LINE
  5
828
  8
LAYER_2
 62
     7
 10
-42.71849499800093
 20
-307.0792750968413
 30
0.0
 11
-39.24670002274041
 21
-299.6292561099885
 31
0.0
  0
LINE
  5
829
  8
LAYER_2
 62
     7
 10
-39.24670002274041
 20
-299.6292561099885
 30
0.0
 11
-35.9461262930968
 21
-291.9663302221473
 31
0.0
  0
LINE
  5
82A
  8
LAYER_2
 62
     7
 10
-35.9461262930968
 20
-291.9663302221473
 30
0.0
 11
-32.82125243320094
 21
-284.1011772293219
 31
0.0
  0
LINE
  5
82B
  8
LAYER_2
 62
     7
 10
-32.82125243320094
 20
-284.1011772293219
 30
0.0
 11
-29.8767293219579
 21
-276.0451659466137
 31
0.0
  0
LINE
  5
82C
  8
LAYER_2
 62
     7
 10
-29.8767293219579
 20
-276.0451659466137
 30
0.0
 11
-27.11669107394999
 21
-267.8100096986725
 31
0.0
  0
LINE
  5
82D
  8
LAYER_2
 62
     7
 10
-27.11669107394999
 20
-267.8100096986725
 30
0.0
 11
-24.54492729421099
 21
-259.4067327910511
 31
0.0
  0
LINE
  5
82E
  8
LAYER_2
 62
     7
 10
-24.54492729421099
 20
-259.4067327910511
 30
0.0
 11
-22.16522758777467
 21
-250.8480820770449
 31
0.0
  0
LINE
  5
82F
  8
LAYER_2
 62
     7
 10
-22.16522758777467
 20
-250.8480820770449
 30
0.0
 11
-19.98086479535201
 21
-242.1457708813038
 31
0.0
  0
LINE
  5
830
  8
LAYER_2
 62
     7
 10
-19.98086479535201
 20
-242.1457708813038
 30
0.0
 11
-17.995111757654
 21
-233.3125460571233
 31
0.0
  0
LINE
  5
831
  8
LAYER_2
 62
     7
 10
-17.995111757654
 20
-233.3125460571233
 30
0.0
 11
-16.21072455106885
 21
-224.3604654387016
 31
0.0
  0
LINE
  5
832
  8
LAYER_2
 62
     7
 10
-16.21072455106885
 20
-224.3604654387016
 30
0.0
 11
-14.63028699721048
 21
-215.3026203888827
 31
0.0
  0
LINE
  5
833
  8
LAYER_2
 62
     7
 10
-14.63028699721048
 20
-215.3026203888827
 30
0.0
 11
-13.25586615337006
 21
-206.1517577609621
 31
0.0
  0
LINE
  5
834
  8
LAYER_2
 62
     7
 10
-13.25586615337006
 20
-206.1517577609621
 30
0.0
 11
-12.08970133161299
 21
-196.9213134273322
 31
0.0
  0
LINE
  5
835
  8
LAYER_2
 62
     7
 10
-12.08970133161299
 20
-196.9213134273322
 30
0.0
 11
-11.13317057013337
 21
-187.6236897317399
 31
0.0
  0
LINE
  5
836
  8
LAYER_2
 62
     7
 10
-11.13317057013337
 20
-187.6236897317399
 30
0.0
 11
-10.38782416189957
 21
-178.2730115656748
 31
0.0
  0
LINE
  5
837
  8
LAYER_2
 62
     7
 10
-10.38782416189957
 20
-178.2730115656748
 30
0.0
 11
-9.85469563555716
 21
-168.8816812728838
 31
0.0
  0
LINE
  5
838
  8
LAYER_2
 62
     7
 10
-9.85469563555716
 20
-168.8816812728838
 30
0.0
 11
-9.534474010203187
 21
-159.4638237448563
 31
0.0
  0
LINE
  5
839
  8
LAYER_2
 62
     7
 10
-9.534474010203187
 20
-159.4638237448563
 30
0.0
 11
-9.427848304934704
 21
-150.0325303444363
 31
0.0
  0
ENDBLK
  5
83B
  8
0
  0
BLOCK
  8
0
  2
BLOCK_92
 70
     0
 10
0.0
 20
0.0
 30
0.0
  3
BLOCK_92
  1

  0
INSERT
  5
845
  8
LAYER_2
  2
BLOCK_93
 10
0.0
 20
0.0
 30
0.0
  0
ENDBLK
  5
847
  8
0
  0
BLOCK
  8
0
  2
BLOCK_93
 70
     0
 10
0.0
 20
0.0
 30
0.0
  3
BLOCK_93
  1

  0
LINE
  5
842
  8
LAYER_2
 62
     7
 10
-9.427848304934704
 20
-150.0325303444363
 30
0.0
 11
-9.427848304934704
 21
376.3608343243126
 31
0.0
  0
ENDBLK
  5
844
  8
0
  0
BLOCK
  8
0
  2
BLOCK_90
 70
     0
 10
0.0
 20
0.0
 30
0.0
  3
BLOCK_90
  1

  0
INSERT
  5
84E
  8
LAYER_2
  2
BLOCK_91
 10
0.0
 20
0.0
 30
0.0
  0
ENDBLK
  5
850
  8
0
  0
BLOCK
  8
0
  2
BLOCK_91
 70
     0
 10
0.0
 20
0.0
 30
0.0
  3
BLOCK_91
  1

  0
ARC
  5
84B
  8
LAYER_2
 62
     7
 10
290.5716443691571
 20
376.3606450168397
 30
0.0
 40
299.9994926741516
 50
146.5784028211594
 51
179.9999638448748
  0
ENDBLK
  5
84D
  8
0
  0
BLOCK
  8
0
  2
BLOCK_88
 70
     0
 10
0.0
 20
0.0
 30
0.0
  3
BLOCK_88
  1

  0
INSERT
  5
857
  8
LAYER_2
  2
BLOCK_89
 10
0.0
 20
0.0
 30
0.0
  0
ENDBLK
  5
859
  8
0
  0
BLOCK
  8
0
  2
BLOCK_89
 70
     0
 10
0.0
 20
0.0
 30
0.0
  3
BLOCK_89
  1

  0
LINE
  5
854
  8
LAYER_2
 62
     7
 10
-206.0329019667209
 20
-387.6593694777379
 30
0.0
 11
-206.0329019667209
 21
-323.9647215986963
 31
0.0
  0
ENDBLK
  5
856
  8
0
  0
BLOCK
  8
0
  2
BLOCK_86
 70
     0
 10
0.0
 20
0.0
 30
0.0
  3
BLOCK_86
  1

  0
INSERT
  5
860
  8
LAYER_2
  2
BLOCK_87
 10
0.0
 20
0.0
 30
0.0
  0
ENDBLK
  5
862
  8
0
  0
BLOCK
  8
0
  2
BLOCK_87
 70
     0
 10
0.0
 20
0.0
 30
0.0
  3
BLOCK_87
  1

  0
ARC
  5
85D
  8
LAYER_2
 62
     7
 10
-44.42786525039476
 20
446.9676356575723
 30
0.0
 40
3.000075277178897
 50
270.001644870654
 51
89.99835512934602
  0
ENDBLK
  5
85F
  8
0
  0
BLOCK
  8
0
  2
BLOCK_84
 70
     0
 10
0.0
 20
0.0
 30
0.0
  3
BLOCK_84
  1

  0
INSERT
  5
869
  8
LAYER_2
  2
BLOCK_85
 10
0.0
 20
0.0
 30
0.0
  0
ENDBLK
  5
86B
  8
0
  0
BLOCK
  8
0
  2
BLOCK_85
 70
     0
 10
0.0
 20
0.0
 30
0.0
  3
BLOCK_85
  1

  0
LINE
  5
866
  8
LAYER_2
 62
     7
 10
-44.42777912300764
 20
434.967592935963
 30
0.0
 11
-44.42777912300764
 21
443.9675603816297
 31
0.0
  0
ENDBLK
  5
868
  8
0
  0
BLOCK
  8
0
  2
BLOCK_82
 70
     0
 10
0.0
 20
0.0
 30
0.0
  3
BLOCK_82
  1

  0
INSERT
  5
872
  8
LAYER_2
  2
BLOCK_83
 10
0.0
 20
0.0
 30
0.0
  0
ENDBLK
  5
874
  8
0
  0
BLOCK
  8
0
  2
BLOCK_83
 70
     0
 10
0.0
 20
0.0
 30
0.0
  3
BLOCK_83
  1

  0
ARC
  5
86F
  8
LAYER_2
 62
     7
 10
-44.42777912300773
 20
431.9676037874074
 30
0.0
 40
2.999989148555585
 50
270.0000000000018
 51
89.99999999999824
  0
ENDBLK
  5
871
  8
0
  0
BLOCK
  8
0
  2
BLOCK_80
 70
     0
 10
0.0
 20
0.0
 30
0.0
  3
BLOCK_80
  1

  0
INSERT
  5
87B
  8
LAYER_2
  2
BLOCK_81
 10
0.0
 20
0.0
 30
0.0
  0
ENDBLK
  5
87D
  8
0
  0
BLOCK
  8
0
  2
BLOCK_81
 70
     0
 10
0.0
 20
0.0
 30
0.0
  3
BLOCK_81
  1

  0
LINE
  5
878
  8
LAYER_2
 62
     7
 10
-59.42772486578544
 20
428.9676146388518
 30
0.0
 11
-44.42777912300764
 21
428.9676146388518
 31
0.0
  0
ENDBLK
  5
87A
  8
0
  0
BLOCK
  8
0
  2
BLOCK_78
 70
     0
 10
0.0
 20
0.0
 30
0.0
  3
BLOCK_78
  1

  0
INSERT
  5
884
  8
LAYER_2
  2
BLOCK_79
 10
0.0
 20
0.0
 30
0.0
  0
ENDBLK
  5
886
  8
0
  0
BLOCK
  8
0
  2
BLOCK_79
 70
     0
 10
0.0
 20
0.0
 30
0.0
  3
BLOCK_79
  1

  0
LINE
  5
881
  8
LAYER_2
 62
     7
 10
-59.42772486578544
 20
428.9676146388518
 30
0.0
 11
-59.42772486578544
 21
-140.0324516794016
 31
0.0
  0
ENDBLK
  5
883
  8
0
  0
BLOCK
  8
0
  2
BLOCK_76
 70
     0
 10
0.0
 20
0.0
 30
0.0
  3
BLOCK_76
  1

  0
INSERT
  5
88D
  8
LAYER_2
  2
BLOCK_77
 10
0.0
 20
0.0
 30
0.0
  0
ENDBLK
  5
88F
  8
0
  0
BLOCK
  8
0
  2
BLOCK_77
 70
     0
 10
0.0
 20
0.0
 30
0.0
  3
BLOCK_77
  1

  0
LINE
  5
88A
  8
LAYER_2
 62
     7
 10
-44.42777912300764
 20
-140.0324516794016
 30
0.0
 11
-59.42772486578544
 21
-140.0324516794016
 31
0.0
  0
ENDBLK
  5
88C
  8
0
  0
BLOCK
  8
0
  2
BLOCK_74
 70
     0
 10
0.0
 20
0.0
 30
0.0
  3
BLOCK_74
  1

  0
INSERT
  5
896
  8
LAYER_2
  2
BLOCK_75
 10
0.0
 20
0.0
 30
0.0
  0
ENDBLK
  5
898
  8
0
  0
BLOCK
  8
0
  2
BLOCK_75
 70
     0
 10
0.0
 20
0.0
 30
0.0
  3
BLOCK_75
  1

  0
ARC
  5
893
  8
LAYER_2
 62
     7
 10
-44.42777912300765
 20
-143.0324408279571
 30
0.0
 40
2.999989148555557
 50
270.0000000000002
 51
89.99999999999973
  0
ENDBLK
  5
895
  8
0
  0
BLOCK
  8
0
  2
BLOCK_72
 70
     0
 10
0.0
 20
0.0
 30
0.0
  3
BLOCK_72
  1

  0
INSERT
  5
89F
  8
LAYER_2
  2
BLOCK_73
 10
0.0
 20
0.0
 30
0.0
  0
ENDBLK
  5
8A1
  8
0
  0
BLOCK
  8
0
  2
BLOCK_73
 70
     0
 10
0.0
 20
0.0
 30
0.0
  3
BLOCK_73
  1

  0
LINE
  5
89C
  8
LAYER_2
 62
     7
 10
-44.42777912300764
 20
-155.0323974221794
 30
0.0
 11
-44.42777912300764
 21
-146.0324299765127
 31
0.0
  0
ENDBLK
  5
89E
  8
0
  0
BLOCK
  8
0
  2
BLOCK_70
 70
     0
 10
0.0
 20
0.0
 30
0.0
  3
BLOCK_70
  1

  0
INSERT
  5
8A8
  8
LAYER_2
  2
BLOCK_71
 10
0.0
 20
0.0
 30
0.0
  0
ENDBLK
  5
8AA
  8
0
  0
BLOCK
  8
0
  2
BLOCK_71
 70
     0
 10
0.0
 20
0.0
 30
0.0
  3
BLOCK_71
  1

  0
ARC
  5
8A5
  8
LAYER_2
 62
     7
 10
-44.42777912300763
 20
-158.032386570735
 30
0.0
 40
2.999989148555557
 50
269.9999999999998
 51
90.00000000000014
  0
ENDBLK
  5
8A7
  8
0
  0
BLOCK
  8
0
  2
BLOCK_68
 70
     0
 10
0.0
 20
0.0
 30
0.0
  3
BLOCK_68
  1

  0
INSERT
  5
8B1
  8
LAYER_2
  2
BLOCK_69
 10
0.0
 20
0.0
 30
0.0
  0
ENDBLK
  5
8B3
  8
0
  0
BLOCK
  8
0
  2
BLOCK_69
 70
     0
 10
0.0
 20
0.0
 30
0.0
  3
BLOCK_69
  1

  0
LINE
  5
8AE
  8
LAYER_2
 62
     7
 10
-59.59343395862595
 20
-161.0323757192905
 30
0.0
 11
-44.42777912300764
 21
-161.0323757192905
 31
0.0
  0
ENDBLK
  5
8B0
  8
0
  0
BLOCK
  8
0
  2
BLOCK_66
 70
     0
 10
0.0
 20
0.0
 30
0.0
  3
BLOCK_66
  1

  0
INSERT
  5
8CD
  8
LAYER_2
  2
BLOCK_67
 10
0.0
 20
0.0
 30
0.0
  0
ENDBLK
  5
8CF
  8
0
  0
BLOCK
  8
0
  2
BLOCK_67
 70
     0
 10
0.0
 20
0.0
 30
0.0
  3
BLOCK_67
  1

  0
LINE
  5
8B7
  8
LAYER_2
 62
     7
 10
-154.2894625807853
 20
-349.7033744785464
 30
0.0
 11
-149.5267903272016
 21
-348.8148843529004
 31
0.0
  0
LINE
  5
8B8
  8
LAYER_2
 62
     7
 10
-149.5267903272016
 20
-348.8148843529004
 30
0.0
 11
-144.5427706886907
 21
-347.2976643011964
 31
0.0
  0
LINE
  5
8B9
  8
LAYER_2
 62
     7
 10
-144.5427706886907
 20
-347.2976643011964
 30
0.0
 11
-139.2841769400054
 21
-345.0624863503663
 31
0.0
  0
LINE
  5
8BA
  8
LAYER_2
 62
     7
 10
-139.2841769400054
 20
-345.0624863503663
 30
0.0
 11
-133.7432576163038
 21
-342.0152993936629
 31
0.0
  0
LINE
  5
8BB
  8
LAYER_2
 62
     7
 10
-133.7432576163038
 20
-342.0152993936629
 30
0.0
 11
-128.0686685877745
 21
-338.1574814692801
 31
0.0
  0
LINE
  5
8BC
  8
LAYER_2
 62
     7
 10
-128.0686685877745
 20
-338.1574814692801
 30
0.0
 11
-122.207527638719
 21
-333.3791340312386
 31
0.0
  0
LINE
  5
8BD
  8
LAYER_2
 62
     7
 10
-122.207527638719
 20
-333.3791340312386
 30
0.0
 11
-116.2373494175553
 21
-327.6537298443018
 31
0.0
  0
LINE
  5
8BE
  8
LAYER_2
 62
     7
 10
-116.2373494175553
 20
-327.6537298443018
 30
0.0
 11
-110.2375433752184
 21
-320.9581867687188
 31
0.0
  0
LINE
  5
8BF
  8
LAYER_2
 62
     7
 10
-110.2375433752184
 20
-320.9581867687188
 30
0.0
 11
-104.2873467078691
 21
-313.2973279381687
 31
0.0
  0
LINE
  5
8C0
  8
LAYER_2
 62
     7
 10
-104.2873467078691
 20
-313.2973279381687
 30
0.0
 11
-98.46668563076528
 21
-304.702848231116
 31
0.0
  0
LINE
  5
8C1
  8
LAYER_2
 62
     7
 10
-98.46668563076528
 20
-304.702848231116
 30
0.0
 11
-92.57522784143953
 21
-294.7017360374357
 31
0.0
  0
LINE
  5
8C2
  8
LAYER_2
 62
     7
 10
-92.57522784143953
 20
-294.7017360374357
 30
0.0
 11
-86.99158933372085
 21
-283.7659694386072
 31
0.0
  0
LINE
  5
8C3
  8
LAYER_2
 62
     7
 10
-86.99158933372085
 20
-283.7659694386072
 30
0.0
 11
-81.7839829982172
 21
-271.9661728920779
 31
0.0
  0
LINE
  5
8C4
  8
LAYER_2
 62
     7
 10
-81.7839829982172
 20
-271.9661728920779
 30
0.0
 11
-77.0175211395998
 21
-259.3757269316839
 31
0.0
  0
LINE
  5
8C5
  8
LAYER_2
 62
     7
 10
-77.0175211395998
 20
-259.3757269316839
 30
0.0
 11
-72.74301891627606
 21
-246.0786918872651
 31
0.0
  0
LINE
  5
8C6
  8
LAYER_2
 62
     7
 10
-72.74301891627606
 20
-246.0786918872651
 30
0.0
 11
-69.00560707910277
 21
-232.1629176936954
 31
0.0
  0
LINE
  5
8C7
  8
LAYER_2
 62
     7
 10
-69.00560707910277
 20
-232.1629176936954
 30
0.0
 11
-65.34502087125055
 21
-215.0904025069913
 31
0.0
  0
LINE
  5
8C8
  8
LAYER_2
 62
     7
 10
-65.34502087125055
 20
-215.0904025069913
 30
0.0
 11
-62.53227266231832
 21
-197.4384222596682
 31
0.0
  0
LINE
  5
8C9
  8
LAYER_2
 62
     7
 10
-62.53227266231832
 20
-197.4384222596682
 30
0.0
 11
-60.60749781470924
 21
-179.3654513440475
 31
0.0
  0
LINE
  5
8CA
  8
LAYER_2
 62
     7
 10
-60.60749781470924
 20
-179.3654513440475
 30
0.0
 11
-59.59343395862595
 21
-161.0323757192905
 31
0.0
  0
ENDBLK
  5
8CC
  8
0
  0
BLOCK
  8
0
  2
BLOCK_64
 70
     0
 10
0.0
 20
0.0
 30
0.0
  3
BLOCK_64
  1

  0
INSERT
  5
8D6
  8
LAYER_2
  2
BLOCK_65
 10
0.0
 20
0.0
 30
0.0
  0
ENDBLK
  5
8D8
  8
0
  0
BLOCK
  8
0
  2
BLOCK_65
 70
     0
 10
0.0
 20
0.0
 30
0.0
  3
BLOCK_65
  1

  0
ARC
  5
8D3
  8
LAYER_2
 62
     7
 10
290.5698433018754
 20
376.3612380724442
 30
0.0
 40
299.9979239715541
 50
136.4444484077604
 51
144.7276421999712
  0
ENDBLK
  5
8D5
  8
0
  0
BLOCK
  8
0
  2
BLOCK_62
 70
     0
 10
0.0
 20
0.0
 30
0.0
  3
BLOCK_62
  1

  0
INSERT
  5
8DF
  8
LAYER_2
  2
BLOCK_63
 10
0.0
 20
0.0
 30
0.0
  0
ENDBLK
  5
8E1
  8
0
  0
BLOCK
  8
0
  2
BLOCK_63
 70
     0
 10
0.0
 20
0.0
 30
0.0
  3
BLOCK_63
  1

  0
ARC
  5
8DC
  8
LAYER_2
 62
     7
 10
65.9123915167346
 20
589.9676098824301
 30
0.0
 40
9.999902989331623
 50
316.4442088449214
 51
90.0007773613701
  0
ENDBLK
  5
8DE
  8
0
  0
BLOCK
  8
0
  2
BLOCK_60
 70
     0
 10
0.0
 20
0.0
 30
0.0
  3
BLOCK_60
  1

  0
INSERT
  5
8E8
  8
LAYER_2
  2
BLOCK_61
 10
0.0
 20
0.0
 30
0.0
  0
ENDBLK
  5
8EA
  8
0
  0
BLOCK
  8
0
  2
BLOCK_61
 70
     0
 10
0.0
 20
0.0
 30
0.0
  3
BLOCK_61
  1

  0
LINE
  5
8E5
  8
LAYER_2
 62
     7
 10
65.91225584289694
 20
599.9675128708415
 30
0.0
 11
-9.427848304934704
 21
599.9675128708415
 31
0.0
  0
ENDBLK
  5
8E7
  8
0
  0
BLOCK
  8
0
  2
BLOCK_58
 70
     0
 10
0.0
 20
0.0
 30
0.0
  3
BLOCK_58
  1

  0
INSERT
  5
8F1
  8
LAYER_2
  2
BLOCK_59
 10
0.0
 20
0.0
 30
0.0
  0
ENDBLK
  5
8F3
  8
0
  0
BLOCK
  8
0
  2
BLOCK_59
 70
     0
 10
0.0
 20
0.0
 30
0.0
  3
BLOCK_59
  1

  0
ARC
  5
8EE
  8
LAYER_2
 62
     7
 10
-9.42784003917339
 20
549.9676280442294
 30
0.0
 40
49.99988482661274
 50
90.00000947188657
 51
179.9999905281134
  0
ENDBLK
  5
8F0
  8
0
  0
BLOCK
  8
0
  2
BLOCK_56
 70
     0
 10
0.0
 20
0.0
 30
0.0
  3
BLOCK_56
  1

  0
INSERT
  5
8FA
  8
LAYER_2
  2
BLOCK_57
 10
0.0
 20
0.0
 30
0.0
  0
ENDBLK
  5
8FC
  8
0
  0
BLOCK
  8
0
  2
BLOCK_57
 70
     0
 10
0.0
 20
0.0
 30
0.0
  3
BLOCK_57
  1

  0
LINE
  5
8F7
  8
LAYER_2
 62
     7
 10
-59.42772486578544
 20
549.9676363099908
 30
0.0
 11
-59.42772486578544
 21
449.967710933515
 31
0.0
  0
ENDBLK
  5
8F9
  8
0
  0
BLOCK
  8
0
  2
BLOCK_54
 70
     0
 10
0.0
 20
0.0
 30
0.0
  3
BLOCK_54
  1

  0
INSERT
  5
903
  8
LAYER_2
  2
BLOCK_55
 10
0.0
 20
0.0
 30
0.0
  0
ENDBLK
  5
905
  8
0
  0
BLOCK
  8
0
  2
BLOCK_55
 70
     0
 10
0.0
 20
0.0
 30
0.0
  3
BLOCK_55
  1

  0
LINE
  5
900
  8
LAYER_2
 62
     7
 10
-44.42777912300764
 20
449.967710933515
 30
0.0
 11
-59.42772486578544
 21
449.967710933515
 31
0.0
  0
ENDBLK
  5
902
  8
0
  0
BLOCK
  8
0
  2
BLOCK_52
 70
     0
 10
0.0
 20
0.0
 30
0.0
  3
BLOCK_52
  1

  0
INSERT
  5
90D
  8
LAYER_2
  2
BLOCK_53
 10
0.0
 20
0.0
 30
0.0
  0
ENDBLK
  5
90F
  8
0
  0
BLOCK
  8
0
  2
BLOCK_53
 70
     0
 10
0.0
 20
0.0
 30
0.0
  3
BLOCK_53
  1

  0
LINE
  5
909
  8
LAYER_2
 62
     7
 10
-10.18783636898082
 20
676.6381128950766
 30
0.0
 11
-14.17691243135161
 21
676.7242402822079
 31
0.0
  0
LINE
  5
90A
  8
LAYER_2
 62
     7
 10
-14.17691243135161
 20
676.7242402822079
 30
0.0
 11
-18.18786485005373
 21
676.4107365930502
 31
0.0
  0
ENDBLK
  5
90C
  8
0
  0
BLOCK
  8
0
  2
BLOCK_50
 70
     0
 10
0.0
 20
0.0
 30
0.0
  3
BLOCK_50
  1

  0
INSERT
  5
916
  8
LAYER_2
  2
BLOCK_51
 10
0.0
 20
0.0
 30
0.0
  0
ENDBLK
  5
918
  8
0
  0
BLOCK
  8
0
  2
BLOCK_51
 70
     0
 10
0.0
 20
0.0
 30
0.0
  3
BLOCK_51
  1

  0
ARC
  5
913
  8
LAYER_2
 62
     7
 10
-463.3257404979186
 20
-49.46045313472439
 30
0.0
 40
300.3368486199986
 50
324.7282587131879
 51
326.5767992520251
  0
ENDBLK
  5
915
  8
0
  0
BLOCK
  8
0
  2
BLOCK_48
 70
     0
 10
0.0
 20
0.0
 30
0.0
  3
BLOCK_48
  1

  0
INSERT
  5
926
  8
LAYER_2
  2
BLOCK_49
 10
0.0
 20
0.0
 30
0.0
  0
ENDBLK
  5
928
  8
0
  0
BLOCK
  8
0
  2
BLOCK_49
 70
     0
 10
0.0
 20
0.0
 30
0.0
  3
BLOCK_49
  1

  0
LINE
  5
91C
  8
LAYER_2
 62
     7
 10
33.55557453588194
 20
650.6724282227486
 30
0.0
 11
26.70551892778543
 21
657.7646740434582
 31
0.0
  0
LINE
  5
91D
  8
LAYER_2
 62
     7
 10
26.70551892778543
 20
657.7646740434582
 30
0.0
 11
19.95364854101853
 21
663.6066947125706
 31
0.0
  0
LINE
  5
91E
  8
LAYER_2
 62
     7
 10
19.95364854101853
 20
663.6066947125706
 30
0.0
 11
13.41744113162828
 21
668.2355250065523
 31
0.0
  0
LINE
  5
91F
  8
LAYER_2
 62
     7
 10
13.41744113162828
 20
668.2355250065523
 30
0.0
 11
7.189914277716411
 21
671.7233396758191
 31
0.0
  0
LINE
  5
920
  8
LAYER_2
 62
     7
 10
7.189914277716411
 20
671.7233396758191
 30
0.0
 11
1.314992946719863
 21
674.191233826678
 31
0.0
  0
LINE
  5
921
  8
LAYER_2
 62
     7
 10
1.314992946719863
 20
674.191233826678
 30
0.0
 11
-4.2209309885281
 21
675.770810106665
 31
0.0
  0
LINE
  5
922
  8
LAYER_2
 62
     7
 10
-4.2209309885281
 20
675.770810106665
 30
0.0
 11
-9.501573348319052
 21
676.5833358768612
 31
0.0
  0
LINE
  5
923
  8
LAYER_2
 62
     7
 10
-9.501573348319052
 20
676.5833358768612
 30
0.0
 11
-10.18783636898082
 21
676.6381128950766
 31
0.0
  0
ENDBLK
  5
925
  8
0
  0
BLOCK
  8
0
  2
BLOCK_46
 70
     0
 10
0.0
 20
0.0
 30
0.0
  3
BLOCK_46
  1

  0
INSERT
  5
960
  8
LAYER_2
  2
BLOCK_47
 10
0.0
 20
0.0
 30
0.0
  0
ENDBLK
  5
962
  8
0
  0
BLOCK
  8
0
  2
BLOCK_47
 70
     0
 10
0.0
 20
0.0
 30
0.0
  3
BLOCK_47
  1

  0
LINE
  5
92C
  8
LAYER_2
 62
     7
 10
33.55557453588194
 20
714.3669038470159
 30
0.0
 11
28.14367403810297
 21
717.1281478784437
 31
0.0
  0
LINE
  5
92D
  8
LAYER_2
 62
     7
 10
28.14367403810297
 20
717.1281478784437
 30
0.0
 11
22.67303466230049
 21
719.5471216734119
 31
0.0
  0
LINE
  5
92E
  8
LAYER_2
 62
     7
 10
22.67303466230049
 20
719.5471216734119
 30
0.0
 11
17.15158012809058
 21
721.6202078816609
 31
0.0
  0
LINE
  5
92F
  8
LAYER_2
 62
     7
 10
17.15158012809058
 20
721.6202078816609
 30
0.0
 11
11.58706190031504
 21
723.344822681577
 31
0.0
  0
LINE
  5
930
  8
LAYER_2
 62
     7
 10
11.58706190031504
 20
723.344822681577
 30
0.0
 11
5.987575953364217
 21
724.7183822515461
 31
0.0
  0
LINE
  5
931
  8
LAYER_2
 62
     7
 10
5.987575953364217
 20
724.7183822515461
 30
0.0
 11
0.3608737520799205
 21
725.7388195342771
 31
0.0
  0
LINE
  5
932
  8
LAYER_2
 62
     7
 10
0.3608737520799205
 20
725.7388195342771
 30
0.0
 11
-5.284776474373251
 21
726.4047564915759
 31
0.0
  0
LINE
  5
933
  8
LAYER_2
 62
     7
 10
-5.284776474373251
 20
726.4047564915759
 30
0.0
 11
-10.94162326115348
 21
726.7153318495712
 31
0.0
  0
LINE
  5
934
  8
LAYER_2
 62
     7
 10
-10.94162326115348
 20
726.7153318495712
 30
0.0
 11
-16.60139837909618
 21
726.6698565891659
 31
0.0
  0
LINE
  5
935
  8
LAYER_2
 62
     7
 10
-16.60139837909618
 20
726.6698565891659
 30
0.0
 11
-22.256005853811
 21
726.2685029651343
 31
0.0
  0
LINE
  5
936
  8
LAYER_2
 62
     7
 10
-22.256005853811
 20
726.2685029651343
 30
0.0
 11
-27.89769422045613
 21
725.5119599965734
 31
0.0
  0
LINE
  5
937
  8
LAYER_2
 62
     7
 10
-27.89769422045613
 20
725.5119599965734
 30
0.0
 11
-33.51819524986698
 21
724.4014334669032
 31
0.0
  0
LINE
  5
938
  8
LAYER_2
 62
     7
 10
-33.51819524986698
 20
724.4014334669032
 30
0.0
 11
-39.10941296765321
 21
722.9381291595432
 31
0.0
  0
LINE
  5
939
  8
LAYER_2
 62
     7
 10
-39.10941296765321
 20
722.9381291595432
 30
0.0
 11
-44.66376816374726
 21
721.1242863865592
 31
0.0
  0
LINE
  5
93A
  8
LAYER_2
 62
     7
 10
-44.66376816374726
 20
721.1242863865592
 30
0.0
 11
-50.17299260898453
 21
718.9626612243392
 31
0.0
  0
LINE
  5
93B
  8
LAYER_2
 62
     7
 10
-50.17299260898453
 20
718.9626612243392
 30
0.0
 11
-55.62933483852323
 21
716.4560097492714
 31
0.0
  0
LINE
  5
93C
  8
LAYER_2
 62
     7
 10
-55.62933483852323
 20
716.4560097492714
 30
0.0
 11
-61.02504338752152
 21
713.6081215663896
 31
0.0
  0
LINE
  5
93D
  8
LAYER_2
 62
     7
 10
-61.02504338752152
 20
713.6081215663896
 30
0.0
 11
-66.35253904591187
 21
710.422958535502
 31
0.0
  0
LINE
  5
93E
  8
LAYER_2
 62
     7
 10
-66.35253904591187
 20
710.422958535502
 30
0.0
 11
-71.60407034885246
 21
706.9051715355133
 31
0.0
  0
LINE
  5
93F
  8
LAYER_2
 62
     7
 10
-71.60407034885246
 20
706.9051715355133
 30
0.0
 11
-76.77223034105
 21
703.0595837001032
 31
0.0
  0
LINE
  5
940
  8
LAYER_2
 62
     7
 10
-76.77223034105
 20
703.0595837001032
 30
0.0
 11
-81.84961206721121
 21
698.8918794368223
 31
0.0
  0
LINE
  5
941
  8
LAYER_2
 62
     7
 10
-81.84961206721121
 20
698.8918794368223
 30
0.0
 11
-86.82915308159133
 21
694.4079154079952
 31
0.0
  0
LINE
  5
942
  8
LAYER_2
 62
     7
 10
-86.82915308159133
 20
694.4079154079952
 30
0.0
 11
-91.70361868367132
 21
689.6140650402701
 31
0.0
  0
LINE
  5
943
  8
LAYER_2
 62
     7
 10
-91.70361868367132
 20
689.6140650402701
 30
0.0
 11
-96.4661186824807
 21
684.517046269843
 31
0.0
  0
LINE
  5
944
  8
LAYER_2
 62
     7
 10
-96.4661186824807
 20
684.517046269843
 30
0.0
 11
-101.109762887049
 21
679.124093797233
 31
0.0
  0
LINE
  5
945
  8
LAYER_2
 62
     7
 10
-101.109762887049
 20
679.124093797233
 30
0.0
 11
-105.6281778707284
 21
673.4433035968302
 31
0.0
  0
LINE
  5
946
  8
LAYER_2
 62
     7
 10
-105.6281778707284
 20
673.4433035968302
 30
0.0
 11
-110.0146456973227
 21
667.4822548787024
 31
0.0
  0
LINE
  5
947
  8
LAYER_2
 62
     7
 10
-110.0146456973227
 20
667.4822548787024
 30
0.0
 11
-114.2631374497328
 21
661.249732636337
 31
0.0
  0
LINE
  5
948
  8
LAYER_2
 62
     7
 10
-114.2631374497328
 20
661.249732636337
 30
0.0
 11
-118.3676242108595
 21
654.7545218632212
 31
0.0
  0
LINE
  5
949
  8
LAYER_2
 62
     7
 10
-118.3676242108595
 20
654.7545218632212
 30
0.0
 11
-122.3220770636035
 21
648.0057520623909
 31
0.0
  0
LINE
  5
94A
  8
LAYER_2
 62
     7
 10
-122.3220770636035
 20
648.0057520623909
 30
0.0
 11
-126.1209838551885
 21
641.0132417559794
 31
0.0
  0
LINE
  5
94B
  8
LAYER_2
 62
     7
 10
-126.1209838551885
 20
641.0132417559794
 30
0.0
 11
-129.7588324328381
 21
633.7868094661193
 31
0.0
  0
LINE
  5
94C
  8
LAYER_2
 62
     7
 10
-129.7588324328381
 20
633.7868094661193
 30
0.0
 11
-133.2306274080986
 21
626.3367904792665
 31
0.0
  0
LINE
  5
94D
  8
LAYER_2
 62
     7
 10
-133.2306274080986
 20
626.3367904792665
 30
0.0
 11
-136.5312011377422
 21
618.6738645914253
 31
0.0
  0
LINE
  5
94E
  8
LAYER_2
 62
     7
 10
-136.5312011377422
 20
618.6738645914253
 30
0.0
 11
-139.6560749976381
 21
610.8087115986
 31
0.0
  0
LINE
  5
94F
  8
LAYER_2
 62
     7
 10
-139.6560749976381
 20
610.8087115986
 30
0.0
 11
-142.6005981088811
 21
602.752872570666
 31
0.0
  0
LINE
  5
950
  8
LAYER_2
 62
     7
 10
-142.6005981088811
 20
602.752872570666
 30
0.0
 11
-145.360636356889
 21
594.5173718131763
 31
0.0
  0
LINE
  5
951
  8
LAYER_2
 62
     7
 10
-145.360636356889
 20
594.5173718131763
 30
0.0
 11
-147.932400136628
 21
586.1144394151033
 31
0.0
  0
LINE
  5
952
  8
LAYER_2
 62
     7
 10
-147.932400136628
 20
586.1144394151033
 30
0.0
 11
-150.3120998430643
 21
577.5556164463229
 31
0.0
  0
LINE
  5
953
  8
LAYER_2
 62
     7
 10
-150.3120998430643
 20
577.5556164463229
 30
0.0
 11
-152.496462635487
 21
568.8534775053561
 31
0.0
  0
LINE
  5
954
  8
LAYER_2
 62
     7
 10
-152.496462635487
 20
568.8534775053561
 30
0.0
 11
-154.482215673185
 21
560.019908171627
 31
0.0
  0
LINE
  5
955
  8
LAYER_2
 62
     7
 10
-154.482215673185
 20
560.019908171627
 30
0.0
 11
-156.2666028797702
 21
551.0679998079795
 31
0.0
  0
LINE
  5
956
  8
LAYER_2
 62
     7
 10
-156.2666028797702
 20
551.0679998079795
 30
0.0
 11
-157.8470404336285
 21
542.0101547581606
 31
0.0
  0
LINE
  5
957
  8
LAYER_2
 62
     7
 10
-157.8470404336285
 20
542.0101547581606
 30
0.0
 11
-159.221461277469
 21
532.8594643850143
 31
0.0
  0
LINE
  5
958
  8
LAYER_2
 62
     7
 10
-159.221461277469
 20
532.8594643850143
 30
0.0
 11
-160.387626099226
 21
523.628675541836
 31
0.0
  0
LINE
  5
959
  8
LAYER_2
 62
     7
 10
-160.387626099226
 20
523.628675541836
 30
0.0
 11
-161.3441568607056
 21
514.3313963557922
 31
0.0
  0
LINE
  5
95A
  8
LAYER_2
 62
     7
 10
-161.3441568607056
 20
514.3313963557922
 30
0.0
 11
-162.0893310141652
 21
504.9803736801786
 31
0.0
  0
LINE
  5
95B
  8
LAYER_2
 62
     7
 10
-162.0893310141652
 20
504.9803736801786
 30
0.0
 11
-162.6226317952818
 21
495.589387896936
 31
0.0
  0
LINE
  5
95C
  8
LAYER_2
 62
     7
 10
-162.6226317952818
 20
495.589387896936
 30
0.0
 11
-162.9426811658616
 21
486.1713581141343
 31
0.0
  0
LINE
  5
95D
  8
LAYER_2
 62
     7
 10
-162.9426811658616
 20
486.1713581141343
 30
0.0
 11
-163.0494791259043
 21
476.7398924589401
 31
0.0
  0
ENDBLK
  5
95F
  8
0
  0
BLOCK
  8
0
  2
BLOCK_44
 70
     0
 10
0.0
 20
0.0
 30
0.0
  3
BLOCK_44
  1

  0
INSERT
  5
969
  8
LAYER_2
  2
BLOCK_45
 10
0.0
 20
0.0
 30
0.0
  0
ENDBLK
  5
96B
  8
0
  0
BLOCK
  8
0
  2
BLOCK_45
 70
     0
 10
0.0
 20
0.0
 30
0.0
  3
BLOCK_45
  1

  0
LINE
  5
966
  8
LAYER_2
 62
     7
 10
-163.0494791259043
 20
476.7398924589401
 30
0.0
 11
-163.0494791259043
 21
-49.65312770026033
 31
0.0
  0
ENDBLK
  5
968
  8
0
  0
BLOCK
  8
0
  2
BLOCK_42
 70
     0
 10
0.0
 20
0.0
 30
0.0
  3
BLOCK_42
  1

  0
INSERT
  5
972
  8
LAYER_2
  2
BLOCK_43
 10
0.0
 20
0.0
 30
0.0
  0
ENDBLK
  5
974
  8
0
  0
BLOCK
  8
0
  2
BLOCK_43
 70
     0
 10
0.0
 20
0.0
 30
0.0
  3
BLOCK_43
  1

  0
ARC
  5
96F
  8
LAYER_2
 62
     7
 10
-463.0495052432142
 20
-49.65338377662324
 30
0.0
 40
300.0000261174192
 50
326.5784931362877
 51
0.0000489069785055
  0
ENDBLK
  5
971
  8
0
  0
BLOCK
  8
0
  2
BLOCK_40
 70
     0
 10
0.0
 20
0.0
 30
0.0
  3
BLOCK_40
  1

  0
INSERT
  5
97B
  8
LAYER_2
  2
BLOCK_41
 10
0.0
 20
0.0
 30
0.0
  0
ENDBLK
  5
97D
  8
0
  0
BLOCK
  8
0
  2
BLOCK_41
 70
     0
 10
0.0
 20
0.0
 30
0.0
  3
BLOCK_41
  1

  0
LINE
  5
978
  8
LAYER_2
 62
     7
 10
33.55557453588194
 20
714.3669038470159
 30
0.0
 11
33.55557453588194
 21
650.6724282227486
 31
0.0
  0
ENDBLK
  5
97A
  8
0
  0
BLOCK
  8
0
  2
BLOCK_38
 70
     0
 10
0.0
 20
0.0
 30
0.0
  3
BLOCK_38
  1

  0
INSERT
  5
984
  8
LAYER_2
  2
BLOCK_39
 10
0.0
 20
0.0
 30
0.0
  0
ENDBLK
  5
986
  8
0
  0
BLOCK
  8
0
  2
BLOCK_39
 70
     0
 10
0.0
 20
0.0
 30
0.0
  3
BLOCK_39
  1

  0
ARC
  5
981
  8
LAYER_2
 62
     7
 10
-128.0495483078313
 20
-120.2600151609072
 30
0.0
 40
2.999989148555542
 50
90.00000000000108
 51
269.9999999999989
  0
ENDBLK
  5
983
  8
0
  0
BLOCK
  8
0
  2
BLOCK_36
 70
     0
 10
0.0
 20
0.0
 30
0.0
  3
BLOCK_36
  1

  0
INSERT
  5
98D
  8
LAYER_2
  2
BLOCK_37
 10
0.0
 20
0.0
 30
0.0
  0
ENDBLK
  5
98F
  8
0
  0
BLOCK
  8
0
  2
BLOCK_37
 70
     0
 10
0.0
 20
0.0
 30
0.0
  3
BLOCK_37
  1

  0
LINE
  5
98A
  8
LAYER_2
 62
     7
 10
-128.0495483078314
 20
-108.260058566685
 30
0.0
 11
-128.0495483078314
 21
-117.2600260123517
 31
0.0
  0
ENDBLK
  5
98C
  8
0
  0
BLOCK
  8
0
  2
BLOCK_34
 70
     0
 10
0.0
 20
0.0
 30
0.0
  3
BLOCK_34
  1

  0
INSERT
  5
996
  8
LAYER_2
  2
BLOCK_35
 10
0.0
 20
0.0
 30
0.0
  0
ENDBLK
  5
998
  8
0
  0
BLOCK
  8
0
  2
BLOCK_35
 70
     0
 10
0.0
 20
0.0
 30
0.0
  3
BLOCK_35
  1

  0
ARC
  5
993
  8
LAYER_2
 62
     7
 10
-128.0495483078314
 20
-105.2600694181295
 30
0.0
 40
2.999989148555557
 50
90.00000000000054
 51
269.9999999999994
  0
ENDBLK
  5
995
  8
0
  0
BLOCK
  8
0
  2
BLOCK_32
 70
     0
 10
0.0
 20
0.0
 30
0.0
  3
BLOCK_32
  1

  0
INSERT
  5
99F
  8
LAYER_2
  2
BLOCK_33
 10
0.0
 20
0.0
 30
0.0
  0
ENDBLK
  5
9A1
  8
0
  0
BLOCK
  8
0
  2
BLOCK_33
 70
     0
 10
0.0
 20
0.0
 30
0.0
  3
BLOCK_33
  1

  0
LINE
  5
99C
  8
LAYER_2
 62
     7
 10
-113.0494303102793
 20
-102.2600802695739
 30
0.0
 11
-128.0495483078314
 21
-102.2600802695739
 31
0.0
  0
ENDBLK
  5
99E
  8
0
  0
BLOCK
  8
0
  2
BLOCK_30
 70
     0
 10
0.0
 20
0.0
 30
0.0
  3
BLOCK_30
  1

  0
INSERT
  5
9A8
  8
LAYER_2
  2
BLOCK_31
 10
0.0
 20
0.0
 30
0.0
  0
ENDBLK
  5
9AA
  8
0
  0
BLOCK
  8
0
  2
BLOCK_31
 70
     0
 10
0.0
 20
0.0
 30
0.0
  3
BLOCK_31
  1

  0
LINE
  5
9A5
  8
LAYER_2
 62
     7
 10
-113.0494303102793
 20
-102.2600802695739
 30
0.0
 11
-113.0494303102793
 21
466.7399860486796
 31
0.0
  0
ENDBLK
  5
9A7
  8
0
  0
BLOCK
  8
0
  2
BLOCK_28
 70
     0
 10
0.0
 20
0.0
 30
0.0
  3
BLOCK_28
  1

  0
INSERT
  5
9B1
  8
LAYER_2
  2
BLOCK_29
 10
0.0
 20
0.0
 30
0.0
  0
ENDBLK
  5
9B3
  8
0
  0
BLOCK
  8
0
  2
BLOCK_29
 70
     0
 10
0.0
 20
0.0
 30
0.0
  3
BLOCK_29
  1

  0
LINE
  5
9AE
  8
LAYER_2
 62
     7
 10
-128.0495483078314
 20
466.7399860486796
 30
0.0
 11
-113.0494303102793
 21
466.7399860486796
 31
0.0
  0
ENDBLK
  5
9B0
  8
0
  0
BLOCK
  8
0
  2
BLOCK_26
 70
     0
 10
0.0
 20
0.0
 30
0.0
  3
BLOCK_26
  1

  0
INSERT
  5
9BA
  8
LAYER_2
  2
BLOCK_27
 10
0.0
 20
0.0
 30
0.0
  0
ENDBLK
  5
9BC
  8
0
  0
BLOCK
  8
0
  2
BLOCK_27
 70
     0
 10
0.0
 20
0.0
 30
0.0
  3
BLOCK_27
  1

  0
ARC
  5
9B7
  8
LAYER_2
 62
     7
 10
-128.0495483078313
 20
469.7399751972351
 30
0.0
 40
2.999989148555585
 50
90.00000000000108
 51
269.9999999999989
  0
ENDBLK
  5
9B9
  8
0
  0
BLOCK
  8
0
  2
BLOCK_24
 70
     0
 10
0.0
 20
0.0
 30
0.0
  3
BLOCK_24
  1

  0
INSERT
  5
9C3
  8
LAYER_2
  2
BLOCK_25
 10
0.0
 20
0.0
 30
0.0
  0
ENDBLK
  5
9C5
  8
0
  0
BLOCK
  8
0
  2
BLOCK_25
 70
     0
 10
0.0
 20
0.0
 30
0.0
  3
BLOCK_25
  1

  0
LINE
  5
9C0
  8
LAYER_2
 62
     7
 10
-128.0495483078314
 20
481.7399317914574
 30
0.0
 11
-128.0495483078314
 21
472.7399643457907
 31
0.0
  0
ENDBLK
  5
9C2
  8
0
  0
BLOCK
  8
0
  2
BLOCK_22
 70
     0
 10
0.0
 20
0.0
 30
0.0
  3
BLOCK_22
  1

  0
INSERT
  5
9CC
  8
LAYER_2
  2
BLOCK_23
 10
0.0
 20
0.0
 30
0.0
  0
ENDBLK
  5
9CE
  8
0
  0
BLOCK
  8
0
  2
BLOCK_23
 70
     0
 10
0.0
 20
0.0
 30
0.0
  3
BLOCK_23
  1

  0
ARC
  5
9C9
  8
LAYER_2
 62
     7
 10
-128.0495483078313
 20
484.739920940013
 30
0.0
 40
2.999989148555528
 50
90.00000000000108
 51
269.9999999999989
  0
ENDBLK
  5
9CB
  8
0
  0
BLOCK
  8
0
  2
BLOCK_20
 70
     0
 10
0.0
 20
0.0
 30
0.0
  3
BLOCK_20
  1

  0
INSERT
  5
9D5
  8
LAYER_2
  2
BLOCK_21
 10
0.0
 20
0.0
 30
0.0
  0
ENDBLK
  5
9D7
  8
0
  0
BLOCK
  8
0
  2
BLOCK_21
 70
     0
 10
0.0
 20
0.0
 30
0.0
  3
BLOCK_21
  1

  0
LINE
  5
9D2
  8
LAYER_2
 62
     7
 10
-112.8838934722131
 20
487.7399100885685
 30
0.0
 11
-128.0495483078314
 21
487.7399100885685
 31
0.0
  0
ENDBLK
  5
9D4
  8
0
  0
BLOCK
  8
0
  2
BLOCK_18
 70
     0
 10
0.0
 20
0.0
 30
0.0
  3
BLOCK_18
  1

  0
INSERT
  5
9F1
  8
LAYER_2
  2
BLOCK_19
 10
0.0
 20
0.0
 30
0.0
  0
ENDBLK
  5
9F3
  8
0
  0
BLOCK
  8
0
  2
BLOCK_19
 70
     0
 10
0.0
 20
0.0
 30
0.0
  3
BLOCK_19
  1

  0
LINE
  5
9DB
  8
LAYER_2
 62
     7
 10
-18.18786485005373
 20
676.4107365930502
 30
0.0
 11
-22.95053710363737
 21
675.5225909769528
 31
0.0
  0
LINE
  5
9DC
  8
LAYER_2
 62
     7
 10
-22.95053710363737
 20
675.5225909769528
 30
0.0
 11
-27.93455674214831
 21
674.0051986704744
 31
0.0
  0
LINE
  5
9DD
  8
LAYER_2
 62
     7
 10
-27.93455674214831
 20
674.0051986704744
 30
0.0
 11
-33.1929782360594
 21
671.7700207196443
 31
0.0
  0
LINE
  5
9DE
  8
LAYER_2
 62
     7
 10
-33.1929782360594
 20
671.7700207196443
 30
0.0
 11
-38.73406981453523
 21
668.7228337629408
 31
0.0
  0
LINE
  5
9DF
  8
LAYER_2
 62
     7
 10
-38.73406981453523
 20
668.7228337629408
 30
0.0
 11
-44.4086588430645
 21
664.8650158385581
 31
0.0
  0
LINE
  5
9E0
  8
LAYER_2
 62
     7
 10
-44.4086588430645
 20
664.8650158385581
 30
0.0
 11
-50.26979979212005
 21
660.0866684005166
 31
0.0
  0
LINE
  5
9E1
  8
LAYER_2
 62
     7
 10
-50.26979979212005
 20
660.0866684005166
 30
0.0
 11
-56.23997801328376
 21
654.3614364683541
 31
0.0
  0
LINE
  5
9E2
  8
LAYER_2
 62
     7
 10
-56.23997801328376
 20
654.3614364683541
 30
0.0
 11
-62.23978405562061
 21
647.6658933927711
 31
0.0
  0
LINE
  5
9E3
  8
LAYER_2
 62
     7
 10
-62.23978405562061
 20
647.6658933927711
 30
0.0
 11
-68.18998072296986
 21
640.0048623074467
 31
0.0
  0
LINE
  5
9E4
  8
LAYER_2
 62
     7
 10
-68.18998072296986
 20
640.0048623074467
 30
0.0
 11
-74.01064180007373
 21
631.410382600394
 31
0.0
  0
LINE
  5
9E5
  8
LAYER_2
 62
     7
 10
-74.01064180007373
 20
631.410382600394
 30
0.0
 11
-79.90209958939948
 21
621.4094426614879
 31
0.0
  0
LINE
  5
9E6
  8
LAYER_2
 62
     7
 10
-79.90209958939948
 20
621.4094426614879
 30
0.0
 11
-85.48573809711816
 21
610.4735038078851
 31
0.0
  0
LINE
  5
9E7
  8
LAYER_2
 62
     7
 10
-85.48573809711816
 20
610.4735038078851
 30
0.0
 11
-90.69334443262181
 21
598.673707261356
 31
0.0
  0
LINE
  5
9E8
  8
LAYER_2
 62
     7
 10
-90.69334443262181
 20
598.673707261356
 30
0.0
 11
-95.45980629123922
 21
586.0834335557361
 31
0.0
  0
LINE
  5
9E9
  8
LAYER_2
 62
     7
 10
-95.45980629123922
 20
586.0834335557361
 30
0.0
 11
-99.73430851456295
 21
572.7863985113173
 31
0.0
  0
LINE
  5
9EA
  8
LAYER_2
 62
     7
 10
-99.73430851456295
 20
572.7863985113173
 30
0.0
 11
-103.4717203517362
 21
558.8704520629734
 31
0.0
  0
LINE
  5
9EB
  8
LAYER_2
 62
     7
 10
-103.4717203517362
 20
558.8704520629734
 30
0.0
 11
-107.1323065595885
 21
541.797764621495
 31
0.0
  0
LINE
  5
9EC
  8
LAYER_2
 62
     7
 10
-107.1323065595885
 20
541.797764621495
 30
0.0
 11
-109.9450547685207
 21
524.1461288837204
 31
0.0
  0
LINE
  5
9ED
  8
LAYER_2
 62
     7
 10
-109.9450547685207
 20
524.1461288837204
 30
0.0
 11
-111.8698296161298
 21
506.0731579680998
 31
0.0
  0
LINE
  5
9EE
  8
LAYER_2
 62
     7
 10
-111.8698296161298
 20
506.0731579680998
 30
0.0
 11
-112.8838934722131
 21
487.7399100885685
 31
0.0
  0
ENDBLK
  5
9F0
  8
0
  0
BLOCK
  8
0
  2
BLOCK_16
 70
     0
 10
0.0
 20
0.0
 30
0.0
  3
BLOCK_16
  1

  0
INSERT
  5
9FA
  8
LAYER_2
  2
BLOCK_17
 10
0.0
 20
0.0
 30
0.0
  0
ENDBLK
  5
9FC
  8
0
  0
BLOCK
  8
0
  2
BLOCK_17
 70
     0
 10
0.0
 20
0.0
 30
0.0
  3
BLOCK_17
  1

  0
ARC
  5
9F7
  8
LAYER_2
 62
     7
 10
-463.0631663707373
 20
-49.64256836689373
 30
0.0
 40
300.0173138538495
 50
316.445034845204
 51
324.7276969073907
  0
ENDBLK
  5
9F9
  8
0
  0
BLOCK
  8
0
  2
BLOCK_14
 70
     0
 10
0.0
 20
0.0
 30
0.0
  3
BLOCK_14
  1

  0
INSERT
  5
A03
  8
LAYER_2
  2
BLOCK_15
 10
0.0
 20
0.0
 30
0.0
  0
ENDBLK
  5
A05
  8
0
  0
BLOCK
  8
0
  2
BLOCK_15
 70
     0
 10
0.0
 20
0.0
 30
0.0
  3
BLOCK_15
  1

  0
ARC
  5
A00
  8
LAYER_2
 62
     7
 10
-238.3892941609072
 20
-263.2600691440095
 30
0.0
 40
10.00008161301101
 50
136.4452322853651
 51
269.9993304581317
  0
ENDBLK
  5
A02
  8
0
  0
BLOCK
  8
0
  2
BLOCK_12
 70
     0
 10
0.0
 20
0.0
 30
0.0
  3
BLOCK_12
  1

  0
INSERT
  5
A0C
  8
LAYER_2
  2
BLOCK_13
 10
0.0
 20
0.0
 30
0.0
  0
ENDBLK
  5
A0E
  8
0
  0
BLOCK
  8
0
  2
BLOCK_13
 70
     0
 10
0.0
 20
0.0
 30
0.0
  3
BLOCK_13
  1

  0
LINE
  5
A09
  8
LAYER_2
 62
     7
 10
-238.3894110189617
 20
-273.2601507563377
 30
0.0
 11
-163.0494791259043
 21
-273.2601507563377
 31
0.0
  0
ENDBLK
  5
A0B
  8
0
  0
BLOCK
  8
0
  2
BLOCK_10
 70
     0
 10
0.0
 20
0.0
 30
0.0
  3
BLOCK_10
  1

  0
INSERT
  5
A15
  8
LAYER_2
  2
BLOCK_11
 10
0.0
 20
0.0
 30
0.0
  0
ENDBLK
  5
A17
  8
0
  0
BLOCK
  8
0
  2
BLOCK_11
 70
     0
 10
0.0
 20
0.0
 30
0.0
  3
BLOCK_11
  1

  0
ARC
  5
A12
  8
LAYER_2
 62
     7
 10
-163.0496091945913
 20
-223.2599718720257
 30
0.0
 40
50.00017888448114
 50
270.000149047203
 51
359.9998509527969
  0
ENDBLK
  5
A14
  8
0
  0
BLOCK
  8
0
  2
BLOCK_8
 70
     0
 10
0.0
 20
0.0
 30
0.0
  3
BLOCK_8
  1

  0
INSERT
  5
A1E
  8
LAYER_2
  2
BLOCK_9
 10
0.0
 20
0.0
 30
0.0
  0
ENDBLK
  5
A20
  8
0
  0
BLOCK
  8
0
  2
BLOCK_9
 70
     0
 10
0.0
 20
0.0
 30
0.0
  3
BLOCK_9
  1

  0
LINE
  5
A1B
  8
LAYER_2
 62
     7
 10
-113.0494303102793
 20
-223.2601019407128
 30
0.0
 11
-113.0494303102793
 21
-123.2600043094628
 31
0.0
  0
ENDBLK
  5
A1D
  8
0
  0
BLOCK
  8
0
  2
BLOCK_6
 70
     0
 10
0.0
 20
0.0
 30
0.0
  3
BLOCK_6
  1

  0
INSERT
  5
A27
  8
LAYER_2
  2
BLOCK_7
 10
0.0
 20
0.0
 30
0.0
  0
ENDBLK
  5
A29
  8
0
  0
BLOCK
  8
0
  2
BLOCK_7
 70
     0
 10
0.0
 20
0.0
 30
0.0
  3
BLOCK_7
  1

  0
LINE
  5
A24
  8
LAYER_2
 62
     7
 10
-128.0495483078314
 20
-123.2600043094628
 30
0.0
 11
-113.0494303102793
 21
-123.2600043094628
 31
0.0
  0
ENDBLK
  5
A26
  8
0
  0
BLOCK
  8
0
  2
BLOCK_4
 70
     0
 10
0.0
 20
0.0
 30
0.0
  3
BLOCK_4
  1

  0
INSERT
  5
B16
  8
LAYER_3
  2
BLOCK_5
 10
0.0
 20
0.0
 30
0.0
  0
ENDBLK
  5
B18
  8
0
  0
BLOCK
  8
0
  2
BLOCK_5
 70
     0
 10
0.0
 20
0.0
 30
0.0
  3
BLOCK_5
  1

  0
LINE
  5
A2E
  8
LAYER_3
 62
   173
 10
-23.21184759619357
 20
515.5990192395899
 30
0.0
 11
-23.21184759619357
 21
-144.8383598813251
 31
0.0
  0
LINE
  5
A2F
  8
LAYER_3
 62
   173
 10
-23.21184759619357
 20
-144.8383598813251
 30
0.0
 11
-23.95099283255392
 21
-161.7995984838557
 31
0.0
  0
LINE
  5
A30
  8
LAYER_3
 62
   173
 10
-23.95099283255392
 20
-161.7995984838557
 30
0.0
 11
-25.1524698830348
 21
-179.0460909925649
 31
0.0
  0
LINE
  5
A31
  8
LAYER_3
 62
   173
 10
-25.1524698830348
 20
-179.0460909925649
 30
0.0
 11
-26.92221543380764
 21
-196.4634602373425
 31
0.0
  0
LINE
  5
A32
  8
LAYER_3
 62
   173
 10
-26.92221543380764
 20
-196.4634602373425
 30
0.0
 11
-29.36668293536666
 21
-213.9366400289811
 31
0.0
  0
LINE
  5
A33
  8
LAYER_3
 62
   173
 10
-29.36668293536666
 20
-213.9366400289811
 30
0.0
 11
-32.5931871120774
 21
-231.3515977069191
 31
0.0
  0
LINE
  5
A34
  8
LAYER_3
 62
   173
 10
-32.5931871120774
 20
-231.3515977069191
 30
0.0
 11
-35.74734428359789
 21
-244.91907274693
 31
0.0
  0
LINE
  5
A35
  8
LAYER_3
 62
   173
 10
-35.74734428359789
 20
-244.91907274693
 30
0.0
 11
-39.50370414594005
 21
-258.3242837895856
 31
0.0
  0
LINE
  5
A36
  8
LAYER_3
 62
   173
 10
-39.50370414594005
 20
-258.3242837895856
 30
0.0
 11
-43.91566567912525
 21
-271.5103867593793
 31
0.0
  0
LINE
  5
A37
  8
LAYER_3
 62
   173
 10
-43.91566567912525
 20
-271.5103867593793
 30
0.0
 11
-49.03680011794913
 21
-284.4212265999017
 31
0.0
  0
LINE
  5
A38
  8
LAYER_3
 62
   173
 10
-49.03680011794913
 20
-284.4212265999017
 30
0.0
 11
-54.92085095198159
 21
-296.9992702165488
 31
0.0
  0
LINE
  5
A39
  8
LAYER_3
 62
   173
 10
-54.92085095198159
 20
-296.9992702165488
 30
0.0
 11
-61.62001137782417
 21
-309.1835394192319
 31
0.0
  0
LINE
  5
A3A
  8
LAYER_3
 62
   173
 10
-61.62001137782417
 20
-309.1835394192319
 30
0.0
 11
-69.18699135640117
 21
-320.9137450369591
 31
0.0
  0
LINE
  5
A3B
  8
LAYER_3
 62
   173
 10
-69.18699135640117
 20
-320.9137450369591
 30
0.0
 11
-77.67760143457366
 21
-332.1361435801604
 31
0.0
  0
LINE
  5
A3C
  8
LAYER_3
 62
   173
 10
-77.67760143457366
 20
-332.1361435801604
 30
0.0
 11
-87.1149237520928
 21
-342.7353243500801
 31
0.0
  0
LINE
  5
A3D
  8
LAYER_3
 62
   173
 10
-87.1149237520928
 20
-342.7353243500801
 30
0.0
 11
-97.4722588189479
 21
-352.5021700507634
 31
0.0
  0
LINE
  5
A3E
  8
LAYER_3
 62
   173
 10
-97.4722588189479
 20
-352.5021700507634
 30
0.0
 11
-106.2283135042589
 21
-359.4333576575375
 31
0.0
  0
LINE
  5
A3F
  8
LAYER_3
 62
   173
 10
-106.2283135042589
 20
-359.4333576575375
 30
0.0
 11
-115.506127900811
 21
-365.5794080032232
 31
0.0
  0
LINE
  5
A40
  8
LAYER_3
 62
   173
 10
-115.506127900811
 20
-365.5794080032232
 30
0.0
 11
-125.2860649643382
 21
-370.8187092171912
 31
0.0
  0
LINE
  5
A41
  8
LAYER_3
 62
   173
 10
-125.2860649643382
 20
-370.8187092171912
 30
0.0
 11
-135.5459038289607
 21
-375.0248262951327
 31
0.0
  0
LINE
  5
A42
  8
LAYER_3
 62
   173
 10
-135.5459038289607
 20
-375.0248262951327
 30
0.0
 11
-146.2362073744653
 21
-378.0651230608657
 31
0.0
  0
LINE
  5
A43
  8
LAYER_3
 62
   173
 10
-146.2362073744653
 20
-378.0651230608657
 30
0.0
 11
-148.2893120288999
 21
-378.0651230608657
 31
0.0
  0
LINE
  5
A44
  8
LAYER_3
 62
   173
 10
-148.2893120288999
 20
-378.0651230608657
 30
0.0
 11
-148.7779043327531
 21
-378.0565787017193
 31
0.0
  0
LINE
  5
A45
  8
LAYER_3
 62
   173
 10
-148.7779043327531
 20
-378.0565787017193
 30
0.0
 11
-149.2659008363444
 21
-378.0309885094475
 31
0.0
  0
LINE
  5
A46
  8
LAYER_3
 62
   173
 10
-149.2659008363444
 20
-378.0309885094475
 30
0.0
 11
-149.7527070321021
 21
-377.9883836596076
 31
0.0
  0
LINE
  5
A47
  8
LAYER_3
 62
   173
 10
-149.7527070321021
 20
-377.9883836596076
 30
0.0
 11
-150.2377298625609
 21
-377.9288160560671
 31
0.0
  0
LINE
  5
A48
  8
LAYER_3
 62
   173
 10
-150.2377298625609
 20
-377.9288160560671
 30
0.0
 11
-150.720378442862
 21
-377.8523582677708
 31
0.0
  0
LINE
  5
A49
  8
LAYER_3
 62
   173
 10
-150.720378442862
 20
-377.8523582677708
 30
0.0
 11
-151.2000647806051
 21
-377.759103440333
 31
0.0
  0
LINE
  5
A4A
  8
LAYER_3
 62
   173
 10
-151.2000647806051
 20
-377.759103440333
 30
0.0
 11
-151.6762044921773
 21
-377.6491651825614
 31
0.0
  0
LINE
  5
A4B
  8
LAYER_3
 62
   173
 10
-151.6762044921773
 20
-377.6491651825614
 30
0.0
 11
-152.1482175146852
 21
-377.5226774280524
 31
0.0
  0
LINE
  5
A4C
  8
LAYER_3
 62
   173
 10
-152.1482175146852
 20
-377.5226774280524
 30
0.0
 11
-152.6155288126241
 21
-377.3797942720242
 31
0.0
  0
LINE
  5
A4D
  8
LAYER_3
 62
   173
 10
-152.6155288126241
 20
-377.3797942720242
 30
0.0
 11
-153.077569078421
 21
-377.2206897835893
 31
0.0
  0
LINE
  5
A4E
  8
LAYER_3
 62
   173
 10
-153.077569078421
 20
-377.2206897835893
 30
0.0
 11
-153.5337754260011
 21
-377.0455577936917
 31
0.0
  0
LINE
  5
A4F
  8
LAYER_3
 62
   173
 10
-153.5337754260011
 20
-377.0455577936917
 30
0.0
 11
-153.9835920765299
 21
-376.8546116589709
 31
0.0
  0
LINE
  5
A50
  8
LAYER_3
 62
   173
 10
-153.9835920765299
 20
-376.8546116589709
 30
0.0
 11
-154.4264710354981
 21
-376.6480840018372
 31
0.0
  0
LINE
  5
A51
  8
LAYER_3
 62
   173
 10
-154.4264710354981
 20
-376.6480840018372
 30
0.0
 11
-154.8618727603215
 21
-376.4262264270767
 31
0.0
  0
LINE
  5
A52
  8
LAYER_3
 62
   173
 10
-154.8618727603215
 20
-376.4262264270767
 30
0.0
 11
-155.2892668176464
 21
-376.1893092153311
 31
0.0
  0
LINE
  5
A53
  8
LAYER_3
 62
   173
 10
-155.2892668176464
 20
-376.1893092153311
 30
0.0
 11
-155.7081325295549
 21
-375.9376209938245
 31
0.0
  0
LINE
  5
A54
  8
LAYER_3
 62
   173
 10
-155.7081325295549
 20
-375.9376209938245
 30
0.0
 11
-156.1179596078887
 21
-375.6714683847403
 31
0.0
  0
LINE
  5
A55
  8
LAYER_3
 62
   173
 10
-156.1179596078887
 20
-375.6714683847403
 30
0.0
 11
-156.518248775912
 21
-375.391175631675
 31
0.0
  0
LINE
  5
A56
  8
LAYER_3
 62
   173
 10
-156.518248775912
 20
-375.391175631675
 30
0.0
 11
-156.908512376563
 21
-375.0970842046241
 31
0.0
  0
LINE
  5
A57
  8
LAYER_3
 62
   173
 10
-156.908512376563
 20
-375.0970842046241
 30
0.0
 11
-157.2882749665467
 21
-374.7895523839831
 31
0.0
  0
LINE
  5
A58
  8
LAYER_3
 62
   173
 10
-157.2882749665467
 20
-374.7895523839831
 30
0.0
 11
-157.6570738955497
 21
-374.4689548240672
 31
0.0
  0
LINE
  5
A59
  8
LAYER_3
 62
   173
 10
-157.6570738955497
 20
-374.4689548240672
 30
0.0
 11
-158.01445986987
 21
-374.1356820966847
 31
0.0
  0
LINE
  5
A5A
  8
LAYER_3
 62
   173
 10
-158.01445986987
 20
-374.1356820966847
 30
0.0
 11
-158.3599974997739
 21
-373.7901402153182
 31
0.0
  0
LINE
  5
A5B
  8
LAYER_3
 62
   173
 10
-158.3599974997739
 20
-373.7901402153182
 30
0.0
 11
-158.6932658299145
 21
-373.4327501404937
 31
0.0
  0
LINE
  5
A5C
  8
LAYER_3
 62
   173
 10
-158.6932658299145
 20
-373.4327501404937
 30
0.0
 11
-159.0138588521666
 21
-373.0639472669404
 31
0.0
  0
LINE
  5
A5D
  8
LAYER_3
 62
   173
 10
-159.0138588521666
 20
-373.0639472669404
 30
0.0
 11
-159.3213860002496
 21
-372.684180893166
 31
0.0
  0
LINE
  5
A5E
  8
LAYER_3
 62
   173
 10
-159.3213860002496
 20
-372.684180893166
 30
0.0
 11
-159.6154726255409
 21
-372.2939136740934
 31
0.0
  0
LINE
  5
A5F
  8
LAYER_3
 62
   173
 10
-159.6154726255409
 20
-372.2939136740934
 30
0.0
 11
-159.8957604534948
 21
-371.8936210574257
 31
0.0
  0
LINE
  5
A60
  8
LAYER_3
 62
   173
 10
-159.8957604534948
 20
-371.8936210574257
 30
0.0
 11
-160.1619080201159
 21
-371.4837907044263
 31
0.0
  0
LINE
  5
A61
  8
LAYER_3
 62
   173
 10
-160.1619080201159
 20
-371.4837907044263
 30
0.0
 11
-160.4135910879506
 21
-371.0649218958202
 31
0.0
  0
LINE
  5
A62
  8
LAYER_3
 62
   173
 10
-160.4135910879506
 20
-371.0649218958202
 30
0.0
 11
-160.6505030410941
 21
-370.6375249235385
 31
0.0
  0
LINE
  5
A63
  8
LAYER_3
 62
   173
 10
-160.6505030410941
 20
-370.6375249235385
 30
0.0
 11
-160.8723552587286
 21
-370.2021204690499
 31
0.0
  0
LINE
  5
A64
  8
LAYER_3
 62
   173
 10
-160.8723552587286
 20
-370.2021204690499
 30
0.0
 11
-161.0788774667389
 21
-369.7592389690339
 31
0.0
  0
LINE
  5
A65
  8
LAYER_3
 62
   173
 10
-161.0788774667389
 20
-369.7592389690339
 30
0.0
 11
-161.2698180669773
 21
-369.3094199691702
 31
0.0
  0
LINE
  5
A66
  8
LAYER_3
 62
   173
 10
-161.2698180669773
 20
-369.3094199691702
 30
0.0
 11
-161.444944443776
 21
-368.8532114668302
 31
0.0
  0
LINE
  5
A67
  8
LAYER_3
 62
   173
 10
-161.444944443776
 20
-368.8532114668302
 30
0.0
 11
-161.6040432473337
 21
-368.3911692434735
 31
0.0
  0
LINE
  5
A68
  8
LAYER_3
 62
   173
 10
-161.6040432473337
 20
-368.3911692434735
 30
0.0
 11
-161.7469206536318
 21
-367.9238561875599
 31
0.0
  0
LINE
  5
A69
  8
LAYER_3
 62
   173
 10
-161.7469206536318
 20
-367.9238561875599
 30
0.0
 11
-161.8734026005629
 21
-367.4518416088038
 31
0.0
  0
LINE
  5
A6A
  8
LAYER_3
 62
   173
 10
-161.8734026005629
 20
-367.4518416088038
 30
0.0
 11
-161.9833349999836
 21
-366.9757005446059
 31
0.0
  0
LINE
  5
A6B
  8
LAYER_3
 62
   173
 10
-161.9833349999836
 20
-366.9757005446059
 30
0.0
 11
-162.0765839254349
 21
-366.4960130595074
 31
0.0
  0
LINE
  5
A6C
  8
LAYER_3
 62
   173
 10
-162.0765839254349
 20
-366.4960130595074
 30
0.0
 11
-162.1530357752989
 21
-366.0133635385192
 31
0.0
  0
LINE
  5
A6D
  8
LAYER_3
 62
   173
 10
-162.1530357752989
 20
-366.0133635385192
 30
0.0
 11
-162.2125974111961
 21
-365.5283399751874
 31
0.0
  0
LINE
  5
A6E
  8
LAYER_3
 62
   173
 10
-162.2125974111961
 20
-365.5283399751874
 30
0.0
 11
-162.2551962714517
 21
-365.0415332552638
 31
0.0
  0
LINE
  5
A6F
  8
LAYER_3
 62
   173
 10
-162.2551962714517
 20
-365.0415332552638
 30
0.0
 11
-162.2807804594952
 21
-364.553536436852
 31
0.0
  0
LINE
  5
A70
  8
LAYER_3
 62
   173
 10
-162.2807804594952
 20
-364.553536436852
 30
0.0
 11
-162.2893188070839
 21
-364.0649440279074
 31
0.0
  0
LINE
  5
A71
  8
LAYER_3
 62
   173
 10
-162.2893188070839
 20
-364.0649440279074
 30
0.0
 11
-162.2893188070839
 21
-349.9307507805729
 31
0.0
  0
LINE
  5
A72
  8
LAYER_3
 62
   173
 10
-162.2893188070839
 20
-349.9307507805729
 30
0.0
 11
-154.2894625807853
 21
-349.7033744785464
 31
0.0
  0
LINE
  5
A73
  8
LAYER_3
 62
   173
 10
-154.2894625807853
 20
-349.7033744785464
 30
0.0
 11
-154.2894625807853
 21
-364.0649440279074
 31
0.0
  0
LINE
  5
A74
  8
LAYER_3
 62
   173
 10
-154.2894625807853
 20
-364.0649440279074
 30
0.0
 11
-154.2859657061657
 21
-364.2697940199301
 31
0.0
  0
LINE
  5
A75
  8
LAYER_3
 62
   173
 10
-154.2859657061657
 20
-364.2697940199301
 30
0.0
 11
-154.2754768869474
 21
-364.4744051927318
 31
0.0
  0
LINE
  5
A76
  8
LAYER_3
 62
   173
 10
-154.2754768869474
 20
-364.4744051927318
 30
0.0
 11
-154.2580083532441
 21
-364.678538966748
 31
0.0
  0
LINE
  5
A77
  8
LAYER_3
 62
   173
 10
-154.2580083532441
 20
-364.678538966748
 30
0.0
 11
-154.2335804736169
 21
-364.8819573190684
 31
0.0
  0
LINE
  5
A78
  8
LAYER_3
 62
   173
 10
-154.2335804736169
 20
-364.8819573190684
 30
0.0
 11
-154.202221731324
 21
-365.0844230609746
 31
0.0
  0
LINE
  5
A79
  8
LAYER_3
 62
   173
 10
-154.202221731324
 20
-365.0844230609746
 30
0.0
 11
-154.163968691109
 21
-365.2857001145057
 31
0.0
  0
LINE
  5
A7A
  8
LAYER_3
 62
   173
 10
-154.163968691109
 20
-365.2857001145057
 30
0.0
 11
-154.1188659565658
 21
-365.4855537877283
 31
0.0
  0
LINE
  5
A7B
  8
LAYER_3
 62
   173
 10
-154.1188659565658
 20
-365.4855537877283
 30
0.0
 11
-154.0669661181303
 21
-365.6837510483911
 31
0.0
  0
LINE
  5
A7C
  8
LAYER_3
 62
   173
 10
-154.0669661181303
 20
-365.6837510483911
 30
0.0
 11
-154.0083296917589
 21
-365.8800607956433
 31
0.0
  0
LINE
  5
A7D
  8
LAYER_3
 62
   173
 10
-154.0083296917589
 20
-365.8800607956433
 30
0.0
 11
-153.9430250483664
 21
-366.0742541295022
 31
0.0
  0
LINE
  5
A7E
  8
LAYER_3
 62
   173
 10
-153.9430250483664
 20
-366.0742541295022
 30
0.0
 11
-153.8711283341043
 21
-366.2661046177532
 31
0.0
  0
LINE
  5
A7F
  8
LAYER_3
 62
   173
 10
-153.8711283341043
 20
-366.2661046177532
 30
0.0
 11
-153.7927233815734
 21
-366.4553885599735
 31
0.0
  0
LINE
  5
A80
  8
LAYER_3
 62
   173
 10
-153.7927233815734
 20
-366.4553885599735
 30
0.0
 11
-153.7079016120735
 21
-366.6418852483697
 31
0.0
  0
LINE
  5
A81
  8
LAYER_3
 62
   173
 10
-153.7079016120735
 20
-366.6418852483697
 30
0.0
 11
-153.6167619290055
 21
-366.8253772251264
 31
0.0
  0
LINE
  5
A82
  8
LAYER_3
 62
   173
 10
-153.6167619290055
 20
-366.8253772251264
 30
0.0
 11
-153.5194106025478
 21
-367.0056505359652
 31
0.0
  0
LINE
  5
A83
  8
LAYER_3
 62
   173
 10
-153.5194106025478
 20
-367.0056505359652
 30
0.0
 11
-153.4159611457443
 21
-367.1824949796181
 31
0.0
  0
LINE
  5
A84
  8
LAYER_3
 62
   173
 10
-153.4159611457443
 20
-367.1824949796181
 30
0.0
 11
-153.3065341821465
 21
-367.3557043529257
 31
0.0
  0
LINE
  5
A85
  8
LAYER_3
 62
   173
 10
-153.3065341821465
 20
-367.3557043529257
 30
0.0
 11
-153.1912573051644
 21
-367.5250766912725
 31
0.0
  0
LINE
  5
A86
  8
LAYER_3
 62
   173
 10
-153.1912573051644
 20
-367.5250766912725
 30
0.0
 11
-153.0702649292913
 21
-367.6904145040814
 31
0.0
  0
LINE
  5
A87
  8
LAYER_3
 62
   173
 10
-153.0702649292913
 20
-367.6904145040814
 30
0.0
 11
-152.9436981333738
 21
-367.8515250050893
 31
0.0
  0
LINE
  5
A88
  8
LAYER_3
 62
   173
 10
-152.9436981333738
 20
-367.8515250050893
 30
0.0
 11
-152.8117044961127
 21
-368.0082203371398
 31
0.0
  0
LINE
  5
A89
  8
LAYER_3
 62
   173
 10
-152.8117044961127
 20
-368.0082203371398
 30
0.0
 11
-152.6744379239834
 21
-368.1603177912267
 31
0.0
  0
LINE
  5
A8A
  8
LAYER_3
 62
   173
 10
-152.6744379239834
 20
-368.1603177912267
 30
0.0
 11
-152.5320584717792
 21
-368.3076400195355
 31
0.0
  0
LINE
  5
A8B
  8
LAYER_3
 62
   173
 10
-152.5320584717792
 20
-368.3076400195355
 30
0.0
 11
-152.3847321559849
 21
-368.4500152422336
 31
0.0
  0
LINE
  5
A8C
  8
LAYER_3
 62
   173
 10
-152.3847321559849
 20
-368.4500152422336
 30
0.0
 11
-152.2326307611993
 21
-368.5872774477678
 31
0.0
  0
LINE
  5
A8D
  8
LAYER_3
 62
   173
 10
-152.2326307611993
 20
-368.5872774477678
 30
0.0
 11
-152.0759316398317
 21
-368.7192665864363
 31
0.0
  0
LINE
  5
A8E
  8
LAYER_3
 62
   173
 10
-152.0759316398317
 20
-368.7192665864363
 30
0.0
 11
-151.9148175053067
 21
-368.8458287570091
 31
0.0
  0
LINE
  5
A8F
  8
LAYER_3
 62
   173
 10
-151.9148175053067
 20
-368.8458287570091
 30
0.0
 11
-151.7494762190176
 21
-368.9668163861787
 31
0.0
  0
LINE
  5
A90
  8
LAYER_3
 62
   173
 10
-151.7494762190176
 20
-368.9668163861787
 30
0.0
 11
-151.5801005712772
 21
-369.0820884006332
 31
0.0
  0
LINE
  5
A91
  8
LAYER_3
 62
   173
 10
-151.5801005712772
 20
-369.0820884006332
 30
0.0
 11
-151.406888056522
 21
-369.1915103915491
 31
0.0
  0
LINE
  5
A92
  8
LAYER_3
 62
   173
 10
-151.406888056522
 20
-369.1915103915491
 30
0.0
 11
-151.2300406430301
 21
-369.2949547713145
 31
0.0
  0
LINE
  5
A93
  8
LAYER_3
 62
   173
 10
-151.2300406430301
 20
-369.2949547713145
 30
0.0
 11
-151.0497645374238
 21
-369.3923009222979
 31
0.0
  0
LINE
  5
A94
  8
LAYER_3
 62
   173
 10
-151.0497645374238
 20
-369.3923009222979
 30
0.0
 11
-150.8662699442298
 21
-369.4834353374901
 31
0.0
  0
LINE
  5
A95
  8
LAYER_3
 62
   173
 10
-150.8662699442298
 20
-369.4834353374901
 30
0.0
 11
-150.6797708207775
 21
-369.568251752855
 31
0.0
  0
LINE
  5
A96
  8
LAYER_3
 62
   173
 10
-150.6797708207775
 20
-369.568251752855
 30
0.0
 11
-150.4904846277215
 21
-369.6466512712348
 31
0.0
  0
LINE
  5
A97
  8
LAYER_3
 62
   173
 10
-150.4904846277215
 20
-369.6466512712348
 30
0.0
 11
-150.2986320754796
 21
-369.718542477666
 31
0.0
  0
LINE
  5
A98
  8
LAYER_3
 62
   173
 10
-150.2986320754796
 20
-369.718542477666
 30
0.0
 11
-150.1044368668815
 21
-369.7838415459699
 31
0.0
  0
LINE
  5
A99
  8
LAYER_3
 62
   173
 10
-150.1044368668815
 20
-369.7838415459699
 30
0.0
 11
-149.9081254363275
 21
-369.8424723364959
 31
0.0
  0
LINE
  5
A9A
  8
LAYER_3
 62
   173
 10
-149.9081254363275
 20
-369.8424723364959
 30
0.0
 11
-149.7099266857633
 21
-369.8943664849003
 31
0.0
  0
LINE
  5
A9B
  8
LAYER_3
 62
   173
 10
-149.7099266857633
 20
-369.8943664849003
 30
0.0
 11
-149.5100717177768
 21
-369.9394634818617
 31
0.0
  0
LINE
  5
A9C
  8
LAYER_3
 62
   173
 10
-149.5100717177768
 20
-369.9394634818617
 30
0.0
 11
-149.3087935661289
 21
-369.9777107436341
 31
0.0
  0
LINE
  5
A9D
  8
LAYER_3
 62
   173
 10
-149.3087935661289
 20
-369.9777107436341
 30
0.0
 11
-149.1063269240336
 21
-370.0090636733614
 31
0.0
  0
LINE
  5
A9E
  8
LAYER_3
 62
   173
 10
-149.1063269240336
 20
-370.0090636733614
 30
0.0
 11
-148.9029078705014
 21
-370.0334857130775
 31
0.0
  0
LINE
  5
A9F
  8
LAYER_3
 62
   173
 10
-148.9029078705014
 20
-370.0334857130775
 30
0.0
 11
-148.6987735950683
 21
-370.0509483863336
 31
0.0
  0
LINE
  5
AA0
  8
LAYER_3
 62
   173
 10
-148.6987735950683
 20
-370.0509483863336
 30
0.0
 11
-148.4941621212294
 21
-370.0614313314021
 31
0.0
  0
LINE
  5
AA1
  8
LAYER_3
 62
   173
 10
-148.4941621212294
 20
-370.0614313314021
 30
0.0
 11
-148.2893120288999
 21
-370.0649223250185
 31
0.0
  0
LINE
  5
AA2
  8
LAYER_3
 62
   173
 10
-148.2893120288999
 20
-370.0649223250185
 30
0.0
 11
-147.1369275890838
 21
-370.0649223250185
 31
0.0
  0
LINE
  5
AA3
  8
LAYER_3
 62
   173
 10
-147.1369275890838
 20
-370.0649223250185
 30
0.0
 11
-137.3885131492466
 21
-367.1913681807716
 31
0.0
  0
LINE
  5
AA4
  8
LAYER_3
 62
   173
 10
-137.3885131492466
 20
-367.1913681807716
 30
0.0
 11
-127.9885701177424
 21
-363.2432887546753
 31
0.0
  0
LINE
  5
AA5
  8
LAYER_3
 62
   173
 10
-127.9885701177424
 20
-363.2432887546753
 30
0.0
 11
-118.9636257298077
 21
-358.3216253444474
 31
0.0
  0
LINE
  5
AA6
  8
LAYER_3
 62
   173
 10
-118.9636257298077
 20
-358.3216253444474
 30
0.0
 11
-110.3408962397759
 21
-352.5297308146453
 31
0.0
  0
LINE
  5
AA7
  8
LAYER_3
 62
   173
 10
-110.3408962397759
 20
-352.5297308146453
 30
0.0
 11
-102.1513875070142
 21
-345.9733695966664
 31
0.0
  0
LINE
  5
AA8
  8
LAYER_3
 62
   173
 10
-102.1513875070142
 20
-345.9733695966664
 30
0.0
 11
-92.40710718175934
 21
-336.6984835312768
 31
0.0
  0
LINE
  5
AA9
  8
LAYER_3
 62
   173
 10
-92.40710718175934
 20
-336.6984835312768
 30
0.0
 11
-83.48534340360783
 21
-326.599875135364
 31
0.0
  0
LINE
  5
AAA
  8
LAYER_3
 62
   173
 10
-83.48534340360783
 20
-326.599875135364
 30
0.0
 11
-75.43467201890175
 21
-315.886317195334
 31
0.0
  0
LINE
  5
AAB
  8
LAYER_3
 62
   173
 10
-75.43467201890175
 20
-315.886317195334
 30
0.0
 11
-68.24234617434567
 21
-304.6666747285208
 31
0.0
  0
LINE
  5
AAC
  8
LAYER_3
 62
   173
 10
-68.24234617434567
 20
-304.6666747285208
 30
0.0
 11
-61.85565590901525
 21
-292.9850449571357
 31
0.0
  0
LINE
  5
AAD
  8
LAYER_3
 62
   173
 10
-61.85565590901525
 20
-292.9850449571357
 30
0.0
 11
-54.9354926077939
 21
-277.8149114973866
 31
0.0
  0
LINE
  5
AAE
  8
LAYER_3
 62
   173
 10
-54.9354926077939
 20
-277.8149114973866
 30
0.0
 11
-49.11069741610775
 21
-262.1087211801325
 31
0.0
  0
LINE
  5
AAF
  8
LAYER_3
 62
   173
 10
-49.11069741610775
 20
-262.1087211801325
 30
0.0
 11
-44.28997530359765
 21
-245.9729274558679
 31
0.0
  0
LINE
  5
AB0
  8
LAYER_3
 62
   173
 10
-44.28997530359765
 20
-245.9729274558679
 30
0.0
 11
-40.38185898513023
 21
-229.5139837750868
 31
0.0
  0
LINE
  5
AB1
  8
LAYER_3
 62
   173
 10
-40.38185898513023
 20
-229.5139837750868
 30
0.0
 11
-36.58122964580261
 21
-208.2708359939392
 31
0.0
  0
LINE
  5
AB2
  8
LAYER_3
 62
   173
 10
-36.58122964580261
 20
-208.2708359939392
 30
0.0
 11
-33.91610377841334
 21
-186.9050428135168
 31
0.0
  0
LINE
  5
AB3
  8
LAYER_3
 62
   173
 10
-33.91610377841334
 20
-186.9050428135168
 30
0.0
 11
-32.19166123327153
 21
-165.6443250453945
 31
0.0
  0
LINE
  5
AB4
  8
LAYER_3
 62
   173
 10
-32.19166123327153
 20
-165.6443250453945
 30
0.0
 11
-31.21187607726648
 21
-144.7084797815312
 31
0.0
  0
LINE
  5
AB5
  8
LAYER_3
 62
   173
 10
-31.21187607726648
 20
-144.7084797815312
 30
0.0
 11
-31.21187607726648
 21
515.5990192395899
 31
0.0
  0
LINE
  5
AB6
  8
LAYER_3
 62
   173
 10
-31.21187607726648
 20
515.5990192395899
 30
0.0
 11
-31.19116457321182
 21
516.7856041317167
 31
0.0
  0
LINE
  5
AB7
  8
LAYER_3
 62
   173
 10
-31.19116457321182
 20
516.7856041317167
 30
0.0
 11
-31.12905458826516
 21
517.9707433734908
 31
0.0
  0
LINE
  5
AB8
  8
LAYER_3
 62
   173
 10
-31.12905458826516
 20
517.9707433734908
 30
0.0
 11
-31.02562179344513
 21
519.1529930635222
 31
0.0
  0
LINE
  5
AB9
  8
LAYER_3
 62
   173
 10
-31.02562179344513
 20
519.1529930635222
 30
0.0
 11
-30.88099220496237
 21
520.3309128208734
 31
0.0
  0
LINE
  5
ABA
  8
LAYER_3
 62
   173
 10
-30.88099220496237
 20
520.3309128208734
 30
0.0
 11
-30.6953420306889
 21
521.503067539934
 31
0.0
  0
LINE
  5
ABB
  8
LAYER_3
 62
   173
 10
-30.6953420306889
 20
521.503067539934
 30
0.0
 11
-30.46889745547751
 21
522.6680291388635
 31
0.0
  0
LINE
  5
ABC
  8
LAYER_3
 62
   173
 10
-30.46889745547751
 20
522.6680291388635
 30
0.0
 11
-30.20193436559148
 21
523.8243782994816
 31
0.0
  0
LINE
  5
ABD
  8
LAYER_3
 62
   173
 10
-30.20193436559148
 20
523.8243782994816
 30
0.0
 11
-29.89477801258215
 21
524.9707061964765
 31
0.0
  0
LINE
  5
ABE
  8
LAYER_3
 62
   173
 10
-29.89477801258215
 20
524.9707061964765
 30
0.0
 11
-29.54780261702155
 21
526.1056162138345
 31
0.0
  0
LINE
  5
ABF
  8
LAYER_3
 62
   173
 10
-29.54780261702155
 20
526.1056162138345
 30
0.0
 11
-29.16143091257559
 21
527.2277256463889
 31
0.0
  0
LINE
  5
AC0
  8
LAYER_3
 62
   173
 10
-29.16143091257559
 20
527.2277256463889
 30
0.0
 11
-28.73613363097084
 21
528.335667384425
 31
0.0
  0
LINE
  5
AC1
  8
LAYER_3
 62
   173
 10
-28.73613363097084
 20
528.335667384425
 30
0.0
 11
-28.27242892848342
 21
529.4280915792842
 31
0.0
  0
LINE
  5
AC2
  8
LAYER_3
 62
   173
 10
-28.27242892848342
 20
529.4280915792842
 30
0.0
 11
-27.77088175464935
 21
530.5036672879361
 31
0.0
  0
LINE
  5
AC3
  8
LAYER_3
 62
   173
 10
-27.77088175464935
 20
530.5036672879361
 30
0.0
 11
-27.23210316396401
 21
531.561084094519
 31
0.0
  0
LINE
  5
AC4
  8
LAYER_3
 62
   173
 10
-27.23210316396401
 20
531.561084094519
 30
0.0
 11
-26.65674957141219
 21
532.599053706868
 31
0.0
  0
LINE
  5
AC5
  8
LAYER_3
 62
   173
 10
-26.65674957141219
 20
532.599053706868
 30
0.0
 11
-26.0455219527291
 21
533.616311526097
 31
0.0
  0
LINE
  5
AC6
  8
LAYER_3
 62
   173
 10
-26.0455219527291
 20
533.616311526097
 30
0.0
 11
-25.39916499037727
 21
534.611618187304
 31
0.0
  0
LINE
  5
AC7
  8
LAYER_3
 62
   173
 10
-25.39916499037727
 20
534.611618187304
 30
0.0
 11
-24.71846616626929
 21
535.58376106954
 31
0.0
  0
LINE
  5
AC8
  8
LAYER_3
 62
   173
 10
-24.71846616626929
 20
535.58376106954
 30
0.0
 11
-24.00425480234862
 21
536.5315557731907
 31
0.0
  0
LINE
  5
AC9
  8
LAYER_3
 62
   173
 10
-24.00425480234862
 20
536.5315557731907
 30
0.0
 11
-23.25740105019251
 21
537.4538475629809
 31
0.0
  0
LINE
  5
ACA
  8
LAYER_3
 62
   173
 10
-23.25740105019251
 20
537.4538475629809
 30
0.0
 11
-22.47881483087508
 21
538.3495127748278
 31
0.0
  0
LINE
  5
ACB
  8
LAYER_3
 62
   173
 10
-22.47881483087508
 20
538.3495127748278
 30
0.0
 11
-21.66944472637344
 21
539.2174601848486
 31
0.0
  0
LINE
  5
ACC
  8
LAYER_3
 62
   173
 10
-21.66944472637344
 20
539.2174601848486
 30
0.0
 11
-20.83027682387262
 21
540.0566323388409
 31
0.0
  0
LINE
  5
ACD
  8
LAYER_3
 62
   173
 10
-20.83027682387262
 20
540.0566323388409
 30
0.0
 11
-19.96233351437893
 21
540.8660068406188
 31
0.0
  0
LINE
  5
ACE
  8
LAYER_3
 62
   173
 10
-19.96233351437893
 20
540.8660068406188
 30
0.0
 11
-19.06667224709896
 21
541.6445975976395
 31
0.0
  0
LINE
  5
ACF
  8
LAYER_3
 62
   173
 10
-19.06667224709896
 20
541.6445975976395
 30
0.0
 11
-18.14438424111014
 21
542.3914560223976
 31
0.0
  0
LINE
  5
AD0
  8
LAYER_3
 62
   173
 10
-18.14438424111014
 20
542.3914560223976
 30
0.0
 11
-17.19659315588395
 21
543.1056721881266
 31
0.0
  0
LINE
  5
AD1
  8
LAYER_3
 62
   173
 10
-17.19659315588395
 20
543.1056721881266
 30
0.0
 11
-16.22445372228863
 21
543.7863759373985
 31
0.0
  0
LINE
  5
AD2
  8
LAYER_3
 62
   173
 10
-16.22445372228863
 20
543.7863759373985
 30
0.0
 11
-15.22915033573603
 21
544.4327379422695
 31
0.0
  0
LINE
  5
AD3
  8
LAYER_3
 62
   173
 10
-15.22915033573603
 20
544.4327379422695
 30
0.0
 11
-14.21189561318599
 21
545.0439707146832
 31
0.0
  0
LINE
  5
AD4
  8
LAYER_3
 62
   173
 10
-14.21189561318599
 20
545.0439707146832
 30
0.0
 11
-13.17392891576703
 21
545.6193295658986
 31
0.0
  0
LINE
  5
AD5
  8
LAYER_3
 62
   173
 10
-13.17392891576703
 20
545.6193295658986
 30
0.0
 11
-12.11651483881492
 21
546.1581135137733
 31
0.0
  0
LINE
  5
AD6
  8
LAYER_3
 62
   173
 10
-12.11651483881492
 20
546.1581135137733
 30
0.0
 11
-11.04094167116761
 21
546.659666136796
 31
0.0
  0
LINE
  5
AD7
  8
LAYER_3
 62
   173
 10
-11.04094167116761
 20
546.659666136796
 30
0.0
 11
-9.948519825591566
 21
547.123376373832
 31
0.0
  0
LINE
  5
AD8
  8
LAYER_3
 62
   173
 10
-9.948519825591566
 20
547.123376373832
 30
0.0
 11
-8.840580242255509
 21
547.5486792686023
 31
0.0
  0
LINE
  5
AD9
  8
LAYER_3
 62
   173
 10
-8.840580242255509
 20
547.5486792686023
 30
0.0
 11
-7.718472767192607
 21
547.9350566579923
 31
0.0
  0
LINE
  5
ADA
  8
LAYER_3
 62
   173
 10
-7.718472767192607
 20
547.9350566579923
 30
0.0
 11
-6.583564507732881
 21
548.2820378033489
 31
0.0
  0
LINE
  5
ADB
  8
LAYER_3
 62
   173
 10
-6.583564507732881
 20
548.2820378033489
 30
0.0
 11
-5.437238166900469
 21
548.5891999640014
 31
0.0
  0
LINE
  5
ADC
  8
LAYER_3
 62
   173
 10
-5.437238166900469
 20
548.5891999640014
 30
0.0
 11
-4.280890358813662
 21
548.8561689123019
 31
0.0
  0
LINE
  5
ADD
  8
LAYER_3
 62
   173
 10
-4.280890358813662
 20
548.8561689123019
 30
0.0
 11
-3.115929907136141
 21
549.0826193895615
 31
0.0
  0
LINE
  5
ADE
  8
LAYER_3
 62
   173
 10
-3.115929907136141
 20
549.0826193895615
 30
0.0
 11
-1.943776128651411
 21
549.2682755023261
 31
0.0
  0
LINE
  5
ADF
  8
LAYER_3
 62
   173
 10
-1.943776128651411
 20
549.2682755023261
 30
0.0
 11
-0.765857104053012
 21
549.4129110585081
 31
0.0
  0
LINE
  5
AE0
  8
LAYER_3
 62
   173
 10
-0.765857104053012
 20
549.4129110585081
 30
0.0
 11
0.4163920619411803
 21
549.5163498429647
 31
0.0
  0
LINE
  5
AE1
  8
LAYER_3
 62
   173
 10
0.4163920619411803
 20
549.5163498429647
 30
0.0
 11
1.601530989031906
 21
549.5784658321877
 31
0.0
  0
LINE
  5
AE2
  8
LAYER_3
 62
   173
 10
1.601530989031906
 20
549.5784658321877
 30
0.0
 11
2.78811577621269
 21
549.5991833478435
 31
0.0
  0
LINE
  5
AE3
  8
LAYER_3
 62
   173
 10
2.78811577621269
 20
549.5991833478435
 30
0.0
 11
45.64665390568904
 21
549.5991833478433
 31
0.0
  0
LINE
  5
AE4
  8
LAYER_3
 62
   173
 10
45.64665390568904
 20
549.5991833478433
 30
0.0
 11
40.17997638969459
 21
541.5989826119961
 31
0.0
  0
LINE
  5
AE5
  8
LAYER_3
 62
   173
 10
40.17997638969459
 20
541.5989826119961
 30
0.0
 11
2.788115776212694
 21
541.5989826119961
 31
0.0
  0
LINE
  5
AE6
  8
LAYER_3
 62
   173
 10
2.788115776212694
 20
541.5989826119961
 30
0.0
 11
1.900447742579906
 21
541.5838266234481
 31
0.0
  0
LINE
  5
AE7
  8
LAYER_3
 62
   173
 10
1.900447742579906
 20
541.5838266234481
 30
0.0
 11
1.013814645052957
 21
541.5383734355274
 31
0.0
  0
LINE
  5
AE8
  8
LAYER_3
 62
   173
 10
1.013814645052957
 20
541.5383734355274
 30
0.0
 11
0.1292502624522723
 21
541.4626760448381
 31
0.0
  0
LINE
  5
AE9
  8
LAYER_3
 62
   173
 10
0.1292502624522723
 20
541.4626760448381
 30
0.0
 11
-0.7522140384399247
 21
541.3568227115179
 31
0.0
  0
LINE
  5
AEA
  8
LAYER_3
 62
   173
 10
-0.7522140384399247
 20
541.3568227115179
 30
0.0
 11
-1.629550505413603
 21
541.2209368563305
 31
0.0
  0
LINE
  5
AEB
  8
LAYER_3
 62
   173
 10
-1.629550505413603
 20
541.2209368563305
 30
0.0
 11
-2.501736199149257
 21
541.055176916762
 31
0.0
  0
LINE
  5
AEC
  8
LAYER_3
 62
   173
 10
-2.501736199149257
 20
541.055176916762
 30
0.0
 11
-3.367754185921772
 21
540.8597361622893
 31
0.0
  0
LINE
  5
AED
  8
LAYER_3
 62
   173
 10
-3.367754185921772
 20
540.8597361622893
 30
0.0
 11
-4.226594723307451
 21
540.6348424690352
 31
0.0
  0
LINE
  5
AEE
  8
LAYER_3
 62
   173
 10
-4.226594723307451
 20
540.6348424690352
 30
0.0
 11
-5.077256437501961
 21
540.3807580540744
 31
0.0
  0
LINE
  5
AEF
  8
LAYER_3
 62
   173
 10
-5.077256437501961
 20
540.3807580540744
 30
0.0
 11
-5.918747490882801
 21
540.097779169698
 31
0.0
  0
LINE
  5
AF0
  8
LAYER_3
 62
   173
 10
-5.918747490882801
 20
540.097779169698
 30
0.0
 11
-6.750086738451294
 21
539.7862357579965
 31
0.0
  0
LINE
  5
AF1
  8
LAYER_3
 62
   173
 10
-6.750086738451294
 20
539.7862357579965
 30
0.0
 11
-7.57030487181019
 21
539.4464910661591
 31
0.0
  0
LINE
  5
AF2
  8
LAYER_3
 62
   173
 10
-7.57030487181019
 20
539.4464910661591
 30
0.0
 11
-8.378445549337464
 21
539.078941222943
 31
0.0
  0
LINE
  5
AF3
  8
LAYER_3
 62
   173
 10
-8.378445549337464
 20
539.078941222943
 30
0.0
 11
-9.173566511243024
 21
538.6840147768024
 31
0.0
  0
LINE
  5
AF4
  8
LAYER_3
 62
   173
 10
-9.173566511243024
 20
538.6840147768024
 30
0.0
 11
-9.954740678204777
 21
538.2621721962188
 31
0.0
  0
LINE
  5
AF5
  8
LAYER_3
 62
   173
 10
-9.954740678204777
 20
538.2621721962188
 30
0.0
 11
-10.72105723230868
 21
537.8139053328118
 31
0.0
  0
LINE
  5
AF6
  8
LAYER_3
 62
   173
 10
-10.72105723230868
 20
537.8139053328118
 30
0.0
 11
-11.47162267902353
 21
537.3397368478614
 31
0.0
  0
LINE
  5
AF7
  8
LAYER_3
 62
   173
 10
-11.47162267902353
 20
537.3397368478614
 30
0.0
 11
-12.20556188898146
 21
536.8402196029048
 31
0.0
  0
LINE
  5
AF8
  8
LAYER_3
 62
   173
 10
-12.20556188898146
 20
536.8402196029048
 30
0.0
 11
-12.92201911834269
 21
536.3159360151219
 31
0.0
  0
LINE
  5
AF9
  8
LAYER_3
 62
   173
 10
-12.92201911834269
 20
536.3159360151219
 30
0.0
 11
-13.6201590065603
 21
535.7674973782605
 31
0.0
  0
LINE
  5
AFA
  8
LAYER_3
 62
   173
 10
-13.6201590065603
 20
535.7674973782605
 30
0.0
 11
-14.29916755037529
 21
535.1955431498924
 31
0.0
  0
LINE
  5
AFB
  8
LAYER_3
 62
   173
 10
-14.29916755037529
 20
535.1955431498924
 30
0.0
 11
-14.95825305291457
 21
534.6007402058299
 31
0.0
  0
LINE
  5
AFC
  8
LAYER_3
 62
   173
 10
-14.95825305291457
 20
534.6007402058299
 30
0.0
 11
-15.59664704677483
 21
533.9837820625775
 31
0.0
  0
LINE
  5
AFD
  8
LAYER_3
 62
   173
 10
-15.59664704677483
 20
533.9837820625775
 30
0.0
 11
-16.21360519002729
 21
533.3453880687172
 31
0.0
  0
LINE
  5
AFE
  8
LAYER_3
 62
   173
 10
-16.21360519002729
 20
533.3453880687172
 30
0.0
 11
-16.80840813408962
 21
532.6863025661781
 31
0.0
  0
LINE
  5
AFF
  8
LAYER_3
 62
   173
 10
-16.80840813408962
 20
532.6863025661781
 30
0.0
 11
-17.38036236245787
 21
532.0072940223629
 31
0.0
  0
LINE
  5
B00
  8
LAYER_3
 62
   173
 10
-17.38036236245787
 20
532.0072940223629
 30
0.0
 11
-17.92880099931927
 21
531.3091541341453
 31
0.0
  0
LINE
  5
B01
  8
LAYER_3
 62
   173
 10
-17.92880099931927
 20
531.3091541341453
 30
0.0
 11
-18.45308458710209
 21
530.592696904784
 31
0.0
  0
LINE
  5
B02
  8
LAYER_3
 62
   173
 10
-18.45308458710209
 20
530.592696904784
 30
0.0
 11
-18.95260183205855
 21
529.8587576948265
 31
0.0
  0
LINE
  5
B03
  8
LAYER_3
 62
   173
 10
-18.95260183205855
 20
529.8587576948265
 30
0.0
 11
-19.42677031700908
 21
529.1081922481114
 31
0.0
  0
LINE
  5
B04
  8
LAYER_3
 62
   173
 10
-19.42677031700908
 20
529.1081922481114
 30
0.0
 11
-19.87503718041604
 21
528.3418756940076
 31
0.0
  0
LINE
  5
B05
  8
LAYER_3
 62
   173
 10
-19.87503718041604
 20
528.3418756940076
 30
0.0
 11
-20.29687976099984
 21
527.5607015270456
 31
0.0
  0
LINE
  5
B06
  8
LAYER_3
 62
   173
 10
-20.29687976099984
 20
527.5607015270456
 30
0.0
 11
-20.69180620714046
 21
526.7655805651401
 31
0.0
  0
LINE
  5
B07
  8
LAYER_3
 62
   173
 10
-20.69180620714046
 20
526.7655805651401
 30
0.0
 11
-21.05935605035652
 21
525.9574398876127
 31
0.0
  0
LINE
  5
B08
  8
LAYER_3
 62
   173
 10
-21.05935605035652
 20
525.9574398876127
 30
0.0
 11
-21.39910074219382
 21
525.1372217542538
 31
0.0
  0
LINE
  5
B09
  8
LAYER_3
 62
   173
 10
-21.39910074219382
 20
525.1372217542538
 30
0.0
 11
-21.71064415389535
 21
524.3058825066854
 31
0.0
  0
LINE
  5
B0A
  8
LAYER_3
 62
   173
 10
-21.71064415389535
 20
524.3058825066854
 30
0.0
 11
-21.99362303827173
 21
523.4643914533046
 31
0.0
  0
LINE
  5
B0B
  8
LAYER_3
 62
   173
 10
-21.99362303827173
 20
523.4643914533046
 30
0.0
 11
-22.24770745323266
 21
522.61372973911
 31
0.0
  0
LINE
  5
B0C
  8
LAYER_3
 62
   173
 10
-22.24770745323266
 20
522.61372973911
 30
0.0
 11
-22.47260114648673
 21
521.7548892017244
 31
0.0
  0
LINE
  5
B0D
  8
LAYER_3
 62
   173
 10
-22.47260114648673
 20
521.7548892017244
 30
0.0
 11
-22.66804190095943
 21
520.8888712149518
 31
0.0
  0
LINE
  5
B0E
  8
LAYER_3
 62
   173
 10
-22.66804190095943
 20
520.8888712149518
 30
0.0
 11
-22.83380184052789
 21
520.0166855212165
 31
0.0
  0
LINE
  5
B0F
  8
LAYER_3
 62
   173
 10
-22.83380184052789
 20
520.0166855212165
 30
0.0
 11
-22.96968769571532
 21
519.1393490542425
 31
0.0
  0
LINE
  5
B10
  8
LAYER_3
 62
   173
 10
-22.96968769571532
 20
519.1393490542425
 30
0.0
 11
-23.07554102903556
 21
518.2578847533503
 31
0.0
  0
LINE
  5
B11
  8
LAYER_3
 62
   173
 10
-23.07554102903556
 20
518.2578847533503
 30
0.0
 11
-23.15123841972486
 21
517.3733203707496
 31
0.0
  0
LINE
  5
B12
  8
LAYER_3
 62
   173
 10
-23.15123841972486
 20
517.3733203707496
 30
0.0
 11
-23.19669160764546
 21
516.4866872732226
 31
0.0
  0
LINE
  5
B13
  8
LAYER_3
 62
   173
 10
-23.19669160764546
 20
516.4866872732226
 30
0.0
 11
-23.21184759619357
 21
515.5990192395899
 31
0.0
  0
ENDBLK
  5
B15
  8
0
  0
BLOCK
  8
0
  2
BLOCK_2
 70
     0
 10
0.0
 20
0.0
 30
0.0
  3
BLOCK_2
  1

  0
INSERT
  5
C05
  8
LAYER_3
  2
BLOCK_3
 10
0.0
 20
0.0
 30
0.0
  0
ENDBLK
  5
C07
  8
0
  0
BLOCK
  8
0
  2
BLOCK_3
 70
     0
 10
0.0
 20
0.0
 30
0.0
  3
BLOCK_3
  1

  0
LINE
  5
B1C
  8
LAYER_3
 62
   173
 10
-149.2654798346454
 20
-188.8914848703119
 30
0.0
 11
-149.2654798346454
 21
471.5457219958288
 31
0.0
  0
LINE
  5
B1D
  8
LAYER_3
 62
   173
 10
-149.2654798346454
 20
471.5457219958288
 30
0.0
 11
-148.5263345982851
 21
488.5069605983594
 31
0.0
  0
LINE
  5
B1E
  8
LAYER_3
 62
   173
 10
-148.5263345982851
 20
488.5069605983594
 30
0.0
 11
-147.3246852930299
 21
505.7537976166171
 31
0.0
  0
LINE
  5
B1F
  8
LAYER_3
 62
   173
 10
-147.3246852930299
 20
505.7537976166171
 30
0.0
 11
-145.5551119970314
 21
523.1709946066205
 31
0.0
  0
LINE
  5
B20
  8
LAYER_3
 62
   173
 10
-145.5551119970314
 20
523.1709946066205
 30
0.0
 11
-143.1106444954723
 21
540.6441743982591
 31
0.0
  0
LINE
  5
B21
  8
LAYER_3
 62
   173
 10
-143.1106444954723
 20
540.6441743982591
 30
0.0
 11
-139.8841403187616
 21
558.0591320761971
 31
0.0
  0
LINE
  5
B22
  8
LAYER_3
 62
   173
 10
-139.8841403187616
 20
558.0591320761971
 30
0.0
 11
-136.7299831472411
 21
571.6267793709823
 31
0.0
  0
LINE
  5
B23
  8
LAYER_3
 62
   173
 10
-136.7299831472411
 20
571.6267793709823
 30
0.0
 11
-132.973623284899
 21
585.0316459040894
 31
0.0
  0
LINE
  5
B24
  8
LAYER_3
 62
   173
 10
-132.973623284899
 20
585.0316459040894
 30
0.0
 11
-128.5616617517138
 21
598.2179211286574
 31
0.0
  0
LINE
  5
B25
  8
LAYER_3
 62
   173
 10
-128.5616617517138
 20
598.2179211286574
 30
0.0
 11
-123.4403550581156
 21
611.1287609691797
 31
0.0
  0
LINE
  5
B26
  8
LAYER_3
 62
   173
 10
-123.4403550581156
 20
611.1287609691797
 30
0.0
 11
-117.5564764788574
 21
623.7066323310526
 31
0.0
  0
LINE
  5
B27
  8
LAYER_3
 62
   173
 10
-117.5564764788574
 20
623.7066323310526
 30
0.0
 11
-110.8573160530148
 21
635.8909015337356
 31
0.0
  0
LINE
  5
B28
  8
LAYER_3
 62
   173
 10
-110.8573160530148
 20
635.8909015337356
 30
0.0
 11
-103.2903360744378
 21
647.621279406237
 31
0.0
  0
LINE
  5
B29
  8
LAYER_3
 62
   173
 10
-103.2903360744378
 20
647.621279406237
 30
0.0
 11
-94.79972599626535
 21
658.8435056946641
 31
0.0
  0
LINE
  5
B2A
  8
LAYER_3
 62
   173
 10
-94.79972599626535
 20
658.8435056946641
 30
0.0
 11
-85.3624036787462
 21
669.4426864645839
 31
0.0
  0
LINE
  5
B2B
  8
LAYER_3
 62
   173
 10
-85.3624036787462
 20
669.4426864645839
 30
0.0
 11
-75.00489635711683
 21
679.2097044200414
 31
0.0
  0
LINE
  5
B2C
  8
LAYER_3
 62
   173
 10
-75.00489635711683
 20
679.2097044200414
 30
0.0
 11
-66.2490139265801
 21
686.1408920268155
 31
0.0
  0
LINE
  5
B2D
  8
LAYER_3
 62
   173
 10
-66.2490139265801
 20
686.1408920268155
 30
0.0
 11
-56.97119953002804
 21
692.2869423725012
 31
0.0
  0
LINE
  5
B2E
  8
LAYER_3
 62
   173
 10
-56.97119953002804
 20
692.2869423725012
 30
0.0
 11
-47.1912624665008
 21
697.5262435864691
 31
0.0
  0
LINE
  5
B2F
  8
LAYER_3
 62
   173
 10
-47.1912624665008
 20
697.5262435864691
 30
0.0
 11
-36.93125134710399
 21
701.7321884096365
 31
0.0
  0
LINE
  5
B30
  8
LAYER_3
 62
   173
 10
-36.93125134710399
 20
701.7321884096365
 30
0.0
 11
-26.24112005637375
 21
704.7724851753694
 31
0.0
  0
LINE
  5
B31
  8
LAYER_3
 62
   173
 10
-26.24112005637375
 20
704.7724851753694
 30
0.0
 11
-24.18784314716484
 21
704.7724851753694
 31
0.0
  0
LINE
  5
B32
  8
LAYER_3
 62
   173
 10
-24.18784314716484
 20
704.7724851753694
 30
0.0
 11
-23.70986724885265
 21
704.7643239020874
 31
0.0
  0
LINE
  5
B33
  8
LAYER_3
 62
   173
 10
-23.70986724885265
 20
704.7643239020874
 30
0.0
 11
-23.23244863568379
 21
704.7398487402099
 31
0.0
  0
LINE
  5
B34
  8
LAYER_3
 62
   173
 10
-23.23244863568379
 20
704.7398487402099
 30
0.0
 11
-22.75614395767704
 21
704.6990882267463
 31
0.0
  0
LINE
  5
B35
  8
LAYER_3
 62
   173
 10
-22.75614395767704
 20
704.6990882267463
 30
0.0
 11
-22.28150856604935
 21
704.6420898867403
 31
0.0
  0
LINE
  5
B36
  8
LAYER_3
 62
   173
 10
-22.28150856604935
 20
704.6420898867403
 30
0.0
 11
-21.80909586570027
 21
704.5689201778588
 31
0.0
  0
LINE
  5
B37
  8
LAYER_3
 62
   173
 10
-21.80909586570027
 20
704.5689201778588
 30
0.0
 11
-21.33945666996459
 21
704.4796644129038
 31
0.0
  0
LINE
  5
B38
  8
LAYER_3
 62
   173
 10
-21.33945666996459
 20
704.4796644129038
 30
0.0
 11
-20.8731385583875
 21
704.3744266603427
 31
0.0
  0
LINE
  5
B39
  8
LAYER_3
 62
   173
 10
-20.8731385583875
 20
704.3744266603427
 30
0.0
 11
-20.41068523826965
 21
704.2533296229678
 31
0.0
  0
LINE
  5
B3A
  8
LAYER_3
 62
   173
 10
-20.41068523826965
 20
704.2533296229678
 30
0.0
 11
-19.95263591072773
 21
704.1165144948302
 31
0.0
  0
LINE
  5
B3B
  8
LAYER_3
 62
   173
 10
-19.95263591072773
 20
704.1165144948302
 30
0.0
 11
-19.49952464200799
 21
703.9641407966136
 31
0.0
  0
LINE
  5
B3C
  8
LAYER_3
 62
   173
 10
-19.49952464200799
 20
703.9641407966136
 30
0.0
 11
-19.05187974078816
 21
703.7963861896401
 31
0.0
  0
LINE
  5
B3D
  8
LAYER_3
 62
   173
 10
-19.05187974078816
 20
703.7963861896401
 30
0.0
 11
-18.61022314219122
 21
703.6134462687243
 31
0.0
  0
LINE
  5
B3E
  8
LAYER_3
 62
   173
 10
-18.61022314219122
 20
703.6134462687243
 30
0.0
 11
-18.17506979923117
 21
703.4155343341176
 31
0.0
  0
LINE
  5
B3F
  8
LAYER_3
 62
   173
 10
-18.17506979923117
 20
703.4155343341176
 30
0.0
 11
-17.74692708239978
 21
703.2028811428104
 31
0.0
  0
LINE
  5
B40
  8
LAYER_3
 62
   173
 10
-17.74692708239978
 20
703.2028811428104
 30
0.0
 11
-17.32629418809343
 21
702.9757346394774
 31
0.0
  0
LINE
  5
B41
  8
LAYER_3
 62
   173
 10
-17.32629418809343
 20
702.9757346394774
 30
0.0
 11
-16.91366155657139
 21
702.7343596673859
 31
0.0
  0
LINE
  5
B42
  8
LAYER_3
 62
   173
 10
-16.91366155657139
 20
702.7343596673859
 30
0.0
 11
-16.50951030012329
 21
702.4790376595989
 31
0.0
  0
LINE
  5
B43
  8
LAYER_3
 62
   173
 10
-16.50951030012329
 20
702.4790376595989
 30
0.0
 11
-16.11431164211199
 21
702.2100663108366
 31
0.0
  0
LINE
  5
B44
  8
LAYER_3
 62
   173
 10
-16.11431164211199
 20
702.2100663108366
 30
0.0
 11
-15.72852636754731
 21
701.9277592303763
 31
0.0
  0
LINE
  5
B45
  8
LAYER_3
 62
   173
 10
-15.72852636754731
 20
701.9277592303763
 30
0.0
 11
-15.3526042858298
 21
701.6324455763976
 31
0.0
  0
LINE
  5
B46
  8
LAYER_3
 62
   173
 10
-15.3526042858298
 20
701.6324455763976
 30
0.0
 11
-14.98698370629256
 21
701.3244696721978
 31
0.0
  0
LINE
  5
B47
  8
LAYER_3
 62
   173
 10
-14.98698370629256
 20
701.3244696721978
 30
0.0
 11
-14.63209092714989
 21
701.0041906047247
 31
0.0
  0
LINE
  5
B48
  8
LAYER_3
 62
   173
 10
-14.63209092714989
 20
701.0041906047247
 30
0.0
 11
-14.28833973845259
 21
700.6719818058978
 31
0.0
  0
LINE
  5
B49
  8
LAYER_3
 62
   173
 10
-14.28833973845259
 20
700.6719818058978
 30
0.0
 11
-13.95613093962552
 21
700.3282306172003
 31
0.0
  0
LINE
  5
B4A
  8
LAYER_3
 62
   173
 10
-13.95613093962552
 20
700.3282306172003
 30
0.0
 11
-13.63585187215249
 21
699.9733378380577
 31
0.0
  0
LINE
  5
B4B
  8
LAYER_3
 62
   173
 10
-13.63585187215249
 20
699.9733378380577
 30
0.0
 11
-13.3278759679526
 21
699.6077172585204
 31
0.0
  0
LINE
  5
B4C
  8
LAYER_3
 62
   173
 10
-13.3278759679526
 20
699.6077172585204
 30
0.0
 11
-13.03256231397394
 21
699.231795176803
 31
0.0
  0
LINE
  5
B4D
  8
LAYER_3
 62
   173
 10
-13.03256231397394
 20
699.231795176803
 30
0.0
 11
-12.75025523351371
 21
698.8460099022383
 31
0.0
  0
LINE
  5
B4E
  8
LAYER_3
 62
   173
 10
-12.75025523351371
 20
698.8460099022383
 30
0.0
 11
-12.48128388475142
 21
698.450811244227
 31
0.0
  0
LINE
  5
B4F
  8
LAYER_3
 62
   173
 10
-12.48128388475142
 20
698.450811244227
 30
0.0
 11
-12.22596187696449
 21
698.0466599877789
 31
0.0
  0
LINE
  5
B50
  8
LAYER_3
 62
   173
 10
-12.22596187696449
 20
698.0466599877789
 30
0.0
 11
-11.98458690487292
 21
697.6340273562569
 31
0.0
  0
LINE
  5
B51
  8
LAYER_3
 62
   173
 10
-11.98458690487292
 20
697.6340273562569
 30
0.0
 11
-11.75744040153995
 21
697.2133944619504
 31
0.0
  0
LINE
  5
B52
  8
LAYER_3
 62
   173
 10
-11.75744040153995
 20
697.2133944619504
 30
0.0
 11
-11.54478721023265
 21
696.7852517451191
 31
0.0
  0
LINE
  5
B53
  8
LAYER_3
 62
   173
 10
-11.54478721023265
 20
696.7852517451191
 30
0.0
 11
-11.34687527562614
 21
696.3500984021591
 31
0.0
  0
LINE
  5
B54
  8
LAYER_3
 62
   173
 10
-11.34687527562614
 20
696.3500984021591
 30
0.0
 11
-11.16393535471027
 21
695.9084418035621
 31
0.0
  0
LINE
  5
B55
  8
LAYER_3
 62
   173
 10
-11.16393535471027
 20
695.9084418035621
 30
0.0
 11
-10.99618074773677
 21
695.4607969023422
 31
0.0
  0
LINE
  5
B56
  8
LAYER_3
 62
   173
 10
-10.99618074773677
 20
695.4607969023422
 30
0.0
 11
-10.84380704952023
 21
695.0076856336225
 31
0.0
  0
LINE
  5
B57
  8
LAYER_3
 62
   173
 10
-10.84380704952023
 20
695.0076856336225
 30
0.0
 11
-10.70699192138259
 21
694.5496363060806
 31
0.0
  0
LINE
  5
B58
  8
LAYER_3
 62
   173
 10
-10.70699192138259
 20
694.5496363060806
 30
0.0
 11
-10.58589488400762
 21
694.0871829859628
 31
0.0
  0
LINE
  5
B59
  8
LAYER_3
 62
   173
 10
-10.58589488400762
 20
694.0871829859628
 30
0.0
 11
-10.48065713144657
 21
693.6208648743856
 31
0.0
  0
LINE
  5
B5A
  8
LAYER_3
 62
   173
 10
-10.48065713144657
 20
693.6208648743856
 30
0.0
 11
-10.3914013664917
 21
693.15122567865
 31
0.0
  0
LINE
  5
B5B
  8
LAYER_3
 62
   173
 10
-10.3914013664917
 20
693.15122567865
 30
0.0
 11
-10.31823165761006
 21
692.6788129783008
 31
0.0
  0
LINE
  5
B5C
  8
LAYER_3
 62
   173
 10
-10.31823165761006
 20
692.6788129783008
 30
0.0
 11
-10.2612333176041
 21
692.2041775866733
 31
0.0
  0
LINE
  5
B5D
  8
LAYER_3
 62
   173
 10
-10.2612333176041
 20
692.2041775866733
 30
0.0
 11
-10.2204728041404
 21
691.7278729086665
 31
0.0
  0
LINE
  5
B5E
  8
LAYER_3
 62
   173
 10
-10.2204728041404
 20
691.7278729086665
 30
0.0
 11
-10.19599764226293
 21
691.2504542954977
 31
0.0
  0
LINE
  5
B5F
  8
LAYER_3
 62
   173
 10
-10.19599764226293
 20
691.2504542954977
 30
0.0
 11
-10.18783636898081
 21
690.7724783971854
 31
0.0
  0
LINE
  5
B60
  8
LAYER_3
 62
   173
 10
-10.18783636898081
 20
690.7724783971854
 30
0.0
 11
-10.18783636898082
 21
676.6381128950766
 31
0.0
  0
LINE
  5
B61
  8
LAYER_3
 62
   173
 10
-10.18783636898082
 20
676.6381128950766
 30
0.0
 11
-18.18786485005373
 21
676.4107365930502
 31
0.0
  0
LINE
  5
B62
  8
LAYER_3
 62
   173
 10
-18.18786485005373
 20
676.4107365930502
 30
0.0
 11
-18.18786485005373
 21
690.7724783971854
 31
0.0
  0
LINE
  5
B63
  8
LAYER_3
 62
   173
 10
-18.18786485005373
 20
690.7724783971854
 30
0.0
 11
-18.19152124077632
 21
690.9818742125829
 31
0.0
  0
LINE
  5
B64
  8
LAYER_3
 62
   173
 10
-18.19152124077632
 20
690.9818742125829
 30
0.0
 11
-18.20248315037172
 21
691.191014866778
 31
0.0
  0
LINE
  5
B65
  8
LAYER_3
 62
   173
 10
-18.20248315037172
 20
691.191014866778
 30
0.0
 11
-18.22073722366964
 21
691.399645558449
 31
0.0
  0
LINE
  5
B66
  8
LAYER_3
 62
   173
 10
-18.22073722366964
 20
691.399645558449
 30
0.0
 11
-18.24626122127329
 21
691.6075121075746
 31
0.0
  0
LINE
  5
B67
  8
LAYER_3
 62
   173
 10
-18.24626122127329
 20
691.6075121075746
 30
0.0
 11
-18.27902404665411
 21
691.8143612651078
 31
0.0
  0
LINE
  5
B68
  8
LAYER_3
 62
   173
 10
-18.27902404665411
 20
691.8143612651078
 30
0.0
 11
-18.31898578403759
 21
692.0199410215149
 31
0.0
  0
LINE
  5
B69
  8
LAYER_3
 62
   173
 10
-18.31898578403759
 20
692.0199410215149
 30
0.0
 11
-18.36609774703348
 21
692.2240009138058
 31
0.0
  0
LINE
  5
B6A
  8
LAYER_3
 62
   173
 10
-18.36609774703348
 20
692.2240009138058
 30
0.0
 11
-18.42030253795184
 21
692.4262923306791
 31
0.0
  0
LINE
  5
B6B
  8
LAYER_3
 62
   173
 10
-18.42030253795184
 20
692.4262923306791
 30
0.0
 11
-18.48153411773198
 21
692.6265688154115
 31
0.0
  0
LINE
  5
B6C
  8
LAYER_3
 62
   173
 10
-18.48153411773198
 20
692.6265688154115
 30
0.0
 11
-18.54971788639946
 21
692.8245863661219
 31
0.0
  0
LINE
  5
B6D
  8
LAYER_3
 62
   173
 10
-18.54971788639946
 20
692.8245863661219
 30
0.0
 11
-18.62477077395329
 21
693.0201037330461
 31
0.0
  0
LINE
  5
B6E
  8
LAYER_3
 62
   173
 10
-18.62477077395329
 20
693.0201037330461
 30
0.0
 11
-18.70660134157201
 21
693.2128827124559
 31
0.0
  0
LINE
  5
B6F
  8
LAYER_3
 62
   173
 10
-18.70660134157201
 20
693.2128827124559
 30
0.0
 11
-18.79510989301603
 21
693.40268843687
 31
0.0
  0
LINE
  5
B70
  8
LAYER_3
 62
   173
 10
-18.79510989301603
 20
693.40268843687
 30
0.0
 11
-18.89018859609004
 21
693.5892896611984
 31
0.0
  0
LINE
  5
B71
  8
LAYER_3
 62
   173
 10
-18.89018859609004
 20
693.5892896611984
 30
0.0
 11
-18.99172161401767
 21
693.7724590444742
 31
0.0
  0
LINE
  5
B72
  8
LAYER_3
 62
   173
 10
-18.99172161401767
 20
693.7724590444742
 30
0.0
 11
-19.09958524656832
 21
693.9519734268287
 31
0.0
  0
LINE
  5
B73
  8
LAYER_3
 62
   173
 10
-19.09958524656832
 20
693.9519734268287
 30
0.0
 11
-19.21364808076435
 21
694.1276141013726
 31
0.0
  0
LINE
  5
B74
  8
LAYER_3
 62
   173
 10
-19.21364808076435
 20
694.1276141013726
 30
0.0
 11
-19.33377115098476
 21
694.2991670806529
 31
0.0
  0
LINE
  5
B75
  8
LAYER_3
 62
   173
 10
-19.33377115098476
 20
694.2991670806529
 30
0.0
 11
-19.45980810827049
 21
694.4664233573578
 31
0.0
  0
LINE
  5
B76
  8
LAYER_3
 62
   173
 10
-19.45980810827049
 20
694.4664233573578
 30
0.0
 11
-19.59160539862507
 21
694.6291791589574
 31
0.0
  0
LINE
  5
B77
  8
LAYER_3
 62
   173
 10
-19.59160539862507
 20
694.6291791589574
 30
0.0
 11
-19.72900245009333
 21
694.7872361959628
 31
0.0
  0
LINE
  5
B78
  8
LAYER_3
 62
   173
 10
-19.72900245009333
 20
694.7872361959628
 30
0.0
 11
-19.87183186839015
 21
694.9404019035089
 31
0.0
  0
LINE
  5
B79
  8
LAYER_3
 62
   173
 10
-19.87183186839015
 20
694.9404019035089
 30
0.0
 11
-20.01991964084134
 21
695.0884896759601
 31
0.0
  0
LINE
  5
B7A
  8
LAYER_3
 62
   173
 10
-20.01991964084134
 20
695.0884896759601
 30
0.0
 11
-20.17308534838739
 21
695.231319094257
 31
0.0
  0
LINE
  5
B7B
  8
LAYER_3
 62
   173
 10
-20.17308534838739
 20
695.231319094257
 30
0.0
 11
-20.33114238539285
 21
695.3687161457251
 31
0.0
  0
LINE
  5
B7C
  8
LAYER_3
 62
   173
 10
-20.33114238539285
 20
695.3687161457251
 30
0.0
 11
-20.49389818699231
 21
695.5005134360798
 31
0.0
  0
LINE
  5
B7D
  8
LAYER_3
 62
   173
 10
-20.49389818699231
 20
695.5005134360798
 30
0.0
 11
-20.66115446369745
 21
695.6265503933655
 31
0.0
  0
LINE
  5
B7E
  8
LAYER_3
 62
   173
 10
-20.66115446369745
 20
695.6265503933655
 30
0.0
 11
-20.83270744297768
 21
695.7466734635858
 31
0.0
  0
LINE
  5
B7F
  8
LAYER_3
 62
   173
 10
-20.83270744297768
 20
695.7466734635858
 30
0.0
 11
-21.00834811752167
 21
695.8607362977818
 31
0.0
  0
LINE
  5
B80
  8
LAYER_3
 62
   173
 10
-21.00834811752167
 20
695.8607362977818
 30
0.0
 11
-21.18786249987606
 21
695.9685999303326
 31
0.0
  0
LINE
  5
B81
  8
LAYER_3
 62
   173
 10
-21.18786249987606
 20
695.9685999303326
 30
0.0
 11
-21.3710318831518
 21
696.0701329482602
 31
0.0
  0
LINE
  5
B82
  8
LAYER_3
 62
   173
 10
-21.3710318831518
 20
696.0701329482602
 30
0.0
 11
-21.55763310748019
 21
696.1652116513342
 31
0.0
  0
LINE
  5
B83
  8
LAYER_3
 62
   173
 10
-21.55763310748019
 20
696.1652116513342
 30
0.0
 11
-21.74743883189437
 21
696.2537202027781
 31
0.0
  0
LINE
  5
B84
  8
LAYER_3
 62
   173
 10
-21.74743883189437
 20
696.2537202027781
 30
0.0
 11
-21.94021781130418
 21
696.3355507703969
 31
0.0
  0
LINE
  5
B85
  8
LAYER_3
 62
   173
 10
-21.94021781130418
 20
696.3355507703969
 30
0.0
 11
-22.13573517822832
 21
696.4106036579508
 31
0.0
  0
LINE
  5
B86
  8
LAYER_3
 62
   173
 10
-22.13573517822832
 20
696.4106036579508
 30
0.0
 11
-22.33375272893885
 21
696.4787874266183
 31
0.0
  0
LINE
  5
B87
  8
LAYER_3
 62
   173
 10
-22.33375272893885
 20
696.4787874266183
 30
0.0
 11
-22.53402921367116
 21
696.5400190063984
 31
0.0
  0
LINE
  5
B88
  8
LAYER_3
 62
   173
 10
-22.53402921367116
 20
696.5400190063984
 30
0.0
 11
-22.73632063054444
 21
696.5942237973168
 31
0.0
  0
LINE
  5
B89
  8
LAYER_3
 62
   173
 10
-22.73632063054444
 20
696.5942237973168
 30
0.0
 11
-22.94038052283534
 21
696.6413357603127
 31
0.0
  0
LINE
  5
B8A
  8
LAYER_3
 62
   173
 10
-22.94038052283534
 20
696.6413357603127
 30
0.0
 11
-23.1459602792424
 21
696.681297497696
 31
0.0
  0
LINE
  5
B8B
  8
LAYER_3
 62
   173
 10
-23.1459602792424
 20
696.681297497696
 30
0.0
 11
-23.35280943677556
 21
696.714060323077
 31
0.0
  0
LINE
  5
B8C
  8
LAYER_3
 62
   173
 10
-23.35280943677556
 20
696.714060323077
 30
0.0
 11
-23.56067598590127
 21
696.7395843206806
 31
0.0
  0
LINE
  5
B8D
  8
LAYER_3
 62
   173
 10
-23.56067598590127
 20
696.7395843206806
 30
0.0
 11
-23.76930667757231
 21
696.7578383939784
 31
0.0
  0
LINE
  5
B8E
  8
LAYER_3
 62
   173
 10
-23.76930667757231
 20
696.7578383939784
 30
0.0
 11
-23.97844733176733
 21
696.7688003035738
 31
0.0
  0
LINE
  5
B8F
  8
LAYER_3
 62
   173
 10
-23.97844733176733
 20
696.7688003035738
 30
0.0
 11
-24.18784314716484
 21
696.7724566942965
 31
0.0
  0
LINE
  5
B90
  8
LAYER_3
 62
   173
 10
-24.18784314716484
 20
696.7724566942965
 30
0.0
 11
-25.34039984175518
 21
696.7724566942965
 31
0.0
  0
LINE
  5
B91
  8
LAYER_3
 62
   173
 10
-25.34039984175518
 20
696.7724566942965
 30
0.0
 11
-35.08881428159238
 21
693.8990748048238
 31
0.0
  0
LINE
  5
B92
  8
LAYER_3
 62
   173
 10
-35.08881428159238
 20
693.8990748048238
 30
0.0
 11
-44.48875731309656
 21
689.9506508691791
 31
0.0
  0
LINE
  5
B93
  8
LAYER_3
 62
   173
 10
-44.48875731309656
 20
689.9506508691791
 30
0.0
 11
-53.5137017010313
 21
685.0293319684996
 31
0.0
  0
LINE
  5
B94
  8
LAYER_3
 62
   173
 10
-53.5137017010313
 20
685.0293319684996
 30
0.0
 11
-62.13643119106312
 21
679.2370929291491
 31
0.0
  0
LINE
  5
B95
  8
LAYER_3
 62
   173
 10
-62.13643119106312
 20
679.2370929291491
 30
0.0
 11
-70.32593992382476
 21
672.6809039659444
 31
0.0
  0
LINE
  5
B96
  8
LAYER_3
 62
   173
 10
-70.32593992382476
 20
672.6809039659444
 30
0.0
 11
-80.07004799430541
 21
663.406190155329
 31
0.0
  0
LINE
  5
B97
  8
LAYER_3
 62
   173
 10
-80.07004799430541
 20
663.406190155329
 30
0.0
 11
-88.99198402723117
 21
653.3074095046419
 31
0.0
  0
LINE
  5
B98
  8
LAYER_3
 62
   173
 10
-88.99198402723117
 20
653.3074095046419
 30
0.0
 11
-97.04265541193726
 21
642.593851564612
 31
0.0
  0
LINE
  5
B99
  8
LAYER_3
 62
   173
 10
-97.04265541193726
 20
642.593851564612
 30
0.0
 11
-104.2349812564933
 21
631.3743813525731
 31
0.0
  0
LINE
  5
B9A
  8
LAYER_3
 62
   173
 10
-104.2349812564933
 20
631.3743813525731
 30
0.0
 11
-110.6216715218238
 21
619.692751581188
 31
0.0
  0
LINE
  5
B9B
  8
LAYER_3
 62
   173
 10
-110.6216715218238
 20
619.692751581188
 30
0.0
 11
-117.5418348230451
 21
604.5224458666646
 31
0.0
  0
LINE
  5
B9C
  8
LAYER_3
 62
   173
 10
-117.5418348230451
 20
604.5224458666646
 30
0.0
 11
-123.3666300147313
 21
588.8164278041849
 31
0.0
  0
LINE
  5
B9D
  8
LAYER_3
 62
   173
 10
-123.3666300147313
 20
588.8164278041849
 30
0.0
 11
-128.1873521272414
 21
572.6804618251459
 31
0.0
  0
LINE
  5
B9E
  8
LAYER_3
 62
   173
 10
-128.1873521272414
 20
572.6804618251459
 30
0.0
 11
-132.0954684457088
 21
556.2215181443648
 31
0.0
  0
LINE
  5
B9F
  8
LAYER_3
 62
   173
 10
-132.0954684457088
 20
556.2215181443648
 30
0.0
 11
-135.8960977850364
 21
534.9783703632172
 31
0.0
  0
LINE
  5
BA0
  8
LAYER_3
 62
   173
 10
-135.8960977850364
 20
534.9783703632172
 30
0.0
 11
-138.5612236524257
 21
513.6124049280205
 31
0.0
  0
LINE
  5
BA1
  8
LAYER_3
 62
   173
 10
-138.5612236524257
 20
513.6124049280205
 30
0.0
 11
-140.2856661975675
 21
492.3516871598982
 31
0.0
  0
LINE
  5
BA2
  8
LAYER_3
 62
   173
 10
-140.2856661975675
 20
492.3516871598982
 30
0.0
 11
-141.2654513535725
 21
471.415841896035
 31
0.0
  0
LINE
  5
BA3
  8
LAYER_3
 62
   173
 10
-141.2654513535725
 20
471.415841896035
 30
0.0
 11
-141.2654513535725
 21
-188.8914848703119
 31
0.0
  0
LINE
  5
BA4
  8
LAYER_3
 62
   173
 10
-141.2654513535725
 20
-188.8914848703119
 30
0.0
 11
-141.2852694250733
 21
-190.0522832801507
 31
0.0
  0
LINE
  5
BA5
  8
LAYER_3
 62
   173
 10
-141.2852694250733
 20
-190.0522832801507
 30
0.0
 11
-141.3447070305955
 21
-191.2117283522834
 31
0.0
  0
LINE
  5
BA6
  8
LAYER_3
 62
   173
 10
-141.3447070305955
 20
-191.2117283522834
 30
0.0
 11
-141.4436948680561
 21
-192.3684682159854
 31
0.0
  0
LINE
  5
BA7
  8
LAYER_3
 62
   173
 10
-141.4436948680561
 20
-192.3684682159854
 30
0.0
 11
-141.5821175212418
 21
-193.5211541547073
 31
0.0
  0
LINE
  5
BA8
  8
LAYER_3
 62
   173
 10
-141.5821175212418
 20
-193.5211541547073
 30
0.0
 11
-141.7598135943808
 21
-194.6684421786287
 31
0.0
  0
LINE
  5
BA9
  8
LAYER_3
 62
   173
 10
-141.7598135943808
 20
-194.6684421786287
 30
0.0
 11
-141.976575900324
 21
-195.8089945917007
 31
0.0
  0
LINE
  5
BAA
  8
LAYER_3
 62
   173
 10
-141.976575900324
 20
-195.8089945917007
 30
0.0
 11
-142.2321517021178
 21
-196.9414815513522
 31
0.0
  0
LINE
  5
BAB
  8
LAYER_3
 62
   173
 10
-142.2321517021178
 20
-196.9414815513522
 30
0.0
 11
-142.5262430076859
 21
-198.0645826190356
 31
0.0
  0
LINE
  5
BAC
  8
LAYER_3
 62
   173
 10
-142.5262430076859
 20
-198.0645826190356
 30
0.0
 11
-142.8585069172776
 21
-199.1769882998126
 31
0.0
  0
LINE
  5
BAD
  8
LAYER_3
 62
   173
 10
-142.8585069172776
 20
-199.1769882998126
 30
0.0
 11
-143.2285560232764
 21
-200.2774015691764
 31
0.0
  0
LINE
  5
BAE
  8
LAYER_3
 62
   173
 10
-143.2285560232764
 20
-200.2774015691764
 30
0.0
 11
-143.6359588619027
 21
-201.3645393853348
 31
0.0
  0
LINE
  5
BAF
  8
LAYER_3
 62
   173
 10
-143.6359588619027
 20
-201.3645393853348
 30
0.0
 11
-144.0802404162855
 21
-202.4371341851904
 31
0.0
  0
LINE
  5
BB0
  8
LAYER_3
 62
   173
 10
-144.0802404162855
 20
-202.4371341851904
 30
0.0
 11
-144.5608826703142
 21
-203.4939353622736
 31
0.0
  0
LINE
  5
BB1
  8
LAYER_3
 62
   173
 10
-144.5608826703142
 20
-203.4939353622736
 30
0.0
 11
-145.077325212627
 21
-204.5337107249034
 31
0.0
  0
LINE
  5
BB2
  8
LAYER_3
 62
   173
 10
-145.077325212627
 20
-204.5337107249034
 30
0.0
 11
-145.6289658900299
 21
-205.5552479328786
 31
0.0
  0
LINE
  5
BB3
  8
LAYER_3
 62
   173
 10
-145.6289658900299
 20
-205.5552479328786
 30
0.0
 11
-146.2151615095848
 21
-206.5573559110211
 31
0.0
  0
LINE
  5
BB4
  8
LAYER_3
 62
   173
 10
-146.2151615095848
 20
-206.5573559110211
 30
0.0
 11
-146.8352285885505
 21
-207.5388662379282
 31
0.0
  0
LINE
  5
BB5
  8
LAYER_3
 62
   173
 10
-146.8352285885505
 20
-207.5388662379282
 30
0.0
 11
-147.4884441512972
 21
-208.498634508308
 31
0.0
  0
LINE
  5
BB6
  8
LAYER_3
 62
   173
 10
-147.4884441512972
 20
-208.498634508308
 30
0.0
 11
-148.1740465722706
 21
-209.4355416673145
 31
0.0
  0
LINE
  5
BB7
  8
LAYER_3
 62
   173
 10
-148.1740465722706
 20
-209.4355416673145
 30
0.0
 11
-148.8912364640197
 21
-210.3484953153252
 31
0.0
  0
LINE
  5
BB8
  8
LAYER_3
 62
   173
 10
-148.8912364640197
 20
-210.3484953153252
 30
0.0
 11
-149.6391776092518
 21
-211.236430981638
 31
0.0
  0
LINE
  5
BB9
  8
LAYER_3
 62
   173
 10
-149.6391776092518
 20
-211.236430981638
 30
0.0
 11
-150.4169979358348
 21
-212.0983133656079
 31
0.0
  0
LINE
  5
BBA
  8
LAYER_3
 62
   173
 10
-150.4169979358348
 20
-212.0983133656079
 30
0.0
 11
-151.2237905335971
 21
-212.9331375437665
 31
0.0
  0
LINE
  5
BBB
  8
LAYER_3
 62
   173
 10
-151.2237905335971
 20
-212.9331375437665
 30
0.0
 11
-152.0586147117557
 21
-213.7399301415288
 31
0.0
  0
LINE
  5
BBC
  8
LAYER_3
 62
   173
 10
-152.0586147117557
 20
-213.7399301415288
 30
0.0
 11
-152.9204970957253
 21
-214.5177504681114
 31
0.0
  0
LINE
  5
BBD
  8
LAYER_3
 62
   173
 10
-152.9204970957253
 20
-214.5177504681114
 30
0.0
 11
-153.8084327620386
 21
-215.2656916133441
 31
0.0
  0
LINE
  5
BBE
  8
LAYER_3
 62
   173
 10
-153.8084327620386
 20
-215.2656916133441
 30
0.0
 11
-154.7213864100488
 21
-215.9828815050927
 31
0.0
  0
LINE
  5
BBF
  8
LAYER_3
 62
   173
 10
-154.7213864100488
 20
-215.9828815050927
 30
0.0
 11
-155.6582935690556
 21
-216.6684839260664
 31
0.0
  0
LINE
  5
BC0
  8
LAYER_3
 62
   173
 10
-155.6582935690556
 20
-216.6684839260664
 30
0.0
 11
-156.6180618394354
 21
-217.3216994888131
 31
0.0
  0
LINE
  5
BC1
  8
LAYER_3
 62
   173
 10
-156.6180618394354
 20
-217.3216994888131
 30
0.0
 11
-157.5995721663425
 21
-217.9417665677787
 31
0.0
  0
LINE
  5
BC2
  8
LAYER_3
 62
   173
 10
-157.5995721663425
 20
-217.9417665677787
 30
0.0
 11
-158.6016801444854
 21
-218.5279621873338
 31
0.0
  0
LINE
  5
BC3
  8
LAYER_3
 62
   173
 10
-158.6016801444854
 20
-218.5279621873338
 30
0.0
 11
-159.6232173524602
 21
-219.0796028647365
 31
0.0
  0
LINE
  5
BC4
  8
LAYER_3
 62
   173
 10
-159.6232173524602
 20
-219.0796028647365
 30
0.0
 11
-160.66299271509
 21
-219.5960454070493
 31
0.0
  0
LINE
  5
BC5
  8
LAYER_3
 62
   173
 10
-160.66299271509
 20
-219.5960454070493
 30
0.0
 11
-161.7197938921731
 21
-220.076687661078
 31
0.0
  0
LINE
  5
BC6
  8
LAYER_3
 62
   173
 10
-161.7197938921731
 20
-220.076687661078
 30
0.0
 11
-162.7923886920289
 21
-220.5209692154608
 31
0.0
  0
LINE
  5
BC7
  8
LAYER_3
 62
   173
 10
-162.7923886920289
 20
-220.5209692154608
 30
0.0
 11
-163.8795265081872
 21
-220.9283720540872
 31
0.0
  0
LINE
  5
BC8
  8
LAYER_3
 62
   173
 10
-163.8795265081872
 20
-220.9283720540872
 30
0.0
 11
-164.9799397775509
 21
-221.2984211600859
 31
0.0
  0
LINE
  5
BC9
  8
LAYER_3
 62
   173
 10
-164.9799397775509
 20
-221.2984211600859
 30
0.0
 11
-166.092345458328
 21
-221.6306850696776
 31
0.0
  0
LINE
  5
BCA
  8
LAYER_3
 62
   173
 10
-166.092345458328
 20
-221.6306850696776
 30
0.0
 11
-167.2154465260118
 21
-221.9247763752458
 31
0.0
  0
LINE
  5
BCB
  8
LAYER_3
 62
   173
 10
-167.2154465260118
 20
-221.9247763752458
 30
0.0
 11
-168.3479334856628
 21
-222.1803521770395
 31
0.0
  0
LINE
  5
BCC
  8
LAYER_3
 62
   173
 10
-168.3479334856628
 20
-222.1803521770395
 30
0.0
 11
-169.4884858987349
 21
-222.3971144829827
 31
0.0
  0
LINE
  5
BCD
  8
LAYER_3
 62
   173
 10
-169.4884858987349
 20
-222.3971144829827
 30
0.0
 11
-170.6357739226562
 21
-222.5748105561217
 31
0.0
  0
LINE
  5
BCE
  8
LAYER_3
 62
   173
 10
-170.6357739226562
 20
-222.5748105561217
 30
0.0
 11
-171.7884598613782
 21
-222.7132332093074
 31
0.0
  0
LINE
  5
BCF
  8
LAYER_3
 62
   173
 10
-171.7884598613782
 20
-222.7132332093074
 30
0.0
 11
-172.9451997250805
 21
-222.8122210467679
 31
0.0
  0
LINE
  5
BD0
  8
LAYER_3
 62
   173
 10
-172.9451997250805
 20
-222.8122210467679
 30
0.0
 11
-174.1046447972129
 21
-222.8716586522902
 31
0.0
  0
LINE
  5
BD1
  8
LAYER_3
 62
   173
 10
-174.1046447972129
 20
-222.8716586522902
 30
0.0
 11
-175.2654432070517
 21
-222.891476723791
 31
0.0
  0
LINE
  5
BD2
  8
LAYER_3
 62
   173
 10
-175.2654432070517
 20
-222.891476723791
 30
0.0
 11
-218.123981336528
 21
-222.891476723791
 31
0.0
  0
LINE
  5
BD3
  8
LAYER_3
 62
   173
 10
-218.123981336528
 20
-222.891476723791
 30
0.0
 11
-212.6571315657593
 21
-214.8916204974924
 31
0.0
  0
LINE
  5
BD4
  8
LAYER_3
 62
   173
 10
-212.6571315657593
 20
-214.8916204974924
 30
0.0
 11
-206.6793741345281
 21
-214.8916204974924
 31
0.0
  0
LINE
  5
BD5
  8
LAYER_3
 62
   173
 10
-206.6793741345281
 20
-214.8916204974924
 30
0.0
 11
-175.2654432070517
 21
-214.8916204974924
 31
0.0
  0
LINE
  5
BD6
  8
LAYER_3
 62
   173
 10
-175.2654432070517
 20
-214.8916204974924
 30
0.0
 11
-174.3580548053442
 21
-214.8757783349588
 31
0.0
  0
LINE
  5
BD7
  8
LAYER_3
 62
   173
 10
-174.3580548053442
 20
-214.8757783349588
 30
0.0
 11
-173.4517720421289
 21
-214.8282784532086
 31
0.0
  0
LINE
  5
BD8
  8
LAYER_3
 62
   173
 10
-173.4517720421289
 20
-214.8282784532086
 30
0.0
 11
-172.5476990813479
 21
-214.749178723426
 31
0.0
  0
LINE
  5
BD9
  8
LAYER_3
 62
   173
 10
-172.5476990813479
 20
-214.749178723426
 30
0.0
 11
-171.6469373946433
 21
-214.6385755162725
 31
0.0
  0
LINE
  5
BDA
  8
LAYER_3
 62
   173
 10
-171.6469373946433
 20
-214.6385755162725
 30
0.0
 11
-170.750584419388
 21
-214.4966035844745
 31
0.0
  0
LINE
  5
BDB
  8
LAYER_3
 62
   173
 10
-170.750584419388
 20
-214.4966035844745
 30
0.0
 11
-169.8597322216285
 21
-214.3234358986478
 31
0.0
  0
LINE
  5
BDC
  8
LAYER_3
 62
   173
 10
-169.8597322216285
 20
-214.3234358986478
 30
0.0
 11
-168.9754661655737
 21
-214.1192834365606
 31
0.0
  0
LINE
  5
BDD
  8
LAYER_3
 62
   173
 10
-168.9754661655737
 20
-214.1192834365606
 30
0.0
 11
-168.0988635912473
 21
-213.8843949260894
 31
0.0
  0
LINE
  5
BDE
  8
LAYER_3
 62
   173
 10
-168.0988635912473
 20
-213.8843949260894
 30
0.0
 11
-167.2309925019181
 21
-213.6190565421831
 31
0.0
  0
LINE
  5
BDF
  8
LAYER_3
 62
   173
 10
-167.2309925019181
 20
-213.6190565421831
 30
0.0
 11
-166.3729102629053
 21
-213.3235915582039
 31
0.0
  0
LINE
  5
BE0
  8
LAYER_3
 62
   173
 10
-166.3729102629053
 20
-213.3235915582039
 30
0.0
 11
-165.5256623133426
 21
-212.9983599520687
 31
0.0
  0
LINE
  5
BE1
  8
LAYER_3
 62
   173
 10
-165.5256623133426
 20
-212.9983599520687
 30
0.0
 11
-164.6902808924756
 21
-212.6437579676725
 31
0.0
  0
LINE
  5
BE2
  8
LAYER_3
 62
   173
 10
-164.6902808924756
 20
-212.6437579676725
 30
0.0
 11
-163.8677837820389
 21
-212.2602176321278
 31
0.0
  0
LINE
  5
BE3
  8
LAYER_3
 62
   173
 10
-163.8677837820389
 20
-212.2602176321278
 30
0.0
 11
-163.0591730662464
 21
-211.8482062294051
 31
0.0
  0
LINE
  5
BE4
  8
LAYER_3
 62
   173
 10
-163.0591730662464
 20
-211.8482062294051
 30
0.0
 11
-162.2654339109125
 21
-211.4082257310231
 31
0.0
  0
LINE
  5
BE5
  8
LAYER_3
 62
   173
 10
-162.2654339109125
 20
-211.4082257310231
 30
0.0
 11
-161.4875333631764
 21
-210.9408121844722
 31
0.0
  0
LINE
  5
BE6
  8
LAYER_3
 62
   173
 10
-161.4875333631764
 20
-210.9408121844722
 30
0.0
 11
-160.7264191733099
 21
-210.4465350601266
 31
0.0
  0
LINE
  5
BE7
  8
LAYER_3
 62
   173
 10
-160.7264191733099
 20
-210.4465350601266
 30
0.0
 11
-159.9830186400305
 21
-209.925996557432
 31
0.0
  0
LINE
  5
BE8
  8
LAYER_3
 62
   173
 10
-159.9830186400305
 20
-209.925996557432
 30
0.0
 11
-159.2582374807333
 21
-209.3798308712211
 31
0.0
  0
LINE
  5
BE9
  8
LAYER_3
 62
   173
 10
-159.2582374807333
 20
-209.3798308712211
 30
0.0
 11
-158.552958728014
 21
-208.8087034190441
 31
0.0
  0
LINE
  5
BEA
  8
LAYER_3
 62
   173
 10
-158.552958728014
 20
-208.8087034190441
 30
0.0
 11
-157.8680416538343
 21
-208.2133100304642
 31
0.0
  0
LINE
  5
BEB
  8
LAYER_3
 62
   173
 10
-157.8680416538343
 20
-208.2133100304642
 30
0.0
 11
-157.2043207226322
 21
-207.5943760992961
 31
0.0
  0
LINE
  5
BEC
  8
LAYER_3
 62
   173
 10
-157.2043207226322
 20
-207.5943760992961
 30
0.0
 11
-156.5626045746567
 21
-206.9526556998273
 31
0.0
  0
LINE
  5
BED
  8
LAYER_3
 62
   173
 10
-156.5626045746567
 20
-206.9526556998273
 30
0.0
 11
-155.9436750407666
 21
-206.2889306680964
 31
0.0
  0
LINE
  5
BEE
  8
LAYER_3
 62
   173
 10
-155.9436750407666
 20
-206.2889306680964
 30
0.0
 11
-155.3482861898925
 21
-205.6040096493487
 31
0.0
  0
LINE
  5
BEF
  8
LAYER_3
 62
   173
 10
-155.3482861898925
 20
-205.6040096493487
 30
0.0
 11
-154.7771634103206
 21
-204.898727112828
 31
0.0
  0
LINE
  5
BF0
  8
LAYER_3
 62
   173
 10
-154.7771634103206
 20
-204.898727112828
 30
0.0
 11
-154.2310025259206
 21
-204.1739423351054
 31
0.0
  0
LINE
  5
BF1
  8
LAYER_3
 62
   173
 10
-154.2310025259206
 20
-204.1739423351054
 30
0.0
 11
-153.710468948393
 21
-203.4305383531856
 31
0.0
  0
LINE
  5
BF2
  8
LAYER_3
 62
   173
 10
-153.710468948393
 20
-203.4305383531856
 30
0.0
 11
-153.21619686657
 21
-202.6694208886656
 31
0.0
  0
LINE
  5
BF3
  8
LAYER_3
 62
   173
 10
-153.21619686657
 20
-202.6694208886656
 30
0.0
 11
-152.7487884737536
 21
-201.891517244252
 31
0.0
  0
LINE
  5
BF4
  8
LAYER_3
 62
   173
 10
-152.7487884737536
 20
-201.891517244252
 30
0.0
 11
-152.3088132340388
 21
-201.0977751739891
 31
0.0
  0
LINE
  5
BF5
  8
LAYER_3
 62
   173
 10
-152.3088132340388
 20
-201.0977751739891
 30
0.0
 11
-151.8968071885095
 21
-200.2891617285688
 31
0.0
  0
LINE
  5
BF6
  8
LAYER_3
 62
   173
 10
-151.8968071885095
 20
-200.2891617285688
 30
0.0
 11
-151.513272302157
 21
-199.4666620771293
 31
0.0
  0
LINE
  5
BF7
  8
LAYER_3
 62
   173
 10
-151.513272302157
 20
-199.4666620771293
 30
0.0
 11
-151.1586758523135
 21
-198.6312783069818
 31
0.0
  0
LINE
  5
BF8
  8
LAYER_3
 62
   173
 10
-151.1586758523135
 20
-198.6312783069818
 30
0.0
 11
-150.833449859348
 21
-197.784028202723
 31
0.0
  0
LINE
  5
BF9
  8
LAYER_3
 62
   173
 10
-150.833449859348
 20
-197.784028202723
 30
0.0
 11
-150.5379905603168
 21
-196.9259440062227
 31
0.0
  0
LINE
  5
BFA
  8
LAYER_3
 62
   173
 10
-150.5379905603168
 20
-196.9259440062227
 30
0.0
 11
-150.2726579262107
 21
-196.0580711590007
 31
0.0
  0
LINE
  5
BFB
  8
LAYER_3
 62
   173
 10
-150.2726579262107
 20
-196.0580711590007
 30
0.0
 11
-150.0377752233867
 21
-195.181467028517
 31
0.0
  0
LINE
  5
BFC
  8
LAYER_3
 62
   173
 10
-150.0377752233867
 20
-195.181467028517
 30
0.0
 11
-149.8336286197178
 21
-194.2971996199364
 31
0.0
  0
LINE
  5
BFD
  8
LAYER_3
 62
   173
 10
-149.8336286197178
 20
-194.2971996199364
 30
0.0
 11
-149.6604668359431
 21
-193.4063462749311
 31
0.0
  0
LINE
  5
BFE
  8
LAYER_3
 62
   173
 10
-149.6604668359431
 20
-193.4063462749311
 30
0.0
 11
-149.5185008426399
 21
-192.5099923591071
 31
0.0
  0
LINE
  5
BFF
  8
LAYER_3
 62
   173
 10
-149.5185008426399
 20
-192.5099923591071
 30
0.0
 11
-149.4079036031891
 21
-191.6092299396572
 31
0.0
  0
LINE
  5
C00
  8
LAYER_3
 62
   173
 10
-149.4079036031891
 20
-191.6092299396572
 30
0.0
 11
-149.3288098630462
 21
-190.7051564548468
 31
0.0
  0
LINE
  5
C01
  8
LAYER_3
 62
   173
 10
-149.3288098630462
 20
-190.7051564548468
 30
0.0
 11
-149.2813159855754
 21
-189.7988733769568
 31
0.0
  0
LINE
  5
C02
  8
LAYER_3
 62
   173
 10
-149.2813159855754
 20
-189.7988733769568
 30
0.0
 11
-149.2654798346454
 21
-188.8914848703119
 31
0.0
  0
ENDBLK
  5
C04
  8
0
  0
ENDSEC
  0
SECTION
  2
ENTITIES
  0
INSERT
  5
77
  8
LAYER_2
  2
BLOCK_510
 10
0.0
 20
0.0
 30
0.0
  0
INSERT
  5
95
  8
LAYER_2
  2
BLOCK_508
 10
0.0
 20
0.0
 30
0.0
  0
INSERT
  5
9E
  8
LAYER_2
  2
BLOCK_506
 10
0.0
 20
0.0
 30
0.0
  0
INSERT
  5
A7
  8
LAYER_2
  2
BLOCK_504
 10
0.0
 20
0.0
 30
0.0
  0
INSERT
  5
B0
  8
LAYER_2
  2
BLOCK_502
 10
0.0
 20
0.0
 30
0.0
  0
INSERT
  5
B9
  8
LAYER_2
  2
BLOCK_500
 10
0.0
 20
0.0
 30
0.0
  0
INSERT
  5
C2
  8
LAYER_2
  2
BLOCK_498
 10
0.0
 20
0.0
 30
0.0
  0
INSERT
  5
CB
  8
LAYER_2
  2
BLOCK_496
 10
0.0
 20
0.0
 30
0.0
  0
INSERT
  5
D4
  8
LAYER_2
  2
BLOCK_494
 10
0.0
 20
0.0
 30
0.0
  0
INSERT
  5
DD
  8
LAYER_2
  2
BLOCK_492
 10
0.0
 20
0.0
 30
0.0
  0
INSERT
  5
E6
  8
LAYER_2
  2
BLOCK_490
 10
0.0
 20
0.0
 30
0.0
  0
INSERT
  5
EF
  8
LAYER_2
  2
BLOCK_488
 10
0.0
 20
0.0
 30
0.0
  0
INSERT
  5
F8
  8
LAYER_2
  2
BLOCK_486
 10
0.0
 20
0.0
 30
0.0
  0
INSERT
  5
101
  8
LAYER_2
  2
BLOCK_484
 10
0.0
 20
0.0
 30
0.0
  0
INSERT
  5
10A
  8
LAYER_2
  2
BLOCK_482
 10
0.0
 20
0.0
 30
0.0
  0
INSERT
  5
113
  8
LAYER_2
  2
BLOCK_480
 10
0.0
 20
0.0
 30
0.0
  0
INSERT
  5
11C
  8
LAYER_2
  2
BLOCK_478
 10
0.0
 20
0.0
 30
0.0
  0
INSERT
  5
125
  8
LAYER_2
  2
BLOCK_476
 10
0.0
 20
0.0
 30
0.0
  0
INSERT
  5
12E
  8
LAYER_2
  2
BLOCK_474
 10
0.0
 20
0.0
 30
0.0
  0
INSERT
  5
137
  8
LAYER_2
  2
BLOCK_472
 10
0.0
 20
0.0
 30
0.0
  0
INSERT
  5
155
  8
LAYER_2
  2
BLOCK_470
 10
0.0
 20
0.0
 30
0.0
  0
INSERT
  5
15E
  8
LAYER_2
  2
BLOCK_468
 10
0.0
 20
0.0
 30
0.0
  0
INSERT
  5
167
  8
LAYER_2
  2
BLOCK_466
 10
0.0
 20
0.0
 30
0.0
  0
INSERT
  5
170
  8
LAYER_2
  2
BLOCK_464
 10
0.0
 20
0.0
 30
0.0
  0
INSERT
  5
179
  8
LAYER_2
  2
BLOCK_462
 10
0.0
 20
0.0
 30
0.0
  0
INSERT
  5
182
  8
LAYER_2
  2
BLOCK_460
 10
0.0
 20
0.0
 30
0.0
  0
INSERT
  5
18B
  8
LAYER_2
  2
BLOCK_458
 10
0.0
 20
0.0
 30
0.0
  0
INSERT
  5
194
  8
LAYER_2
  2
BLOCK_456
 10
0.0
 20
0.0
 30
0.0
  0
INSERT
  5
19D
  8
LAYER_2
  2
BLOCK_454
 10
0.0
 20
0.0
 30
0.0
  0
INSERT
  5
1A6
  8
LAYER_2
  2
BLOCK_452
 10
0.0
 20
0.0
 30
0.0
  0
INSERT
  5
1AF
  8
LAYER_2
  2
BLOCK_450
 10
0.0
 20
0.0
 30
0.0
  0
INSERT
  5
1B8
  8
LAYER_2
  2
BLOCK_448
 10
0.0
 20
0.0
 30
0.0
  0
INSERT
  5
1C1
  8
LAYER_2
  2
BLOCK_446
 10
0.0
 20
0.0
 30
0.0
  0
INSERT
  5
1CA
  8
LAYER_2
  2
BLOCK_444
 10
0.0
 20
0.0
 30
0.0
  0
INSERT
  5
1D3
  8
LAYER_2
  2
BLOCK_442
 10
0.0
 20
0.0
 30
0.0
  0
INSERT
  5
1DC
  8
LAYER_2
  2
BLOCK_440
 10
0.0
 20
0.0
 30
0.0
  0
INSERT
  5
1E5
  8
LAYER_2
  2
BLOCK_438
 10
0.0
 20
0.0
 30
0.0
  0
INSERT
  5
1EE
  8
LAYER_2
  2
BLOCK_436
 10
0.0
 20
0.0
 30
0.0
  0
INSERT
  5
1F7
  8
LAYER_2
  2
BLOCK_434
 10
0.0
 20
0.0
 30
0.0
  0
INSERT
  5
215
  8
LAYER_2
  2
BLOCK_432
 10
0.0
 20
0.0
 30
0.0
  0
INSERT
  5
21E
  8
LAYER_2
  2
BLOCK_430
 10
0.0
 20
0.0
 30
0.0
  0
INSERT
  5
227
  8
LAYER_2
  2
BLOCK_428
 10
0.0
 20
0.0
 30
0.0
  0
INSERT
  5
230
  8
LAYER_2
  2
BLOCK_426
 10
0.0
 20
0.0
 30
0.0
  0
INSERT
  5
239
  8
LAYER_2
  2
BLOCK_424
 10
0.0
 20
0.0
 30
0.0
  0
INSERT
  5
242
  8
LAYER_2
  2
BLOCK_422
 10
0.0
 20
0.0
 30
0.0
  0
INSERT
  5
24B
  8
LAYER_2
  2
BLOCK_420
 10
0.0
 20
0.0
 30
0.0
  0
INSERT
  5
254
  8
LAYER_2
  2
BLOCK_418
 10
0.0
 20
0.0
 30
0.0
  0
INSERT
  5
25D
  8
LAYER_2
  2
BLOCK_416
 10
0.0
 20
0.0
 30
0.0
  0
INSERT
  5
266
  8
LAYER_2
  2
BLOCK_414
 10
0.0
 20
0.0
 30
0.0
  0
INSERT
  5
26F
  8
LAYER_2
  2
BLOCK_412
 10
0.0
 20
0.0
 30
0.0
  0
INSERT
  5
278
  8
LAYER_2
  2
BLOCK_410
 10
0.0
 20
0.0
 30
0.0
  0
INSERT
  5
281
  8
LAYER_2
  2
BLOCK_408
 10
0.0
 20
0.0
 30
0.0
  0
INSERT
  5
28A
  8
LAYER_2
  2
BLOCK_406
 10
0.0
 20
0.0
 30
0.0
  0
INSERT
  5
293
  8
LAYER_2
  2
BLOCK_404
 10
0.0
 20
0.0
 30
0.0
  0
INSERT
  5
29C
  8
LAYER_2
  2
BLOCK_402
 10
0.0
 20
0.0
 30
0.0
  0
INSERT
  5
2A5
  8
LAYER_2
  2
BLOCK_400
 10
0.0
 20
0.0
 30
0.0
  0
INSERT
  5
2AE
  8
LAYER_2
  2
BLOCK_398
 10
0.0
 20
0.0
 30
0.0
  0
INSERT
  5
2B7
  8
LAYER_2
  2
BLOCK_396
 10
0.0
 20
0.0
 30
0.0
  0
INSERT
  5
2C0
  8
LAYER_2
  2
BLOCK_394
 10
0.0
 20
0.0
 30
0.0
  0
INSERT
  5
2C9
  8
LAYER_2
  2
BLOCK_392
 10
0.0
 20
0.0
 30
0.0
  0
INSERT
  5
2D2
  8
LAYER_2
  2
BLOCK_390
 10
0.0
 20
0.0
 30
0.0
  0
INSERT
  5
2DB
  8
LAYER_2
  2
BLOCK_388
 10
0.0
 20
0.0
 30
0.0
  0
INSERT
  5
2E4
  8
LAYER_2
  2
BLOCK_386
 10
0.0
 20
0.0
 30
0.0
  0
INSERT
  5
2ED
  8
LAYER_2
  2
BLOCK_384
 10
0.0
 20
0.0
 30
0.0
  0
INSERT
  5
2F6
  8
LAYER_2
  2
BLOCK_382
 10
0.0
 20
0.0
 30
0.0
  0
INSERT
  5
2FF
  8
LAYER_2
  2
BLOCK_380
 10
0.0
 20
0.0
 30
0.0
  0
INSERT
  5
308
  8
LAYER_2
  2
BLOCK_378
 10
0.0
 20
0.0
 30
0.0
  0
INSERT
  5
311
  8
LAYER_2
  2
BLOCK_376
 10
0.0
 20
0.0
 30
0.0
  0
INSERT
  5
31A
  8
LAYER_2
  2
BLOCK_374
 10
0.0
 20
0.0
 30
0.0
  0
INSERT
  5
323
  8
LAYER_2
  2
BLOCK_372
 10
0.0
 20
0.0
 30
0.0
  0
INSERT
  5
32C
  8
LAYER_2
  2
BLOCK_370
 10
0.0
 20
0.0
 30
0.0
  0
INSERT
  5
335
  8
LAYER_2
  2
BLOCK_368
 10
0.0
 20
0.0
 30
0.0
  0
INSERT
  5
33E
  8
LAYER_2
  2
BLOCK_366
 10
0.0
 20
0.0
 30
0.0
  0
INSERT
  5
347
  8
LAYER_2
  2
BLOCK_364
 10
0.0
 20
0.0
 30
0.0
  0
INSERT
  5
350
  8
LAYER_2
  2
BLOCK_362
 10
0.0
 20
0.0
 30
0.0
  0
INSERT
  5
359
  8
LAYER_2
  2
BLOCK_360
 10
0.0
 20
0.0
 30
0.0
  0
INSERT
  5
362
  8
LAYER_2
  2
BLOCK_358
 10
0.0
 20
0.0
 30
0.0
  0
INSERT
  5
36B
  8
LAYER_2
  2
BLOCK_356
 10
0.0
 20
0.0
 30
0.0
  0
INSERT
  5
374
  8
LAYER_2
  2
BLOCK_354
 10
0.0
 20
0.0
 30
0.0
  0
INSERT
  5
37D
  8
LAYER_2
  2
BLOCK_352
 10
0.0
 20
0.0
 30
0.0
  0
INSERT
  5
386
  8
LAYER_2
  2
BLOCK_350
 10
0.0
 20
0.0
 30
0.0
  0
INSERT
  5
38F
  8
LAYER_2
  2
BLOCK_348
 10
0.0
 20
0.0
 30
0.0
  0
INSERT
  5
398
  8
LAYER_2
  2
BLOCK_346
 10
0.0
 20
0.0
 30
0.0
  0
INSERT
  5
3A1
  8
LAYER_2
  2
BLOCK_344
 10
0.0
 20
0.0
 30
0.0
  0
INSERT
  5
3AA
  8
LAYER_2
  2
BLOCK_342
 10
0.0
 20
0.0
 30
0.0
  0
INSERT
  5
3B3
  8
LAYER_2
  2
BLOCK_340
 10
0.0
 20
0.0
 30
0.0
  0
INSERT
  5
3BC
  8
LAYER_2
  2
BLOCK_338
 10
0.0
 20
0.0
 30
0.0
  0
INSERT
  5
3C5
  8
LAYER_2
  2
BLOCK_336
 10
0.0
 20
0.0
 30
0.0
  0
INSERT
  5
3CE
  8
LAYER_2
  2
BLOCK_334
 10
0.0
 20
0.0
 30
0.0
  0
INSERT
  5
3D7
  8
LAYER_2
  2
BLOCK_332
 10
0.0
 20
0.0
 30
0.0
  0
INSERT
  5
3E0
  8
LAYER_2
  2
BLOCK_330
 10
0.0
 20
0.0
 30
0.0
  0
INSERT
  5
3E9
  8
LAYER_2
  2
BLOCK_328
 10
0.0
 20
0.0
 30
0.0
  0
INSERT
  5
3F2
  8
LAYER_2
  2
BLOCK_326
 10
0.0
 20
0.0
 30
0.0
  0
INSERT
  5
3FB
  8
LAYER_2
  2
BLOCK_324
 10
0.0
 20
0.0
 30
0.0
  0
INSERT
  5
404
  8
LAYER_2
  2
BLOCK_322
 10
0.0
 20
0.0
 30
0.0
  0
INSERT
  5
40D
  8
LAYER_2
  2
BLOCK_320
 10
0.0
 20
0.0
 30
0.0
  0
INSERT
  5
416
  8
LAYER_2
  2
BLOCK_318
 10
0.0
 20
0.0
 30
0.0
  0
INSERT
  5
41F
  8
LAYER_2
  2
BLOCK_316
 10
0.0
 20
0.0
 30
0.0
  0
INSERT
  5
428
  8
LAYER_2
  2
BLOCK_314
 10
0.0
 20
0.0
 30
0.0
  0
INSERT
  5
431
  8
LAYER_2
  2
BLOCK_312
 10
0.0
 20
0.0
 30
0.0
  0
INSERT
  5
43A
  8
LAYER_2
  2
BLOCK_310
 10
0.0
 20
0.0
 30
0.0
  0
INSERT
  5
443
  8
LAYER_2
  2
BLOCK_308
 10
0.0
 20
0.0
 30
0.0
  0
INSERT
  5
44C
  8
LAYER_2
  2
BLOCK_306
 10
0.0
 20
0.0
 30
0.0
  0
INSERT
  5
455
  8
LAYER_2
  2
BLOCK_304
 10
0.0
 20
0.0
 30
0.0
  0
INSERT
  5
45E
  8
LAYER_2
  2
BLOCK_302
 10
0.0
 20
0.0
 30
0.0
  0
INSERT
  5
467
  8
LAYER_2
  2
BLOCK_300
 10
0.0
 20
0.0
 30
0.0
  0
INSERT
  5
470
  8
LAYER_2
  2
BLOCK_298
 10
0.0
 20
0.0
 30
0.0
  0
INSERT
  5
479
  8
LAYER_2
  2
BLOCK_296
 10
0.0
 20
0.0
 30
0.0
  0
INSERT
  5
482
  8
LAYER_2
  2
BLOCK_294
 10
0.0
 20
0.0
 30
0.0
  0
INSERT
  5
48B
  8
LAYER_2
  2
BLOCK_292
 10
0.0
 20
0.0
 30
0.0
  0
INSERT
  5
494
  8
LAYER_2
  2
BLOCK_290
 10
0.0
 20
0.0
 30
0.0
  0
INSERT
  5
49D
  8
LAYER_2
  2
BLOCK_288
 10
0.0
 20
0.0
 30
0.0
  0
INSERT
  5
4A6
  8
LAYER_2
  2
BLOCK_286
 10
0.0
 20
0.0
 30
0.0
  0
INSERT
  5
4AF
  8
LAYER_2
  2
BLOCK_284
 10
0.0
 20
0.0
 30
0.0
  0
INSERT
  5
4B8
  8
LAYER_2
  2
BLOCK_282
 10
0.0
 20
0.0
 30
0.0
  0
INSERT
  5
4C1
  8
LAYER_2
  2
BLOCK_280
 10
0.0
 20
0.0
 30
0.0
  0
INSERT
  5
4CA
  8
LAYER_2
  2
BLOCK_278
 10
0.0
 20
0.0
 30
0.0
  0
INSERT
  5
4D3
  8
LAYER_2
  2
BLOCK_276
 10
0.0
 20
0.0
 30
0.0
  0
INSERT
  5
4DC
  8
LAYER_2
  2
BLOCK_274
 10
0.0
 20
0.0
 30
0.0
  0
INSERT
  5
4E5
  8
LAYER_2
  2
BLOCK_272
 10
0.0
 20
0.0
 30
0.0
  0
INSERT
  5
4EE
  8
LAYER_2
  2
BLOCK_270
 10
0.0
 20
0.0
 30
0.0
  0
INSERT
  5
4F7
  8
LAYER_2
  2
BLOCK_268
 10
0.0
 20
0.0
 30
0.0
  0
INSERT
  5
500
  8
LAYER_2
  2
BLOCK_266
 10
0.0
 20
0.0
 30
0.0
  0
INSERT
  5
509
  8
LAYER_2
  2
BLOCK_264
 10
0.0
 20
0.0
 30
0.0
  0
INSERT
  5
512
  8
LAYER_2
  2
BLOCK_262
 10
0.0
 20
0.0
 30
0.0
  0
INSERT
  5
51B
  8
LAYER_2
  2
BLOCK_260
 10
0.0
 20
0.0
 30
0.0
  0
INSERT
  5
524
  8
LAYER_2
  2
BLOCK_258
 10
0.0
 20
0.0
 30
0.0
  0
INSERT
  5
52D
  8
LAYER_2
  2
BLOCK_256
 10
0.0
 20
0.0
 30
0.0
  0
INSERT
  5
536
  8
LAYER_2
  2
BLOCK_254
 10
0.0
 20
0.0
 30
0.0
  0
INSERT
  5
53F
  8
LAYER_2
  2
BLOCK_252
 10
0.0
 20
0.0
 30
0.0
  0
INSERT
  5
548
  8
LAYER_2
  2
BLOCK_250
 10
0.0
 20
0.0
 30
0.0
  0
INSERT
  5
551
  8
LAYER_2
  2
BLOCK_248
 10
0.0
 20
0.0
 30
0.0
  0
INSERT
  5
55A
  8
LAYER_2
  2
BLOCK_246
 10
0.0
 20
0.0
 30
0.0
  0
INSERT
  5
563
  8
LAYER_2
  2
BLOCK_244
 10
0.0
 20
0.0
 30
0.0
  0
INSERT
  5
56C
  8
LAYER_2
  2
BLOCK_242
 10
0.0
 20
0.0
 30
0.0
  0
INSERT
  5
575
  8
LAYER_2
  2
BLOCK_240
 10
0.0
 20
0.0
 30
0.0
  0
INSERT
  5
57E
  8
LAYER_2
  2
BLOCK_238
 10
0.0
 20
0.0
 30
0.0
  0
INSERT
  5
587
  8
LAYER_2
  2
BLOCK_236
 10
0.0
 20
0.0
 30
0.0
  0
INSERT
  5
590
  8
LAYER_2
  2
BLOCK_234
 10
0.0
 20
0.0
 30
0.0
  0
INSERT
  5
599
  8
LAYER_2
  2
BLOCK_232
 10
0.0
 20
0.0
 30
0.0
  0
INSERT
  5
5A2
  8
LAYER_2
  2
BLOCK_230
 10
0.0
 20
0.0
 30
0.0
  0
INSERT
  5
5AB
  8
LAYER_2
  2
BLOCK_228
 10
0.0
 20
0.0
 30
0.0
  0
INSERT
  5
5B4
  8
LAYER_2
  2
BLOCK_226
 10
0.0
 20
0.0
 30
0.0
  0
INSERT
  5
5BD
  8
LAYER_2
  2
BLOCK_224
 10
0.0
 20
0.0
 30
0.0
  0
INSERT
  5
5C6
  8
LAYER_2
  2
BLOCK_222
 10
0.0
 20
0.0
 30
0.0
  0
INSERT
  5
5CF
  8
LAYER_2
  2
BLOCK_220
 10
0.0
 20
0.0
 30
0.0
  0
INSERT
  5
5D8
  8
LAYER_2
  2
BLOCK_218
 10
0.0
 20
0.0
 30
0.0
  0
INSERT
  5
5E1
  8
LAYER_2
  2
BLOCK_216
 10
0.0
 20
0.0
 30
0.0
  0
INSERT
  5
5EA
  8
LAYER_2
  2
BLOCK_214
 10
0.0
 20
0.0
 30
0.0
  0
INSERT
  5
5F3
  8
LAYER_2
  2
BLOCK_212
 10
0.0
 20
0.0
 30
0.0
  0
INSERT
  5
5FC
  8
LAYER_2
  2
BLOCK_210
 10
0.0
 20
0.0
 30
0.0
  0
INSERT
  5
605
  8
LAYER_2
  2
BLOCK_208
 10
0.0
 20
0.0
 30
0.0
  0
INSERT
  5
60E
  8
LAYER_2
  2
BLOCK_206
 10
0.0
 20
0.0
 30
0.0
  0
INSERT
  5
617
  8
LAYER_2
  2
BLOCK_204
 10
0.0
 20
0.0
 30
0.0
  0
INSERT
  5
620
  8
LAYER_2
  2
BLOCK_202
 10
0.0
 20
0.0
 30
0.0
  0
INSERT
  5
629
  8
LAYER_2
  2
BLOCK_200
 10
0.0
 20
0.0
 30
0.0
  0
INSERT
  5
632
  8
LAYER_2
  2
BLOCK_198
 10
0.0
 20
0.0
 30
0.0
  0
INSERT
  5
63B
  8
LAYER_2
  2
BLOCK_196
 10
0.0
 20
0.0
 30
0.0
  0
INSERT
  5
644
  8
LAYER_2
  2
BLOCK_194
 10
0.0
 20
0.0
 30
0.0
  0
INSERT
  5
64D
  8
LAYER_2
  2
BLOCK_192
 10
0.0
 20
0.0
 30
0.0
  0
INSERT
  5
656
  8
LAYER_2
  2
BLOCK_190
 10
0.0
 20
0.0
 30
0.0
  0
INSERT
  5
65F
  8
LAYER_2
  2
BLOCK_188
 10
0.0
 20
0.0
 30
0.0
  0
INSERT
  5
668
  8
LAYER_2
  2
BLOCK_186
 10
0.0
 20
0.0
 30
0.0
  0
INSERT
  5
671
  8
LAYER_2
  2
BLOCK_184
 10
0.0
 20
0.0
 30
0.0
  0
INSERT
  5
67A
  8
LAYER_2
  2
BLOCK_182
 10
0.0
 20
0.0
 30
0.0
  0
INSERT
  5
683
  8
LAYER_2
  2
BLOCK_180
 10
0.0
 20
0.0
 30
0.0
  0
INSERT
  5
68C
  8
LAYER_2
  2
BLOCK_178
 10
0.0
 20
0.0
 30
0.0
  0
INSERT
  5
695
  8
LAYER_2
  2
BLOCK_176
 10
0.0
 20
0.0
 30
0.0
  0
INSERT
  5
69E
  8
LAYER_2
  2
BLOCK_174
 10
0.0
 20
0.0
 30
0.0
  0
INSERT
  5
6A7
  8
LAYER_2
  2
BLOCK_172
 10
0.0
 20
0.0
 30
0.0
  0
INSERT
  5
6B0
  8
LAYER_2
  2
BLOCK_170
 10
0.0
 20
0.0
 30
0.0
  0
INSERT
  5
6B9
  8
LAYER_2
  2
BLOCK_168
 10
0.0
 20
0.0
 30
0.0
  0
INSERT
  5
6C2
  8
LAYER_2
  2
BLOCK_166
 10
0.0
 20
0.0
 30
0.0
  0
INSERT
  5
6CB
  8
LAYER_2
  2
BLOCK_164
 10
0.0
 20
0.0
 30
0.0
  0
INSERT
  5
6D4
  8
LAYER_2
  2
BLOCK_162
 10
0.0
 20
0.0
 30
0.0
  0
INSERT
  5
6DD
  8
LAYER_2
  2
BLOCK_160
 10
0.0
 20
0.0
 30
0.0
  0
INSERT
  5
6E6
  8
LAYER_2
  2
BLOCK_158
 10
0.0
 20
0.0
 30
0.0
  0
INSERT
  5
6EF
  8
LAYER_2
  2
BLOCK_156
 10
0.0
 20
0.0
 30
0.0
  0
INSERT
  5
6F8
  8
LAYER_2
  2
BLOCK_154
 10
0.0
 20
0.0
 30
0.0
  0
INSERT
  5
701
  8
LAYER_2
  2
BLOCK_152
 10
0.0
 20
0.0
 30
0.0
  0
INSERT
  5
70A
  8
LAYER_2
  2
BLOCK_150
 10
0.0
 20
0.0
 30
0.0
  0
INSERT
  5
713
  8
LAYER_2
  2
BLOCK_148
 10
0.0
 20
0.0
 30
0.0
  0
INSERT
  5
71C
  8
LAYER_2
  2
BLOCK_146
 10
0.0
 20
0.0
 30
0.0
  0
INSERT
  5
725
  8
LAYER_2
  2
BLOCK_144
 10
0.0
 20
0.0
 30
0.0
  0
INSERT
  5
72E
  8
LAYER_2
  2
BLOCK_142
 10
0.0
 20
0.0
 30
0.0
  0
INSERT
  5
737
  8
LAYER_2
  2
BLOCK_140
 10
0.0
 20
0.0
 30
0.0
  0
INSERT
  5
740
  8
LAYER_2
  2
BLOCK_138
 10
0.0
 20
0.0
 30
0.0
  0
INSERT
  5
749
  8
LAYER_2
  2
BLOCK_136
 10
0.0
 20
0.0
 30
0.0
  0
INSERT
  5
752
  8
LAYER_2
  2
BLOCK_134
 10
0.0
 20
0.0
 30
0.0
  0
INSERT
  5
75B
  8
LAYER_2
  2
BLOCK_132
 10
0.0
 20
0.0
 30
0.0
  0
INSERT
  5
764
  8
LAYER_2
  2
BLOCK_130
 10
0.0
 20
0.0
 30
0.0
  0
INSERT
  5
76D
  8
LAYER_2
  2
BLOCK_128
 10
0.0
 20
0.0
 30
0.0
  0
INSERT
  5
776
  8
LAYER_2
  2
BLOCK_126
 10
0.0
 20
0.0
 30
0.0
  0
INSERT
  5
77F
  8
LAYER_2
  2
BLOCK_124
 10
0.0
 20
0.0
 30
0.0
  0
INSERT
  5
788
  8
LAYER_2
  2
BLOCK_122
 10
0.0
 20
0.0
 30
0.0
  0
INSERT
  5
791
  8
LAYER_2
  2
BLOCK_120
 10
0.0
 20
0.0
 30
0.0
  0
INSERT
  5
79A
  8
LAYER_2
  2
BLOCK_118
 10
0.0
 20
0.0
 30
0.0
  0
INSERT
  5
7A3
  8
LAYER_2
  2
BLOCK_116
 10
0.0
 20
0.0
 30
0.0
  0
INSERT
  5
7AC
  8
LAYER_2
  2
BLOCK_114
 10
0.0
 20
0.0
 30
0.0
  0
INSERT
  5
7B5
  8
LAYER_2
  2
BLOCK_112
 10
0.0
 20
0.0
 30
0.0
  0
INSERT
  5
7BE
  8
LAYER_2
  2
BLOCK_110
 10
0.0
 20
0.0
 30
0.0
  0
INSERT
  5
7C7
  8
LAYER_2
  2
BLOCK_108
 10
0.0
 20
0.0
 30
0.0
  0
INSERT
  5
7D0
  8
LAYER_2
  2
BLOCK_106
 10
0.0
 20
0.0
 30
0.0
  0
INSERT
  5
7D9
  8
LAYER_2
  2
BLOCK_104
 10
0.0
 20
0.0
 30
0.0
  0
INSERT
  5
7E2
  8
LAYER_2
  2
BLOCK_102
 10
0.0
 20
0.0
 30
0.0
  0
INSERT
  5
7EC
  8
LAYER_2
  2
BLOCK_100
 10
0.0
 20
0.0
 30
0.0
  0
INSERT
  5
7F5
  8
LAYER_2
  2
BLOCK_98
 10
0.0
 20
0.0
 30
0.0
  0
INSERT
  5
805
  8
LAYER_2
  2
BLOCK_96
 10
0.0
 20
0.0
 30
0.0
  0
INSERT
  5
83F
  8
LAYER_2
  2
BLOCK_94
 10
0.0
 20
0.0
 30
0.0
  0
INSERT
  5
848
  8
LAYER_2
  2
BLOCK_92
 10
0.0
 20
0.0
 30
0.0
  0
INSERT
  5
851
  8
LAYER_2
  2
BLOCK_90
 10
0.0
 20
0.0
 30
0.0
  0
INSERT
  5
85A
  8
LAYER_2
  2
BLOCK_88
 10
0.0
 20
0.0
 30
0.0
  0
INSERT
  5
863
  8
LAYER_2
  2
BLOCK_86
 10
0.0
 20
0.0
 30
0.0
  0
INSERT
  5
86C
  8
LAYER_2
  2
BLOCK_84
 10
0.0
 20
0.0
 30
0.0
  0
INSERT
  5
875
  8
LAYER_2
  2
BLOCK_82
 10
0.0
 20
0.0
 30
0.0
  0
INSERT
  5
87E
  8
LAYER_2
  2
BLOCK_80
 10
0.0
 20
0.0
 30
0.0
  0
INSERT
  5
887
  8
LAYER_2
  2
BLOCK_78
 10
0.0
 20
0.0
 30
0.0
  0
INSERT
  5
890
  8
LAYER_2
  2
BLOCK_76
 10
0.0
 20
0.0
 30
0.0
  0
INSERT
  5
899
  8
LAYER_2
  2
BLOCK_74
 10
0.0
 20
0.0
 30
0.0
  0
INSERT
  5
8A2
  8
LAYER_2
  2
BLOCK_72
 10
0.0
 20
0.0
 30
0.0
  0
INSERT
  5
8AB
  8
LAYER_2
  2
BLOCK_70
 10
0.0
 20
0.0
 30
0.0
  0
INSERT
  5
8B4
  8
LAYER_2
  2
BLOCK_68
 10
0.0
 20
0.0
 30
0.0
  0
INSERT
  5
8D0
  8
LAYER_2
  2
BLOCK_66
 10
0.0
 20
0.0
 30
0.0
  0
INSERT
  5
8D9
  8
LAYER_2
  2
BLOCK_64
 10
0.0
 20
0.0
 30
0.0
  0
INSERT
  5
8E2
  8
LAYER_2
  2
BLOCK_62
 10
0.0
 20
0.0
 30
0.0
  0
INSERT
  5
8EB
  8
LAYER_2
  2
BLOCK_60
 10
0.0
 20
0.0
 30
0.0
  0
INSERT
  5
8F4
  8
LAYER_2
  2
BLOCK_58
 10
0.0
 20
0.0
 30
0.0
  0
INSERT
  5
8FD
  8
LAYER_2
  2
BLOCK_56
 10
0.0
 20
0.0
 30
0.0
  0
INSERT
  5
906
  8
LAYER_2
  2
BLOCK_54
 10
0.0
 20
0.0
 30
0.0
  0
INSERT
  5
910
  8
LAYER_2
  2
BLOCK_52
 10
0.0
 20
0.0
 30
0.0
  0
INSERT
  5
919
  8
LAYER_2
  2
BLOCK_50
 10
0.0
 20
0.0
 30
0.0
  0
INSERT
  5
929
  8
LAYER_2
  2
BLOCK_48
 10
0.0
 20
0.0
 30
0.0
  0
INSERT
  5
963
  8
LAYER_2
  2
BLOCK_46
 10
0.0
 20
0.0
 30
0.0
  0
INSERT
  5
96C
  8
LAYER_2
  2
BLOCK_44
 10
0.0
 20
0.0
 30
0.0
  0
INSERT
  5
975
  8
LAYER_2
  2
BLOCK_42
 10
0.0
 20
0.0
 30
0.0
  0
INSERT
  5
97E
  8
LAYER_2
  2
BLOCK_40
 10
0.0
 20
0.0
 30
0.0
  0
INSERT
  5
987
  8
LAYER_2
  2
BLOCK_38
 10
0.0
 20
0.0
 30
0.0
  0
INSERT
  5
990
  8
LAYER_2
  2
BLOCK_36
 10
0.0
 20
0.0
 30
0.0
  0
INSERT
  5
999
  8
LAYER_2
  2
BLOCK_34
 10
0.0
 20
0.0
 30
0.0
  0
INSERT
  5
9A2
  8
LAYER_2
  2
BLOCK_32
 10
0.0
 20
0.0
 30
0.0
  0
INSERT
  5
9AB
  8
LAYER_2
  2
BLOCK_30
 10
0.0
 20
0.0
 30
0.0
  0
INSERT
  5
9B4
  8
LAYER_2
  2
BLOCK_28
 10
0.0
 20
0.0
 30
0.0
  0
INSERT
  5
9BD
  8
LAYER_2
  2
BLOCK_26
 10
0.0
 20
0.0
 30
0.0
  0
INSERT
  5
9C6
  8
LAYER_2
  2
BLOCK_24
 10
0.0
 20
0.0
 30
0.0
  0
INSERT
  5
9CF
  8
LAYER_2
  2
BLOCK_22
 10
0.0
 20
0.0
 30
0.0
  0
INSERT
  5
9D8
  8
LAYER_2
  2
BLOCK_20
 10
0.0
 20
0.0
 30
0.0
  0
INSERT
  5
9F4
  8
LAYER_2
  2
BLOCK_18
 10
0.0
 20
0.0
 30
0.0
  0
INSERT
  5
9FD
  8
LAYER_2
  2
BLOCK_16
 10
0.0
 20
0.0
 30
0.0
  0
INSERT
  5
A06
  8
LAYER_2
  2
BLOCK_14
 10
0.0
 20
0.0
 30
0.0
  0
INSERT
  5
A0F
  8
LAYER_2
  2
BLOCK_12
 10
0.0
 20
0.0
 30
0.0
  0
INSERT
  5
A18
  8
LAYER_2
  2
BLOCK_10
 10
0.0
 20
0.0
 30
0.0
  0
INSERT
  5
A21
  8
LAYER_2
  2
BLOCK_8
 10
0.0
 20
0.0
 30
0.0
  0
INSERT
  5
A2A
  8
LAYER_2
  2
BLOCK_6
 10
0.0
 20
0.0
 30
0.0
  0
INSERT
  5
B19
  8
LAYER_3
  2
BLOCK_4
 10
0.0
 20
0.0
 30
0.0
  0
INSERT
  5
C08
  8
LAYER_3
  2
BLOCK_2
 10
0.0
 20
0.0
 30
0.0
  0
ENDSEC
  0
EOF
