0
SECTION
2
HEADER
9
$ACADVER
1
AC1009
0
ENDSEC
0
SECTION
2
TABLES
0
TABLE
2
VPORT
70
1
0
VPORT
2
ACTIVE
70
0
10
0.0
20
0.0
11
0.0
21
0.0
12
0.0
22
0.0
13
0.0
23
0.0
14
0.0
24
0.0
15
0.0
25
0.0
16
0.0
26
0.0
36
0.0
17
0.0
27
0.0
37
0.0
40
0.0
41
0.0
42
0.0
43
0.0
44
0.0
50
0.0
51
0.0
71
0
72
1000
73
1
74
3
75
0
76
0
77
0
78
0
0
ENDTAB
0
ENDSEC
0
SECTION
2
ENTITIES
0
LINE
8
boundary
62
5
39
2
10
20.470591
20
54.791608
11
22.756666
21
51.260875
0
LINE
8
boundary
62
5
39
2
10
22.756666
20
51.260875
11
24.601877
21
48.411032
0
LINE
8
boundary
62
5
39
2
10
24.601877
20
48.411032
11
26.373522
21
46.078990
0
LINE
8
boundary
62
5
39
2
10
26.373522
20
46.078990
11
29.214768
21
42.339007
0
LINE
8
boundary
62
5
39
2
10
29.214768
20
42.339007
11
30.158938
21
41.271724
0
LINE
8
boundary
62
5
39
2
10
30.158938
20
41.271724
11
33.326715
21
37.690902
0
LINE
8
boundary
62
5
39
2
10
33.326715
20
37.690902
11
34.090504
21
36.850394
0
LINE
8
boundary
62
5
39
2
10
34.090504
20
36.850394
11
37.126877
21
33.936750
0
LINE
8
boundary
62
5
39
2
10
37.126877
20
33.936750
11
45.562846
21
36.413774
0
LINE
8
boundary
62
5
39
2
10
45.562846
20
36.413774
11
46.759330
21
32.338922
0
LINE
8
boundary
62
5
39
2
10
46.759330
20
32.338922
11
41.005416
21
30.649420
0
LINE
8
boundary
62
5
39
2
10
41.005416
20
30.649420
11
42.502098
21
29.169963
0
LINE
8
boundary
62
5
39
2
10
42.502098
20
29.169963
11
46.015518
21
26.295809
0
LINE
8
boundary
62
5
39
2
10
46.015518
20
26.295809
11
46.584608
21
25.895474
0
LINE
8
boundary
62
5
39
2
10
46.584608
20
25.895474
11
47.548371
21
25.217497
0
LINE
8
boundary
62
5
39
2
10
47.548371
20
25.217497
11
50.810359
21
22.998378
0
LINE
8
boundary
62
5
39
2
10
50.810359
20
22.998378
11
52.616658
21
21.769562
0
LINE
8
boundary
62
5
39
2
10
52.616658
20
21.769562
11
54.897586
21
20.443814
0
LINE
8
boundary
62
5
39
2
10
54.897586
20
20.443814
11
57.605798
21
18.869718
0
LINE
8
boundary
62
5
39
2
10
57.605798
20
18.869718
11
58.784664
21
18.211790
0
LINE
8
boundary
62
5
39
2
10
58.784664
20
18.211790
11
59.706870
21
17.697103
0
LINE
8
boundary
62
5
39
2
10
59.706870
20
17.697103
11
62.680580
21
16.294514
0
LINE
8
boundary
62
5
39
2
10
62.680580
20
16.294514
11
65.169878
21
15.120401
0
LINE
8
boundary
62
5
39
2
10
65.169878
20
15.120401
11
66.253018
21
14.633620
0
LINE
8
boundary
62
5
39
2
10
66.253018
20
14.633620
11
67.438948
21
14.100644
0
LINE
8
boundary
62
5
39
2
10
67.438948
20
14.100644
11
68.910170
21
13.551213
0
LINE
8
boundary
62
5
39
2
10
68.910170
20
13.551213
11
74.111489
21
19.210222
0
LINE
8
boundary
62
5
39
2
10
74.111489
20
19.210222
11
77.321067
21
16.429107
0
LINE
8
boundary
62
5
39
2
10
77.321067
20
16.429107
11
73.525427
21
12.048705
0
LINE
8
boundary
62
5
39
2
10
73.525427
20
12.048705
11
75.988277
21
11.008156
0
LINE
8
boundary
62
5
39
2
10
75.988277
20
11.008156
11
79.033596
21
10.192306
0
LINE
8
boundary
62
5
39
2
10
79.033596
20
10.192306
11
80.075208
21
9.913797
0
LINE
8
boundary
62
5
39
2
10
80.075208
20
9.913797
11
81.780229
21
9.491783
0
LINE
8
boundary
62
5
39
2
10
81.780229
20
9.491783
11
83.595942
21
9.042377
0
LINE
8
boundary
62
5
39
2
10
83.595942
20
9.042377
11
84.293076
21
8.884670
0
LINE
8
boundary
62
5
39
2
10
84.293076
20
8.884670
11
86.384969
21
8.411433
0
LINE
8
boundary
62
5
39
2
10
86.384969
20
8.411433
11
89.086151
21
7.977755
0
LINE
8
boundary
62
5
39
2
10
89.086151
20
7.977755
11
91.263790
21
7.673703
0
LINE
8
boundary
62
5
39
2
10
91.263790
20
7.673703
11
92.001374
21
7.566096
0
LINE
8
boundary
62
5
39
2
10
92.001374
20
7.566096
11
93.520104
21
7.378822
0
LINE
8
boundary
62
5
39
2
10
93.520104
20
7.378822
11
94.341432
21
7.291889
0
LINE
8
boundary
62
5
39
2
10
94.341432
20
7.291889
11
95.391311
21
7.187222
0
LINE
8
boundary
62
5
39
2
10
95.391311
20
7.187222
11
96.263223
21
7.094216
0
LINE
8
boundary
62
5
39
2
10
96.263223
20
7.094216
11
97.397661
21
13.403100
0
LINE
8
boundary
62
5
39
2
10
97.397661
20
13.403100
11
101.601314
21
12.798706
0
LINE
8
boundary
62
5
39
2
10
101.601314
20
12.798706
11
100.749732
21
6.875820
0
LINE
8
boundary
62
5
39
2
10
100.749732
20
6.875820
11
101.437665
21
6.740847
0
LINE
8
boundary
62
5
39
2
10
101.437665
20
6.740847
11
102.595351
21
6.715748
0
LINE
8
boundary
62
5
39
2
10
102.595351
20
6.715748
11
104.528486
21
6.675960
0
LINE
8
boundary
62
5
39
2
10
104.528486
20
6.675960
11
105.285288
21
6.669502
0
LINE
8
boundary
62
5
39
2
10
105.285288
20
6.669502
11
106.450990
21
6.694782
0
LINE
8
boundary
62
5
39
2
10
106.450990
20
6.694782
11
108.395402
21
6.739239
0
LINE
8
boundary
62
5
39
2
10
108.395402
20
6.739239
11
109.290995
21
6.771793
0
LINE
8
boundary
62
5
39
2
10
109.290995
20
6.771793
11
110.374195
21
6.841719
0
LINE
8
boundary
62
5
39
2
10
110.374195
20
6.841719
11
111.007131
21
6.885413
0
LINE
8
boundary
62
5
39
2
10
111.007131
20
6.885413
11
112.422648
21
6.977276
0
LINE
8
boundary
62
5
39
2
10
112.422648
20
6.977276
11
113.670592
21
7.080344
0
LINE
8
boundary
62
5
39
2
10
113.670592
20
7.080344
11
114.558822
21
7.174431
0
LINE
8
boundary
62
5
39
2
10
114.558822
20
7.174431
11
115.737019
21
7.303707
0
LINE
8
boundary
62
5
39
2
10
115.737019
20
7.303707
11
116.824933
21
7.419488
0
LINE
8
boundary
62
5
39
2
10
116.824933
20
7.419488
11
118.734625
21
7.661563
0
LINE
8
boundary
62
5
39
2
10
118.734625
20
7.661563
11
119.252898
21
7.736625
0
LINE
8
boundary
62
5
39
2
10
119.252898
20
7.736625
11
121.539278
21
8.074814
0
LINE
8
boundary
62
5
39
2
10
121.539278
20
8.074814
11
122.315223
21
8.194665
0
LINE
8
boundary
62
5
39
2
10
122.315223
20
8.194665
11
120.070167
21
13.652386
0
LINE
8
boundary
62
5
39
2
10
120.070167
20
13.652386
11
123.933265
21
15.416603
0
LINE
8
boundary
62
5
39
2
10
123.933265
20
15.416603
11
126.782294
21
9.178101
0
LINE
8
boundary
62
5
39
2
10
126.782294
20
9.178101
11
128.119629
21
9.454027
0
LINE
8
boundary
62
5
39
2
10
128.119629
20
9.454027
11
130.732191
21
10.127103
0
LINE
8
boundary
62
5
39
2
10
130.732191
20
10.127103
11
131.902195
21
10.428532
0
LINE
8
boundary
62
5
39
2
10
131.902195
20
10.428532
11
133.966336
21
10.999783
0
LINE
8
boundary
62
5
39
2
10
133.966336
20
10.999783
11
136.345084
21
11.812717
0
LINE
8
boundary
62
5
39
2
10
136.345084
20
11.812717
11
140.299423
21
13.249724
0
LINE
8
boundary
62
5
39
2
10
140.299423
20
13.249724
11
141.704958
21
13.760494
0
LINE
8
boundary
62
5
39
2
10
141.704958
20
13.760494
11
142.593147
21
14.100644
0
LINE
8
boundary
62
5
39
2
10
142.593147
20
14.100644
11
148.383506
21
16.769243
0
LINE
8
boundary
62
5
39
2
10
148.383506
20
16.769243
11
150.309401
21
17.697103
0
LINE
8
boundary
62
5
39
2
10
150.309401
20
17.697103
11
152.030442
21
18.678225
0
LINE
8
boundary
62
5
39
2
10
152.030442
20
18.678225
11
147.136634
21
22.090794
0
LINE
8
boundary
62
5
39
2
10
147.136634
20
22.090794
11
149.432671
21
25.663497
0
LINE
8
boundary
62
5
39
2
10
149.432671
20
25.663497
11
156.413743
21
21.177034
0
LINE
8
boundary
62
5
39
2
10
156.413743
20
21.177034
11
157.048735
21
21.539027
0
LINE
8
boundary
62
5
39
2
10
157.048735
20
21.539027
11
157.999833
21
22.158252
0
LINE
8
boundary
62
5
39
2
10
157.999833
20
22.158252
11
163.975697
21
26.295809
0
LINE
8
boundary
62
5
39
2
10
163.975697
20
26.295809
11
168.901189
21
30.261598
0
LINE
8
boundary
62
5
39
2
10
168.901189
20
30.261598
11
170.093765
21
31.251172
0
LINE
8
boundary
62
5
39
2
10
170.093765
20
31.251172
11
170.770682
21
31.902492
0
LINE
8
boundary
62
5
39
2
10
170.770682
20
31.902492
11
175.661780
21
36.608639
0
LINE
8
boundary
62
5
39
2
10
175.661780
20
36.608639
11
178.751006
21
40.056896
0
LINE
8
boundary
62
5
39
2
10
178.751006
20
40.056896
11
180.795506
21
42.339007
0
LINE
8
boundary
62
5
39
2
10
180.795506
20
42.339007
11
185.205721
21
48.071459
0
LINE
8
boundary
62
5
39
2
10
185.205721
20
48.071459
11
186.061365
21
49.317540
0
LINE
8
boundary
62
5
39
2
10
186.061365
20
49.317540
11
179.804364
21
49.542584
0
LINE
8
boundary
62
5
39
2
10
179.804364
20
49.542584
11
179.804364
21
53.789463
0
LINE
8
boundary
62
5
39
2
10
179.804364
20
53.789463
11
188.931554
21
53.789463
0
LINE
8
boundary
62
5
39
2
10
188.931554
20
53.789463
11
189.573293
21
54.791608
0
LINE
8
boundary
62
5
39
2
10
189.573293
20
54.791608
11
190.162237
21
55.884076
0
LINE
8
boundary
62
5
39
2
10
190.162237
20
55.884076
11
193.160610
21
61.445962
0
LINE
8
boundary
62
5
39
2
10
193.160610
20
61.445962
11
194.159143
21
63.688192
0
LINE
8
boundary
62
5
39
2
10
194.159143
20
63.688192
11
196.229765
21
68.337814
0
LINE
8
boundary
62
5
39
2
10
196.229765
20
68.337814
11
197.362841
21
71.508556
0
LINE
8
boundary
62
5
39
2
10
197.362841
20
71.508556
11
198.764026
21
75.429580
0
LINE
8
boundary
62
5
39
2
10
198.764026
20
75.429580
11
199.829414
21
79.321311
0
LINE
8
boundary
62
5
39
2
10
199.829414
20
79.321311
11
200.749604
21
82.682626
0
LINE
8
boundary
62
5
39
2
10
200.749604
20
82.682626
11
201.603540
21
87.098740
0
LINE
8
boundary
62
5
39
2
10
201.603540
20
87.098740
11
202.175658
21
90.057375
0
LINE
8
boundary
62
5
39
2
10
202.175658
20
90.057375
11
202.723104
21
94.810577
0
LINE
8
boundary
62
5
39
2
10
202.723104
20
94.810577
11
203.034411
21
97.513649
0
LINE
8
boundary
62
5
39
2
10
203.034411
20
97.513649
11
203.222284
21
102.425104
0
LINE
8
boundary
62
5
39
2
10
203.222284
20
102.425104
11
203.321192
21
105.010799
0
LINE
8
boundary
62
5
39
2
10
203.321192
20
105.010799
11
196.407238
21
105.010799
0
LINE
8
boundary
62
5
39
2
10
196.407238
20
105.010799
11
190.664031
21
105.010799
0
LINE
8
boundary
62
5
39
2
10
190.664031
20
105.010799
11
190.544690
21
102.090968
0
LINE
8
boundary
62
5
39
2
10
190.544690
20
102.090968
11
190.377285
21
97.995299
0
LINE
8
boundary
62
5
39
2
10
190.377285
20
97.995299
11
190.036116
21
95.224361
0
LINE
8
boundary
62
5
39
2
10
190.036116
20
95.224361
11
189.518835
21
91.023045
0
LINE
8
boundary
62
5
39
2
10
189.518835
20
91.023045
11
189.009837
21
88.563146
0
LINE
8
boundary
62
5
39
2
10
189.009837
20
88.563146
11
188.093988
21
84.137043
0
LINE
8
boundary
62
5
39
2
10
188.093988
20
84.137043
11
187.507713
21
82.138743
0
LINE
8
boundary
62
5
39
2
10
187.507713
20
82.138743
11
186.111498
21
77.379733
0
LINE
8
boundary
62
5
39
2
10
186.111498
20
77.379733
11
185.574729
21
75.981070
0
LINE
8
boundary
62
5
39
2
10
185.574729
20
75.981070
11
183.583607
21
70.792781
0
LINE
8
boundary
62
5
39
2
10
183.583607
20
70.792781
11
183.260001
21
70.117988
0
LINE
8
boundary
62
5
39
2
10
183.260001
20
70.117988
11
181.117460
21
65.650328
0
LINE
8
boundary
62
5
39
2
10
181.117460
20
65.650328
11
180.588856
21
64.577337
0
LINE
8
boundary
62
5
39
2
10
180.588856
20
64.577337
11
177.498997
21
59.385953
0
LINE
8
boundary
62
5
39
2
10
177.498997
20
59.385953
11
176.843746
21
58.291061
0
LINE
8
boundary
62
5
39
2
10
176.843746
20
58.291061
11
174.170225
21
54.546822
0
LINE
8
boundary
62
5
39
2
10
174.170225
20
54.546822
11
172.675430
21
52.453390
0
LINE
8
boundary
62
5
39
2
10
172.675430
20
52.453390
11
170.670402
21
50.073376
0
LINE
8
boundary
62
5
39
2
10
170.670402
20
50.073376
11
168.030508
21
46.939746
0
LINE
8
boundary
62
5
39
2
10
168.030508
20
46.939746
11
167.076543
21
45.974032
0
LINE
8
boundary
62
5
39
2
10
167.076543
20
45.974032
11
164.645251
21
43.512800
0
LINE
8
boundary
62
5
39
2
10
164.645251
20
43.512800
11
163.362380
21
42.257974
0
LINE
8
boundary
62
5
39
2
10
163.362380
20
42.257974
11
162.877948
21
41.784132
0
LINE
8
boundary
62
5
39
2
10
162.877948
20
41.784132
11
159.455734
21
38.923774
0
LINE
8
boundary
62
5
39
2
10
159.455734
20
38.923774
11
157.176008
21
37.018328
0
LINE
8
boundary
62
5
39
2
10
157.176008
20
37.018328
11
155.669359
21
35.944391
0
LINE
8
boundary
62
5
39
2
10
155.669359
20
35.944391
11
153.420901
21
34.341690
0
LINE
8
boundary
62
5
39
2
10
153.420901
20
34.341690
11
151.923925
21
33.318850
0
LINE
8
boundary
62
5
39
2
10
151.923925
20
33.318850
11
150.976836
21
32.671731
0
LINE
8
boundary
62
5
39
2
10
150.976836
20
32.671731
11
148.145761
21
31.032179
0
LINE
8
boundary
62
5
39
2
10
148.145761
20
31.032179
11
145.189183
21
29.319943
0
LINE
8
boundary
62
5
39
2
10
145.189183
20
29.319943
11
144.663139
21
29.030437
0
LINE
8
boundary
62
5
39
2
10
144.663139
20
29.030437
11
144.191960
21
28.771124
0
LINE
8
boundary
62
5
39
2
10
144.191960
20
28.771124
11
141.089503
21
27.340054
0
LINE
8
boundary
62
5
39
2
10
141.089503
20
27.340054
11
138.821272
21
26.293795
0
LINE
8
boundary
62
5
39
2
10
138.821272
20
26.293795
11
137.850898
21
25.872506
0
LINE
8
boundary
62
5
39
2
10
137.850898
20
25.872506
11
136.625634
21
25.340550
0
LINE
8
boundary
62
5
39
2
10
136.625634
20
25.340550
11
134.674100
21
24.643093
0
LINE
8
boundary
62
5
39
2
10
134.674100
20
24.643093
11
133.688868
21
24.290983
0
LINE
8
boundary
62
5
39
2
10
133.688868
20
24.290983
11
131.655655
21
23.614436
0
LINE
8
boundary
62
5
39
2
10
131.655655
20
23.614436
11
129.413687
21
22.868427
0
LINE
8
boundary
62
5
39
2
10
129.413687
20
22.868427
11
128.924389
21
22.718726
0
LINE
8
boundary
62
5
39
2
10
128.924389
20
22.718726
11
127.886494
21
22.401179
0
LINE
8
boundary
62
5
39
2
10
127.886494
20
22.401179
11
126.232214
21
21.996149
0
LINE
8
boundary
62
5
39
2
10
126.232214
20
21.996149
11
123.646666
21
21.411643
0
LINE
8
boundary
62
5
39
2
10
123.646666
20
21.411643
11
122.546557
21
21.167632
0
LINE
8
boundary
62
5
39
2
10
122.546557
20
21.167632
11
121.251171
21
20.912006
0
LINE
8
boundary
62
5
39
2
10
121.251171
20
20.912006
11
119.677878
21
20.601540
0
LINE
8
boundary
62
5
39
2
10
119.677878
20
20.601540
11
119.004285
21
20.485963
0
LINE
8
boundary
62
5
39
2
10
119.004285
20
20.485963
11
117.064685
21
20.153159
0
LINE
8
boundary
62
5
39
2
10
117.064685
20
20.153159
11
115.806842
21
19.971120
0
LINE
8
boundary
62
5
39
2
10
115.806842
20
19.971120
11
114.754108
21
19.854648
0
LINE
8
boundary
62
5
39
2
10
114.754108
20
19.854648
11
112.649391
21
19.664193
0
LINE
8
boundary
62
5
39
2
10
112.649391
20
19.664193
11
110.601294
21
19.519699
0
LINE
8
boundary
62
5
39
2
10
110.601294
20
19.519699
11
108.583087
21
19.419275
0
LINE
8
boundary
62
5
39
2
10
108.583087
20
19.419275
11
106.568751
21
19.362470
0
LINE
8
boundary
62
5
39
2
10
106.568751
20
19.362470
11
106.031882
21
19.350276
0
LINE
8
boundary
62
5
39
2
10
106.031882
20
19.350276
11
104.531600
21
19.350276
0
LINE
8
boundary
62
5
39
2
10
104.531600
20
19.350276
11
103.983973
21
19.350276
0
LINE
8
boundary
62
5
39
2
10
103.983973
20
19.350276
11
102.442821
21
19.385278
0
LINE
8
boundary
62
5
39
2
10
102.442821
20
19.385278
11
101.922699
21
19.397091
0
LINE
8
boundary
62
5
39
2
10
101.922699
20
19.397091
11
100.269644
21
19.471939
0
LINE
8
boundary
62
5
39
2
10
100.269644
20
19.471939
11
97.972950
21
19.617076
0
LINE
8
boundary
62
5
39
2
10
97.972950
20
19.617076
11
95.503920
21
19.830668
0
LINE
8
boundary
62
5
39
2
10
95.503920
20
19.830668
11
94.209006
21
19.971119
0
LINE
8
boundary
62
5
39
2
10
94.209006
20
19.971119
11
92.951160
21
20.153159
0
LINE
8
boundary
62
5
39
2
10
92.951160
20
20.153159
11
90.337978
21
20.601540
0
LINE
8
boundary
62
5
39
2
10
90.337978
20
20.601540
11
89.226101
21
20.820953
0
LINE
8
boundary
62
5
39
2
10
89.226101
20
20.820953
11
87.469294
21
21.167632
0
LINE
8
boundary
62
5
39
2
10
87.469294
20
21.167632
11
85.097770
21
21.693647
0
LINE
8
boundary
62
5
39
2
10
85.097770
20
21.693647
11
84.262049
21
21.879016
0
LINE
8
boundary
62
5
39
2
10
84.262049
20
21.879016
11
82.129360
21
22.401180
0
LINE
8
boundary
62
5
39
2
10
82.129360
20
22.401180
11
80.602169
21
22.868427
0
LINE
8
boundary
62
5
39
2
10
80.602169
20
22.868427
11
79.124642
21
23.360072
0
LINE
8
boundary
62
5
39
2
10
79.124642
20
23.360072
11
76.326997
21
24.290983
0
LINE
8
boundary
62
5
39
2
10
76.326997
20
24.290983
11
73.390221
21
25.340550
0
LINE
8
boundary
62
5
39
2
10
73.390221
20
25.340550
11
71.194577
21
26.293795
0
LINE
8
boundary
62
5
39
2
10
71.194577
20
26.293795
11
65.823881
21
28.771124
0
LINE
8
boundary
62
5
39
2
10
65.823881
20
28.771124
11
64.826657
21
29.319943
0
LINE
8
boundary
62
5
39
2
10
64.826657
20
29.319943
11
59.039017
21
32.671731
0
LINE
8
boundary
62
5
39
2
10
59.039017
20
32.671731
11
56.594958
21
34.341689
0
LINE
8
boundary
62
5
39
2
10
56.594958
20
34.341689
11
52.839851
21
37.018329
0
LINE
8
boundary
62
5
39
2
10
52.839851
20
37.018329
11
48.758154
21
40.429894
0
LINE
8
boundary
62
5
39
2
10
48.758154
20
40.429894
11
47.137902
21
41.784132
0
LINE
8
boundary
62
5
39
2
10
47.137902
20
41.784132
11
45.370600
21
43.512800
0
LINE
8
boundary
62
5
39
2
10
45.370600
20
43.512800
11
41.985342
21
46.939746
0
LINE
8
boundary
62
5
39
2
10
41.985342
20
46.939746
11
40.444585
21
48.768666
0
LINE
8
boundary
62
5
39
2
10
40.444585
20
48.768666
11
37.340422
21
52.453390
0
LINE
8
boundary
62
5
39
2
10
37.340422
20
52.453390
11
34.425443
21
56.535775
0
LINE
8
boundary
62
5
39
2
10
34.425443
20
56.535775
11
33.172101
21
58.291061
0
LINE
8
boundary
62
5
39
2
10
33.172101
20
58.291061
11
29.647934
21
64.179770
0
LINE
8
boundary
62
5
39
2
10
29.647934
20
64.179770
11
28.898391
21
65.650328
0
LINE
8
boundary
62
5
39
2
10
28.898391
20
65.650328
11
26.432243
21
70.792781
0
LINE
8
boundary
62
5
39
2
10
26.432243
20
70.792781
11
26.105523
21
71.644118
0
LINE
8
boundary
62
5
39
2
10
26.105523
20
71.644118
11
23.904351
21
77.379734
0
LINE
8
boundary
62
5
39
2
10
23.904351
20
77.379734
11
23.412042
21
79.057766
0
LINE
8
boundary
62
5
39
2
10
23.412042
20
79.057766
11
21.921857
21
84.137043
0
LINE
8
boundary
62
5
39
2
10
21.921857
20
84.137043
11
21.448866
21
86.422903
0
LINE
8
boundary
62
5
39
2
10
21.448866
20
86.422903
11
20.497006
21
91.023044
0
LINE
8
boundary
62
5
39
2
10
20.497006
20
91.023044
11
20.166063
21
93.710969
0
LINE
8
boundary
62
5
39
2
10
20.166063
20
93.710969
11
19.638561
21
97.995299
0
LINE
8
boundary
62
5
39
2
10
19.638561
20
97.995299
11
19.520207
21
100.890987
0
LINE
8
boundary
62
5
39
2
10
19.520207
20
100.890987
11
19.351822
21
105.010799
0
LINE
8
boundary
62
5
39
2
10
19.351822
20
105.010799
11
9.532345
21
105.010799
0
LINE
8
boundary
62
5
39
2
10
9.532345
20
105.010799
11
6.667500
21
105.010799
0
LINE
8
boundary
62
5
39
2
10
6.667500
20
105.010799
11
6.712632
21
103.819634
0
LINE
8
boundary
62
5
39
2
10
6.712632
20
103.819634
11
6.951561
21
97.513649
0
LINE
8
boundary
62
5
39
2
10
6.951561
20
97.513649
11
7.077141
21
96.412845
0
LINE
8
boundary
62
5
39
2
10
7.077141
20
96.412845
11
7.802178
21
90.057375
0
LINE
8
boundary
62
5
39
2
10
7.802178
20
90.057375
11
7.969585
21
89.183370
0
LINE
8
boundary
62
5
39
2
10
7.969585
20
89.183370
11
9.214741
21
82.682626
0
LINE
8
boundary
62
5
39
2
10
9.214741
20
82.682626
11
9.355349
21
82.164099
0
LINE
8
boundary
62
5
39
2
10
9.355349
20
82.164099
11
17.992824
21
79.439733
0
LINE
8
boundary
62
5
39
2
10
17.992824
20
79.439733
11
16.796339
21
75.364881
0
LINE
8
boundary
62
5
39
2
10
16.796339
20
75.364881
11
10.929250
21
77.087614
0
LINE
8
boundary
62
5
39
2
10
10.929250
20
77.087614
11
11.181533
21
75.429580
0
LINE
8
boundary
62
5
39
2
10
11.181533
20
75.429580
11
11.362435
21
74.918519
0
LINE
8
boundary
62
5
39
2
10
11.362435
20
74.918519
11
13.541321
21
68.888222
0
LINE
8
boundary
62
5
39
2
10
13.541321
20
68.888222
11
13.740197
21
68.337813
0
LINE
8
boundary
62
5
39
2
10
13.740197
20
68.337813
11
16.285233
21
62.685656
0
LINE
8
boundary
62
5
39
2
10
16.285233
20
62.685656
11
16.843438
21
61.445962
0
LINE
8
boundary
62
5
39
2
10
16.843438
20
61.445962
11
19.374434
21
56.802608
0
LINE
8
boundary
62
5
39
2
10
19.374434
20
56.802608
11
20.470591
21
54.791608
0
LINE
8
annotation
62
1
39
211
10
175.206595
20
49.703331
11
175.206595
21
53.628716
0
LINE
8
annotation
62
1
39
211
10
175.206595
20
53.628716
11
174.333931
21
52.755806
0
LINE
8
annotation
62
1
39
211
10
21.025376
20
72.260634
11
21.025376
21
72.260634
0
LINE
8
annotation
62
1
39
211
10
21.025376
20
72.260634
11
21.311334
21
72.281580
0
LINE
8
annotation
62
1
39
211
10
21.311334
20
72.281580
11
21.585925
21
72.342308
0
LINE
8
annotation
62
1
39
211
10
21.585925
20
72.342308
11
21.845766
21
72.440269
0
LINE
8
annotation
62
1
39
211
10
21.845766
20
72.440269
11
22.087472
21
72.572916
0
LINE
8
annotation
62
1
39
211
10
22.087472
20
72.572916
11
22.307660
21
72.737700
0
LINE
8
annotation
62
1
39
211
10
22.307660
20
72.737700
11
22.502947
21
72.932074
0
LINE
8
annotation
62
1
39
211
10
22.502947
20
72.932074
11
22.669947
21
73.153490
0
LINE
8
annotation
62
1
39
211
10
22.669947
20
73.153490
11
22.805277
21
73.399400
0
LINE
8
annotation
62
1
39
211
10
22.805277
20
73.399400
11
22.905554
21
73.667255
0
LINE
8
annotation
62
1
39
211
10
22.905554
20
73.667255
11
23.300740
21
75.013134
0
LINE
8
annotation
62
1
39
211
10
23.300740
20
75.013134
11
23.300740
21
75.013134
0
LINE
8
annotation
62
1
39
211
10
23.300740
20
75.013134
11
23.333719
21
75.179155
0
LINE
8
annotation
62
1
39
211
10
23.333719
20
75.179155
11
23.336584
21
75.343711
0
LINE
8
annotation
62
1
39
211
10
23.336584
20
75.343711
11
23.311150
21
75.503502
0
LINE
8
annotation
62
1
39
211
10
23.311150
20
75.503502
11
23.259232
21
75.655228
0
LINE
8
annotation
62
1
39
211
10
23.259232
20
75.655228
11
23.182643
21
75.795589
0
LINE
8
annotation
62
1
39
211
10
23.182643
20
75.795589
11
23.083197
21
75.921285
0
LINE
8
annotation
62
1
39
211
10
23.083197
20
75.921285
11
22.962710
21
76.029015
0
LINE
8
annotation
62
1
39
211
10
22.962710
20
76.029015
11
22.822996
21
76.115479
0
LINE
8
annotation
62
1
39
211
10
22.822996
20
76.115479
11
22.665868
21
76.177378
0
LINE
8
annotation
62
1
39
211
10
22.665868
20
76.177378
11
22.665868
21
76.177378
0
LINE
8
annotation
62
1
39
211
10
22.665868
20
76.177378
11
22.499884
21
76.210354
0
LINE
8
annotation
62
1
39
211
10
22.499884
20
76.210354
11
22.335424
21
76.213203
0
LINE
8
annotation
62
1
39
211
10
22.335424
20
76.213203
11
22.175768
21
76.187730
0
LINE
8
annotation
62
1
39
211
10
22.175768
20
76.187730
11
22.024195
21
76.135740
0
LINE
8
annotation
62
1
39
211
10
22.024195
20
76.135740
11
21.883984
21
76.059037
0
LINE
8
annotation
62
1
39
211
10
21.883984
20
76.059037
11
21.758414
21
75.959427
0
LINE
8
annotation
62
1
39
211
10
21.758414
20
75.959427
11
21.650764
21
75.838712
0
LINE
8
annotation
62
1
39
211
10
21.650764
20
75.838712
11
21.564313
21
75.698699
0
LINE
8
annotation
62
1
39
211
10
21.564313
20
75.698699
11
21.502341
21
75.541192
0
LINE
8
annotation
62
1
39
211
10
21.502341
20
75.541192
11
21.370811
21
75.093243
0
LINE
8
annotation
62
1
39
211
10
21.370811
20
75.093243
11
21.370811
21
75.093243
0
LINE
8
annotation
62
1
39
211
10
21.370811
20
75.093243
11
21.337814
21
74.927312
0
LINE
8
annotation
62
1
39
211
10
21.337814
20
74.927312
11
21.334906
21
74.762997
0
LINE
8
annotation
62
1
39
211
10
21.334906
20
74.762997
11
21.360293
21
74.603550
0
LINE
8
annotation
62
1
39
211
10
21.360293
20
74.603550
11
21.412181
21
74.452224
0
LINE
8
annotation
62
1
39
211
10
21.412181
20
74.452224
11
21.488777
21
74.312274
0
LINE
8
annotation
62
1
39
211
10
21.488777
20
74.312274
11
21.588287
21
74.186951
0
LINE
8
annotation
62
1
39
211
10
21.588287
20
74.186951
11
21.708915
21
74.079509
0
LINE
8
annotation
62
1
39
211
10
21.708915
20
74.079509
11
21.848869
21
73.993203
0
LINE
8
annotation
62
1
39
211
10
21.848869
20
73.993203
11
22.006355
21
73.931284
0
LINE
8
annotation
62
1
39
211
10
22.006355
20
73.931284
11
22.905554
21
73.667255
0
LINE
8
annotation
62
1
39
211
10
23.826312
20
76.386445
11
21.801654
21
76.980939
0
LINE
8
annotation
62
1
39
211
10
50.149994
20
37.451162
11
50.399944
21
33.717423
0
LINE
8
annotation
62
1
39
211
10
50.399944
20
33.717423
11
51.958553
21
34.175072
0
LINE
8
annotation
62
1
39
211
10
49.941650
20
35.278230
11
50.720845
21
35.507022
0
LINE
8
annotation
62
1
39
211
10
80.163335
20
21.895783
11
80.163335
21
21.895783
0
LINE
8
annotation
62
1
39
211
10
80.163335
20
21.895783
11
80.033751
21
21.989166
0
LINE
8
annotation
62
1
39
211
10
80.033751
20
21.989166
11
79.893713
21
22.056029
0
LINE
8
annotation
62
1
39
211
10
79.893713
20
22.056029
11
79.746738
21
22.096660
0
LINE
8
annotation
62
1
39
211
10
79.746738
20
22.096660
11
79.596344
21
22.111347
0
LINE
8
annotation
62
1
39
211
10
79.596344
20
22.111347
11
79.446048
21
22.100378
0
LINE
8
annotation
62
1
39
211
10
79.446048
20
22.100378
11
79.299369
21
22.064041
0
LINE
8
annotation
62
1
39
211
10
79.299369
20
22.064041
11
79.159824
21
22.002623
0
LINE
8
annotation
62
1
39
211
10
79.159824
20
22.002623
11
79.030930
21
21.916414
0
LINE
8
annotation
62
1
39
211
10
79.030930
20
21.916414
11
78.916206
21
21.805701
0
LINE
8
annotation
62
1
39
211
10
78.916206
20
21.805701
11
78.916206
21
21.805701
0
LINE
8
annotation
62
1
39
211
10
78.916206
20
21.805701
11
78.822947
21
21.676388
0
LINE
8
annotation
62
1
39
211
10
78.822947
20
21.676388
11
78.755958
21
21.536538
0
LINE
8
annotation
62
1
39
211
10
78.755958
20
21.536538
11
78.715025
21
21.389672
0
LINE
8
annotation
62
1
39
211
10
78.715025
20
21.389672
11
78.699933
21
21.239315
0
LINE
8
annotation
62
1
39
211
10
78.699933
20
21.239315
11
78.710464
21
21.088988
0
LINE
8
annotation
62
1
39
211
10
78.710464
20
21.088988
11
78.746405
21
20.942215
0
LINE
8
annotation
62
1
39
211
10
78.746405
20
20.942215
11
78.807539
21
20.802518
0
LINE
8
annotation
62
1
39
211
10
78.807539
20
20.802518
11
78.893651
21
20.673421
0
LINE
8
annotation
62
1
39
211
10
78.893651
20
20.673421
11
79.004526
21
20.558446
0
LINE
8
annotation
62
1
39
211
10
79.004526
20
20.558446
11
79.337633
21
20.269807
0
LINE
8
annotation
62
1
39
211
10
79.337633
20
20.269807
11
79.337633
21
20.269807
0
LINE
8
annotation
62
1
39
211
10
79.337633
20
20.269807
11
79.467270
21
20.176367
0
LINE
8
annotation
62
1
39
211
10
79.467270
20
20.176367
11
79.607451
21
20.109353
0
LINE
8
annotation
62
1
39
211
10
79.607451
20
20.109353
11
79.754634
21
20.068505
0
LINE
8
annotation
62
1
39
211
10
79.754634
20
20.068505
11
79.905279
21
20.053566
0
LINE
8
annotation
62
1
39
211
10
79.905279
20
20.053566
11
80.055843
21
20.064275
0
LINE
8
annotation
62
1
39
211
10
80.055843
20
20.064275
11
80.202785
21
20.100374
0
LINE
8
annotation
62
1
39
211
10
80.202785
20
20.100374
11
80.342563
21
20.161603
0
LINE
8
annotation
62
1
39
211
10
80.342563
20
20.161603
11
80.471636
21
20.247704
0
LINE
8
annotation
62
1
39
211
10
80.471636
20
20.247704
11
80.586461
21
20.358416
0
LINE
8
annotation
62
1
39
211
10
80.586461
20
20.358416
11
80.586461
21
20.358416
0
LINE
8
annotation
62
1
39
211
10
80.586461
20
20.358416
11
80.679700
21
20.487835
0
LINE
8
annotation
62
1
39
211
10
80.679700
20
20.487835
11
80.746539
21
20.627860
0
LINE
8
annotation
62
1
39
211
10
80.746539
20
20.627860
11
80.787232
21
20.774947
0
LINE
8
annotation
62
1
39
211
10
80.787232
20
20.774947
11
80.802032
21
20.925548
0
LINE
8
annotation
62
1
39
211
10
80.802032
20
20.925548
11
80.791189
21
21.076117
0
LINE
8
annotation
62
1
39
211
10
80.791189
20
21.076117
11
80.754956
21
21.223108
0
LINE
8
annotation
62
1
39
211
10
80.754956
20
21.223108
11
80.693586
21
21.362974
0
LINE
8
annotation
62
1
39
211
10
80.693586
20
21.362974
11
80.607331
21
21.492168
0
LINE
8
annotation
62
1
39
211
10
80.607331
20
21.492168
11
80.496442
21
21.607144
0
LINE
8
annotation
62
1
39
211
10
80.496442
20
21.607144
11
80.163335
21
21.895783
0
LINE
8
annotation
62
1
39
211
10
80.676670
20
19.109525
11
80.676670
21
19.109525
0
LINE
8
annotation
62
1
39
211
10
80.676670
20
19.109525
11
80.805751
21
19.016566
0
LINE
8
annotation
62
1
39
211
10
80.805751
20
19.016566
11
80.945511
21
18.949916
0
LINE
8
annotation
62
1
39
211
10
80.945511
20
18.949916
11
81.092391
21
18.909333
0
LINE
8
annotation
62
1
39
211
10
81.092391
20
18.909333
11
81.242830
21
18.894572
0
LINE
8
annotation
62
1
39
211
10
81.242830
20
18.894572
11
81.393267
21
18.905391
0
LINE
8
annotation
62
1
39
211
10
81.393267
20
18.905391
11
81.540143
21
18.941547
0
LINE
8
annotation
62
1
39
211
10
81.540143
20
18.941547
11
81.679897
21
19.002797
0
LINE
8
annotation
62
1
39
211
10
81.679897
20
19.002797
11
81.808969
21
19.088898
0
LINE
8
annotation
62
1
39
211
10
81.808969
20
19.088898
11
81.923799
21
19.199607
0
LINE
8
annotation
62
1
39
211
10
81.923799
20
19.199607
11
81.923799
21
19.199607
0
LINE
8
annotation
62
1
39
211
10
81.923799
20
19.199607
11
82.017039
21
19.329023
0
LINE
8
annotation
62
1
39
211
10
82.017039
20
19.329023
11
82.083895
21
19.469035
0
LINE
8
annotation
62
1
39
211
10
82.083895
20
19.469035
11
82.124632
21
19.616083
0
LINE
8
annotation
62
1
39
211
10
82.124632
20
19.616083
11
82.139518
21
19.766610
0
LINE
8
annotation
62
1
39
211
10
82.139518
20
19.766610
11
82.128817
21
19.917055
0
LINE
8
annotation
62
1
39
211
10
82.128817
20
19.917055
11
82.092797
21
20.063862
0
LINE
8
annotation
62
1
39
211
10
82.092797
20
20.063862
11
82.031723
21
20.203471
0
LINE
8
annotation
62
1
39
211
10
82.031723
20
20.203471
11
81.945861
21
20.332324
0
LINE
8
annotation
62
1
39
211
10
81.945861
20
20.332324
11
81.835479
21
20.446862
0
LINE
8
annotation
62
1
39
211
10
81.835479
20
20.446862
11
81.835479
21
20.446862
0
LINE
8
annotation
62
1
39
211
10
81.835479
20
20.446862
11
81.705830
21
20.540302
0
LINE
8
annotation
62
1
39
211
10
81.705830
20
20.540302
11
81.565618
21
20.607315
0
LINE
8
annotation
62
1
39
211
10
81.565618
20
20.607315
11
81.418392
21
20.648164
0
LINE
8
annotation
62
1
39
211
10
81.418392
20
20.648164
11
81.267700
21
20.663109
0
LINE
8
annotation
62
1
39
211
10
81.267700
20
20.663109
11
81.117091
21
20.652411
0
LINE
8
annotation
62
1
39
211
10
81.117091
20
20.652411
11
80.970114
21
20.616332
0
LINE
8
annotation
62
1
39
211
10
80.970114
20
20.616332
11
80.830317
21
20.555133
0
LINE
8
annotation
62
1
39
211
10
80.830317
20
20.555133
11
80.701250
21
20.469074
0
LINE
8
annotation
62
1
39
211
10
80.701250
20
20.469074
11
80.586461
21
20.358416
0
LINE
8
annotation
62
1
39
211
10
80.586461
20
20.358416
11
80.586461
21
20.358416
0
LINE
8
annotation
62
1
39
211
10
80.586461
20
20.358416
11
80.493267
21
20.229048
0
LINE
8
annotation
62
1
39
211
10
80.493267
20
20.229048
11
80.426452
21
20.089047
0
LINE
8
annotation
62
1
39
211
10
80.426452
20
20.089047
11
80.385770
21
19.941964
0
LINE
8
annotation
62
1
39
211
10
80.385770
20
19.941964
11
80.370975
21
19.791348
0
LINE
8
annotation
62
1
39
211
10
80.370975
20
19.791348
11
80.381820
21
19.640750
0
LINE
8
annotation
62
1
39
211
10
80.381820
20
19.640750
11
80.418059
21
19.493718
0
LINE
8
annotation
62
1
39
211
10
80.418059
20
19.493718
11
80.479444
21
19.353804
0
LINE
8
annotation
62
1
39
211
10
80.479444
20
19.353804
11
80.565730
21
19.224556
0
LINE
8
annotation
62
1
39
211
10
80.565730
20
19.224556
11
80.676670
21
19.109525
0
LINE
8
annotation
62
1
39
211
10
98.371932
20
18.622821
11
98.371932
21
18.622821
0
LINE
8
annotation
62
1
39
211
10
98.371932
20
18.622821
11
98.426654
21
18.370912
0
LINE
8
annotation
62
1
39
211
10
98.426654
20
18.370912
11
98.515535
21
18.134133
0
LINE
8
annotation
62
1
39
211
10
98.515535
20
18.134133
11
98.635831
21
17.915194
0
LINE
8
annotation
62
1
39
211
10
98.635831
20
17.915194
11
98.784800
21
17.716804
0
LINE
8
annotation
62
1
39
211
10
98.784800
20
17.716804
11
98.959699
21
17.541671
0
LINE
8
annotation
62
1
39
211
10
98.959699
20
17.541671
11
99.157787
21
17.392505
0
LINE
8
annotation
62
1
39
211
10
99.157787
20
17.392505
11
99.376320
21
17.272015
0
LINE
8
annotation
62
1
39
211
10
99.376320
20
17.272015
11
99.612556
21
17.182911
0
LINE
8
annotation
62
1
39
211
10
99.612556
20
17.182911
11
99.863752
21
17.127900
0
LINE
8
annotation
62
1
39
211
10
99.863752
20
17.127900
11
101.119429
21
16.947361
0
LINE
8
annotation
62
1
39
211
10
101.119429
20
16.947361
11
101.119429
21
16.947361
0
LINE
8
annotation
62
1
39
211
10
101.119429
20
16.947361
11
101.271778
21
16.939194
0
LINE
8
annotation
62
1
39
211
10
101.271778
20
16.939194
11
101.418964
21
16.957646
0
LINE
8
annotation
62
1
39
211
10
101.418964
20
16.957646
11
101.558273
21
17.000703
0
LINE
8
annotation
62
1
39
211
10
101.558273
20
17.000703
11
101.686996
21
17.066353
0
LINE
8
annotation
62
1
39
211
10
101.686996
20
17.066353
11
101.802421
21
17.152584
0
LINE
8
annotation
62
1
39
211
10
101.802421
20
17.152584
11
101.901837
21
17.257384
0
LINE
8
annotation
62
1
39
211
10
101.901837
20
17.257384
11
101.982532
21
17.378740
0
LINE
8
annotation
62
1
39
211
10
101.982532
20
17.378740
11
102.041796
21
17.514641
0
LINE
8
annotation
62
1
39
211
10
102.041796
20
17.514641
11
102.076917
21
17.663073
0
LINE
8
annotation
62
1
39
211
10
102.076917
20
17.663073
11
102.076917
21
17.663073
0
LINE
8
annotation
62
1
39
211
10
102.076917
20
17.663073
11
102.084992
21
17.815077
0
LINE
8
annotation
62
1
39
211
10
102.084992
20
17.815077
11
102.066393
21
17.962004
0
LINE
8
annotation
62
1
39
211
10
102.066393
20
17.962004
11
102.023149
21
18.101131
0
LINE
8
annotation
62
1
39
211
10
102.023149
20
18.101131
11
101.957292
21
18.229733
0
LINE
8
annotation
62
1
39
211
10
101.957292
20
18.229733
11
101.870850
21
18.345087
0
LINE
8
annotation
62
1
39
211
10
101.870850
20
18.345087
11
101.765856
21
18.444470
0
LINE
8
annotation
62
1
39
211
10
101.765856
20
18.444470
11
101.644338
21
18.525157
0
LINE
8
annotation
62
1
39
211
10
101.644338
20
18.525157
11
101.508327
21
18.584425
0
LINE
8
annotation
62
1
39
211
10
101.508327
20
18.584425
11
101.359854
21
18.619550
0
LINE
8
annotation
62
1
39
211
10
101.359854
20
18.619550
11
100.941216
21
18.679741
0
LINE
8
annotation
62
1
39
211
10
100.941216
20
18.679741
11
100.941216
21
18.679741
0
LINE
8
annotation
62
1
39
211
10
100.941216
20
18.679741
11
100.788869
21
18.687868
0
LINE
8
annotation
62
1
39
211
10
100.788869
20
18.687868
11
100.641692
21
18.669316
0
LINE
8
annotation
62
1
39
211
10
100.641692
20
18.669316
11
100.502395
21
18.626128
0
LINE
8
annotation
62
1
39
211
10
100.502395
20
18.626128
11
100.373692
21
18.560346
0
LINE
8
annotation
62
1
39
211
10
100.373692
20
18.560346
11
100.258292
21
18.474012
0
LINE
8
annotation
62
1
39
211
10
100.258292
20
18.474012
11
100.158908
21
18.369168
0
LINE
8
annotation
62
1
39
211
10
100.158908
20
18.369168
11
100.078251
21
18.247856
0
LINE
8
annotation
62
1
39
211
10
100.078251
20
18.247856
11
100.019032
21
18.112117
0
LINE
8
annotation
62
1
39
211
10
100.019032
20
18.112117
11
99.983964
21
17.963995
0
LINE
8
annotation
62
1
39
211
10
99.983964
20
17.963995
11
99.863752
21
17.127900
0
LINE
8
annotation
62
1
39
211
10
97.976366
20
19.212665
11
97.705693
21
17.330094
0
LINE
8
annotation
62
1
39
211
10
118.672575
20
18.297565
11
121.337901
21
19.514778
0
LINE
8
annotation
62
1
39
211
10
121.337901
20
19.514778
11
120.474595
21
19.836636
0
LINE
8
annotation
62
1
39
211
10
119.359666
20
16.886085
11
119.359666
21
16.886085
0
LINE
8
annotation
62
1
39
211
10
119.359666
20
16.886085
11
119.364798
21
16.813564
0
LINE
8
annotation
62
1
39
211
10
119.364798
20
16.813564
11
119.382307
21
16.744780
0
LINE
8
annotation
62
1
39
211
10
119.382307
20
16.744780
11
119.411066
21
16.680954
0
LINE
8
annotation
62
1
39
211
10
119.411066
20
16.680954
11
119.449952
21
16.623309
0
LINE
8
annotation
62
1
39
211
10
119.449952
20
16.623309
11
119.497838
21
16.573066
0
LINE
8
annotation
62
1
39
211
10
119.497838
20
16.573066
11
119.553600
21
16.531448
0
LINE
8
annotation
62
1
39
211
10
119.553600
20
16.531448
11
119.616113
21
16.499676
0
LINE
8
annotation
62
1
39
211
10
119.616113
20
16.499676
11
119.684251
21
16.478973
0
LINE
8
annotation
62
1
39
211
10
119.684251
20
16.478973
11
119.756891
21
16.470560
0
LINE
8
annotation
62
1
39
211
10
119.756891
20
16.470560
11
119.756891
21
16.470560
0
LINE
8
annotation
62
1
39
211
10
119.756891
20
16.470560
11
120.044090
21
16.477642
0
LINE
8
annotation
62
1
39
211
10
120.044090
20
16.477642
11
120.326523
21
16.513567
0
LINE
8
annotation
62
1
39
211
10
120.326523
20
16.513567
11
120.602219
21
16.577435
0
LINE
8
annotation
62
1
39
211
10
120.602219
20
16.577435
11
120.869207
21
16.668344
0
LINE
8
annotation
62
1
39
211
10
120.869207
20
16.668344
11
121.125514
21
16.785396
0
LINE
8
annotation
62
1
39
211
10
121.125514
20
16.785396
11
121.369170
21
16.927689
0
LINE
8
annotation
62
1
39
211
10
121.369170
20
16.927689
11
121.598203
21
17.094324
0
LINE
8
annotation
62
1
39
211
10
121.598203
20
17.094324
11
121.810642
21
17.284399
0
LINE
8
annotation
62
1
39
211
10
121.810642
20
17.284399
11
122.004516
21
17.497016
0
LINE
8
annotation
62
1
39
211
10
122.004516
20
17.497016
11
122.004516
21
17.497016
0
LINE
8
annotation
62
1
39
211
10
122.004516
20
17.497016
11
122.022851
21
17.521168
0
LINE
8
annotation
62
1
39
211
10
122.022851
20
17.521168
11
122.039322
21
17.546579
0
LINE
8
annotation
62
1
39
211
10
122.039322
20
17.546579
11
122.053864
21
17.573084
0
LINE
8
annotation
62
1
39
211
10
122.053864
20
17.573084
11
122.066415
21
17.600521
0
LINE
8
annotation
62
1
39
211
10
122.066415
20
17.600521
11
122.076911
21
17.628725
0
LINE
8
annotation
62
1
39
211
10
122.076911
20
17.628725
11
122.085290
21
17.657532
0
LINE
8
annotation
62
1
39
211
10
122.085290
20
17.657532
11
122.091487
21
17.686781
0
LINE
8
annotation
62
1
39
211
10
122.091487
20
17.686781
11
122.095439
21
17.716306
0
LINE
8
annotation
62
1
39
211
10
122.095439
20
17.716306
11
122.097084
21
17.745944
0
LINE
8
annotation
62
1
39
211
10
122.097084
20
17.745944
11
122.097084
21
17.745944
0
LINE
8
annotation
62
1
39
211
10
122.097084
20
17.745944
11
122.092228
21
17.819186
0
LINE
8
annotation
62
1
39
211
10
122.092228
20
17.819186
11
122.074943
21
17.888522
0
LINE
8
annotation
62
1
39
211
10
122.074943
20
17.888522
11
122.046348
21
17.952748
0
LINE
8
annotation
62
1
39
211
10
122.046348
20
17.952748
11
122.007564
21
18.010659
0
LINE
8
annotation
62
1
39
211
10
122.007564
20
18.010659
11
121.959710
21
18.061052
0
LINE
8
annotation
62
1
39
211
10
121.959710
20
18.061052
11
121.903907
21
18.102722
0
LINE
8
annotation
62
1
39
211
10
121.903907
20
18.102722
11
121.841276
21
18.134466
0
LINE
8
annotation
62
1
39
211
10
121.841276
20
18.134466
11
121.772936
21
18.155078
0
LINE
8
annotation
62
1
39
211
10
121.772936
20
18.155078
11
121.700007
21
18.163354
0
LINE
8
annotation
62
1
39
211
10
121.700007
20
18.163354
11
121.700007
21
18.163354
0
LINE
8
annotation
62
1
39
211
10
121.700007
20
18.163354
11
121.413084
21
18.155800
0
LINE
8
annotation
62
1
39
211
10
121.413084
20
18.155800
11
121.130857
21
18.119520
0
LINE
8
annotation
62
1
39
211
10
121.130857
20
18.119520
11
120.855299
21
18.055416
0
LINE
8
annotation
62
1
39
211
10
120.855299
20
18.055416
11
120.588381
21
17.964389
0
LINE
8
annotation
62
1
39
211
10
120.588381
20
17.964389
11
120.332073
21
17.847337
0
LINE
8
annotation
62
1
39
211
10
120.332073
20
17.847337
11
120.088348
21
17.705162
0
LINE
8
annotation
62
1
39
211
10
120.088348
20
17.705162
11
119.859177
21
17.538764
0
LINE
8
annotation
62
1
39
211
10
119.859177
20
17.538764
11
119.646531
21
17.349042
0
LINE
8
annotation
62
1
39
211
10
119.646531
20
17.349042
11
119.452382
21
17.136899
0
LINE
8
annotation
62
1
39
211
10
119.452382
20
17.136899
11
119.452382
21
17.136899
0
LINE
8
annotation
62
1
39
211
10
119.452382
20
17.136899
11
119.434074
21
17.112816
0
LINE
8
annotation
62
1
39
211
10
119.434074
20
17.112816
11
119.417669
21
17.087567
0
LINE
8
annotation
62
1
39
211
10
119.417669
20
17.087567
11
119.403210
21
17.061247
0
LINE
8
annotation
62
1
39
211
10
119.403210
20
17.061247
11
119.390739
21
17.033950
0
LINE
8
annotation
62
1
39
211
10
119.390739
20
17.033950
11
119.380298
21
17.005768
0
LINE
8
annotation
62
1
39
211
10
119.380298
20
17.005768
11
119.371928
21
16.976797
0
LINE
8
annotation
62
1
39
211
10
119.371928
20
16.976797
11
119.365671
21
16.947130
0
LINE
8
annotation
62
1
39
211
10
119.365671
20
16.947130
11
119.361570
21
16.916861
0
LINE
8
annotation
62
1
39
211
10
119.361570
20
16.916861
11
119.359666
21
16.886085
0
LINE
8
annotation
62
1
39
211
10
143.486574
20
25.076355
11
145.200619
21
27.743462
0
LINE
8
annotation
62
1
39
211
10
145.200619
20
27.743462
11
144.226525
21
27.531417
0
LINE
8
annotation
62
1
39
211
10
145.079671
20
24.052534
11
146.793716
21
26.719641
0
LINE
8
annotation
62
1
39
211
10
146.793716
20
26.719641
11
145.819622
21
26.507596
0
LINE
8
annotation
62
1
39
211
10
193.549342
20
87.872323
11
191.583694
21
87.872323
0
LINE
8
annotation
62
1
39
211
10
191.583694
20
87.872323
11
193.549342
21
91.412443
0
LINE
8
annotation
62
1
39
211
10
193.549342
20
91.412443
11
191.583694
21
91.412443
0
LINE
8
annotation
62
1
39
211
10
196.812897
20
89.642383
11
194.877220
21
89.642383
0
LINE
8
annotation
62
1
39
211
10
198.140109
20
87.872434
11
198.926236
21
87.872434
0
LINE
8
annotation
62
1
39
211
10
198.926236
20
87.872434
11
198.926236
21
87.872434
0
LINE
8
annotation
62
1
39
211
10
198.926236
20
87.872434
11
199.067622
21
87.885117
0
LINE
8
annotation
62
1
39
211
10
199.067622
20
87.885117
11
199.200662
21
87.921671
0
LINE
8
annotation
62
1
39
211
10
199.200662
20
87.921671
11
199.323143
21
87.979852
0
LINE
8
annotation
62
1
39
211
10
199.323143
20
87.979852
11
199.432851
21
88.057416
0
LINE
8
annotation
62
1
39
211
10
199.432851
20
88.057416
11
199.527574
21
88.152120
0
LINE
8
annotation
62
1
39
211
10
199.527574
20
88.152120
11
199.605099
21
88.261718
0
LINE
8
annotation
62
1
39
211
10
199.605099
20
88.261718
11
199.663214
21
88.383969
0
LINE
8
annotation
62
1
39
211
10
199.663214
20
88.383969
11
199.699706
21
88.516627
0
LINE
8
annotation
62
1
39
211
10
199.699706
20
88.516627
11
199.712362
21
88.657450
0
LINE
8
annotation
62
1
39
211
10
199.712362
20
88.657450
11
199.712362
21
89.051068
0
LINE
8
annotation
62
1
39
211
10
199.712362
20
89.051068
11
199.712362
21
89.051068
0
LINE
8
annotation
62
1
39
211
10
199.712362
20
89.051068
11
199.699706
21
89.191832
0
LINE
8
annotation
62
1
39
211
10
199.699706
20
89.191832
11
199.663214
21
89.324459
0
LINE
8
annotation
62
1
39
211
10
199.663214
20
89.324459
11
199.605099
21
89.446700
0
LINE
8
annotation
62
1
39
211
10
199.605099
20
89.446700
11
199.527574
21
89.556306
0
LINE
8
annotation
62
1
39
211
10
199.527574
20
89.556306
11
199.432851
21
89.651028
0
LINE
8
annotation
62
1
39
211
10
199.432851
20
89.651028
11
199.323143
21
89.728616
0
LINE
8
annotation
62
1
39
211
10
199.323143
20
89.728616
11
199.200662
21
89.786821
0
LINE
8
annotation
62
1
39
211
10
199.200662
20
89.786821
11
199.067622
21
89.823393
0
LINE
8
annotation
62
1
39
211
10
199.067622
20
89.823393
11
198.926236
21
89.836084
0
LINE
8
annotation
62
1
39
211
10
198.926236
20
89.836084
11
198.532618
21
89.836084
0
LINE
8
annotation
62
1
39
211
10
198.532618
20
89.836084
11
198.926236
21
89.836084
0
LINE
8
annotation
62
1
39
211
10
198.926236
20
89.836084
11
198.926236
21
89.836084
0
LINE
8
annotation
62
1
39
211
10
198.926236
20
89.836084
11
199.067622
21
89.848777
0
LINE
8
annotation
62
1
39
211
10
199.067622
20
89.848777
11
199.200662
21
89.885371
0
LINE
8
annotation
62
1
39
211
10
199.200662
20
89.885371
11
199.323143
21
89.943634
0
LINE
8
annotation
62
1
39
211
10
199.323143
20
89.943634
11
199.432851
21
90.021334
0
LINE
8
annotation
62
1
39
211
10
199.432851
20
90.021334
11
199.527574
21
90.116242
0
LINE
8
annotation
62
1
39
211
10
199.527574
20
90.116242
11
199.605099
21
90.226125
0
LINE
8
annotation
62
1
39
211
10
199.605099
20
90.226125
11
199.663214
21
90.348753
0
LINE
8
annotation
62
1
39
211
10
199.663214
20
90.348753
11
199.699706
21
90.481895
0
LINE
8
annotation
62
1
39
211
10
199.699706
20
90.481895
11
199.712362
21
90.623320
0
LINE
8
annotation
62
1
39
211
10
199.712362
20
90.623320
11
199.712362
21
90.623320
0
LINE
8
annotation
62
1
39
211
10
199.712362
20
90.623320
11
199.699706
21
90.764084
0
LINE
8
annotation
62
1
39
211
10
199.699706
20
90.764084
11
199.663214
21
90.896711
0
LINE
8
annotation
62
1
39
211
10
199.663214
20
90.896711
11
199.605099
21
91.018952
0
LINE
8
annotation
62
1
39
211
10
199.605099
20
91.018952
11
199.527574
21
91.128559
0
LINE
8
annotation
62
1
39
211
10
199.527574
20
91.128559
11
199.432851
21
91.223280
0
LINE
8
annotation
62
1
39
211
10
199.432851
20
91.223280
11
199.323143
21
91.300868
0
LINE
8
annotation
62
1
39
211
10
199.323143
20
91.300868
11
199.200662
21
91.359073
0
LINE
8
annotation
62
1
39
211
10
199.200662
20
91.359073
11
199.067622
21
91.395645
0
LINE
8
annotation
62
1
39
211
10
199.067622
20
91.395645
11
198.926236
21
91.408336
0
LINE
8
annotation
62
1
39
211
10
198.926236
20
91.408336
11
198.140109
21
91.408336
0
LINE
8
boundary
62
5
39
2
10
27.885987
20
145.592520
11
29.213286
21
143.845376
0
LINE
8
boundary
62
5
39
2
10
29.213286
20
143.845376
11
33.382238
21
139.132835
0
LINE
8
boundary
62
5
39
2
10
33.382238
20
139.132835
11
34.307160
21
138.115010
0
LINE
8
boundary
62
5
39
2
10
34.307160
20
138.115010
11
34.820727
21
137.627843
0
LINE
8
boundary
62
5
39
2
10
34.820727
20
137.627843
11
36.936745
21
135.620602
0
LINE
8
boundary
62
5
39
2
10
36.936745
20
135.620602
11
45.561192
21
137.918424
0
LINE
8
boundary
62
5
39
2
10
45.561192
20
137.918424
11
46.757676
21
133.843573
0
LINE
8
boundary
62
5
39
2
10
46.757676
20
133.843573
11
41.004294
21
132.154227
0
LINE
8
boundary
62
5
39
2
10
41.004294
20
132.154227
11
44.646270
21
128.919808
0
LINE
8
boundary
62
5
39
2
10
44.646270
20
128.919808
11
46.012479
21
127.802179
0
LINE
8
boundary
62
5
39
2
10
46.012479
20
127.802179
11
47.593746
21
126.689809
0
LINE
8
boundary
62
5
39
2
10
47.593746
20
126.689809
11
52.611979
21
123.275932
0
LINE
8
boundary
62
5
39
2
10
52.611979
20
123.275932
11
57.643940
21
120.351199
0
LINE
8
boundary
62
5
39
2
10
57.643940
20
120.351199
11
59.700412
21
119.203473
0
LINE
8
boundary
62
5
39
2
10
59.700412
20
119.203473
11
65.202595
21
116.608297
0
LINE
8
boundary
62
5
39
2
10
65.202595
20
116.608297
11
67.430555
21
115.607014
0
LINE
8
boundary
62
5
39
2
10
67.430555
20
115.607014
11
68.911294
21
115.054029
0
LINE
8
boundary
62
5
39
2
10
68.911294
20
115.054029
11
74.112001
21
120.712333
0
LINE
8
boundary
62
5
39
2
10
74.112001
20
120.712333
11
77.321579
21
117.931219
0
LINE
8
boundary
62
5
39
2
10
77.321579
20
117.931219
11
73.526173
21
113.551087
0
LINE
8
boundary
62
5
39
2
10
73.526173
20
113.551087
11
76.001466
21
112.506153
0
LINE
8
boundary
62
5
39
2
10
76.001466
20
112.506153
11
80.097261
21
111.410797
0
LINE
8
boundary
62
5
39
2
10
80.097261
20
111.410797
11
82.172953
21
110.897041
0
LINE
8
boundary
62
5
39
2
10
82.172953
20
110.897041
11
83.615480
21
110.539999
0
LINE
8
boundary
62
5
39
2
10
83.615480
20
110.539999
11
86.365852
21
109.917802
0
LINE
8
boundary
62
5
39
2
10
86.365852
20
109.917802
11
89.485983
21
109.419158
0
LINE
8
boundary
62
5
39
2
10
89.485983
20
109.419158
11
90.088280
21
109.338988
0
LINE
8
boundary
62
5
39
2
10
90.088280
20
109.338988
11
92.013803
21
109.072208
0
LINE
8
boundary
62
5
39
2
10
92.013803
20
109.072208
11
92.982624
21
108.950495
0
LINE
8
boundary
62
5
39
2
10
92.982624
20
108.950495
11
94.354751
21
108.785558
0
LINE
8
boundary
62
5
39
2
10
94.354751
20
108.785558
11
95.553066
21
108.672988
0
LINE
8
boundary
62
5
39
2
10
95.553066
20
108.672988
11
96.267592
21
108.601749
0
LINE
8
boundary
62
5
39
2
10
96.267592
20
108.601749
11
97.401691
21
114.908270
0
LINE
8
boundary
62
5
39
2
10
97.401691
20
114.908270
11
101.605343
21
114.303876
0
LINE
8
boundary
62
5
39
2
10
101.605343
20
114.303876
11
100.755473
21
108.392897
0
LINE
8
boundary
62
5
39
2
10
100.755473
20
108.392897
11
102.176419
21
108.224071
0
LINE
8
boundary
62
5
39
2
10
102.176419
20
108.224071
11
102.970044
21
108.192046
0
LINE
8
boundary
62
5
39
2
10
102.970044
20
108.192046
11
104.142043
21
108.192046
0
LINE
8
boundary
62
5
39
2
10
104.142043
20
108.192046
11
106.075049
21
108.185799
0
LINE
8
boundary
62
5
39
2
10
106.075049
20
108.185799
11
106.860555
21
108.187857
0
LINE
8
boundary
62
5
39
2
10
106.860555
20
108.187857
11
107.951514
21
108.235958
0
LINE
8
boundary
62
5
39
2
10
107.951514
20
108.235958
11
109.840475
21
108.310350
0
LINE
8
boundary
62
5
39
2
10
109.840475
20
108.310350
11
110.377152
21
108.336246
0
LINE
8
boundary
62
5
39
2
10
110.377152
20
108.336246
11
111.721151
21
108.435660
0
LINE
8
boundary
62
5
39
2
10
111.721151
20
108.435660
11
112.419076
21
108.483844
0
LINE
8
boundary
62
5
39
2
10
112.419076
20
108.483844
11
113.653012
21
108.589330
0
LINE
8
boundary
62
5
39
2
10
113.653012
20
108.589330
11
114.558426
21
108.670801
0
LINE
8
boundary
62
5
39
2
10
114.558426
20
108.670801
11
115.624971
21
108.792466
0
LINE
8
boundary
62
5
39
2
10
115.624971
20
108.792466
11
116.818786
21
108.923467
0
LINE
8
boundary
62
5
39
2
10
116.818786
20
108.923467
11
117.688987
21
109.032891
0
LINE
8
boundary
62
5
39
2
10
117.688987
20
109.032891
11
119.248269
21
109.235015
0
LINE
8
boundary
62
5
39
2
10
119.248269
20
109.235015
11
119.849893
21
109.326220
0
LINE
8
boundary
62
5
39
2
10
119.849893
20
109.326220
11
121.890760
21
109.628125
0
LINE
8
boundary
62
5
39
2
10
121.890760
20
109.628125
11
122.489731
21
109.869850
0
LINE
8
boundary
62
5
39
2
10
122.489731
20
109.869850
11
120.076683
21
115.153689
0
LINE
8
boundary
62
5
39
2
10
120.076683
20
115.153689
11
123.939781
21
116.917906
0
LINE
8
boundary
62
5
39
2
10
123.939781
20
116.917906
11
126.788604
21
110.679853
0
LINE
8
boundary
62
5
39
2
10
126.788604
20
110.679853
11
128.107286
21
110.951358
0
LINE
8
boundary
62
5
39
2
10
128.107286
20
110.951358
11
129.572579
21
111.328863
0
LINE
8
boundary
62
5
39
2
10
129.572579
20
111.328863
11
131.887145
21
111.925167
0
LINE
8
boundary
62
5
39
2
10
131.887145
20
111.925167
11
132.455277
21
112.082397
0
LINE
8
boundary
62
5
39
2
10
132.455277
20
112.082397
11
133.986464
21
112.506153
0
LINE
8
boundary
62
5
39
2
10
133.986464
20
112.506153
11
135.448629
21
113.005845
0
LINE
8
boundary
62
5
39
2
10
135.448629
20
113.005845
11
136.326850
21
113.305976
0
LINE
8
boundary
62
5
39
2
10
136.326850
20
113.305976
11
138.553956
21
114.115304
0
LINE
8
boundary
62
5
39
2
10
138.553956
20
114.115304
11
141.682887
21
115.252359
0
LINE
8
boundary
62
5
39
2
10
141.682887
20
115.252359
11
142.608950
21
115.607014
0
LINE
8
boundary
62
5
39
2
10
142.608950
20
115.607014
11
145.487946
21
116.933856
0
LINE
8
boundary
62
5
39
2
10
145.487946
20
116.933856
11
148.356681
21
118.255972
0
LINE
8
boundary
62
5
39
2
10
148.356681
20
118.255972
11
149.293503
21
118.707314
0
LINE
8
boundary
62
5
39
2
10
149.293503
20
118.707314
11
150.323346
21
119.203473
0
LINE
8
boundary
62
5
39
2
10
150.323346
20
119.203473
11
152.039226
21
120.181650
0
LINE
8
boundary
62
5
39
2
10
152.039226
20
120.181650
11
147.145758
21
123.594001
0
LINE
8
boundary
62
5
39
2
10
147.145758
20
123.594001
11
149.441795
21
127.166704
0
LINE
8
boundary
62
5
39
2
10
149.441795
20
127.166704
11
156.422529
21
122.680458
0
LINE
8
boundary
62
5
39
2
10
156.422529
20
122.680458
11
157.015679
21
123.018598
0
LINE
8
boundary
62
5
39
2
10
157.015679
20
123.018598
11
161.239094
21
125.898942
0
LINE
8
boundary
62
5
39
2
10
161.239094
20
125.898942
11
163.987943
21
127.802179
0
LINE
8
boundary
62
5
39
2
10
163.987943
20
127.802179
11
165.453586
21
128.982247
0
LINE
8
boundary
62
5
39
2
10
165.453586
20
128.982247
11
168.859634
21
131.724648
0
LINE
8
boundary
62
5
39
2
10
168.859634
20
131.724648
11
169.715661
21
132.434960
0
LINE
8
boundary
62
5
39
2
10
169.715661
20
132.434960
11
173.763409
21
136.278177
0
LINE
8
boundary
62
5
39
2
10
173.763409
20
136.278177
11
175.672432
21
138.115009
0
LINE
8
boundary
62
5
39
2
10
175.672432
20
138.115009
11
177.816094
21
140.507808
0
LINE
8
boundary
62
5
39
2
10
177.816094
20
140.507808
11
180.806156
21
143.845377
0
LINE
8
boundary
62
5
39
2
10
180.806156
20
143.845377
11
181.787976
21
145.121558
0
LINE
8
boundary
62
5
39
2
10
181.787976
20
145.121558
11
185.477621
21
149.917402
0
LINE
8
boundary
62
5
39
2
10
185.477621
20
149.917402
11
186.072017
21
150.823909
0
LINE
8
boundary
62
5
39
2
10
186.072017
20
150.823909
11
179.814484
21
151.048953
0
LINE
8
boundary
62
5
39
2
10
179.814484
20
151.048953
11
179.814484
21
155.295833
0
LINE
8
boundary
62
5
39
2
10
179.814484
20
155.295833
11
188.940689
21
155.295833
0
LINE
8
boundary
62
5
39
2
10
188.940689
20
155.295833
11
189.582428
21
156.297978
0
LINE
8
boundary
62
5
39
2
10
189.582428
20
156.297978
11
192.219610
21
161.189861
0
LINE
8
boundary
62
5
39
2
10
192.219610
20
161.189861
11
193.169749
21
162.952332
0
LINE
8
boundary
62
5
39
2
10
193.169749
20
162.952332
11
195.079651
21
167.241055
0
LINE
8
boundary
62
5
39
2
10
195.079651
20
167.241055
11
196.238903
21
169.844183
0
LINE
8
boundary
62
5
39
2
10
196.238903
20
169.844183
11
197.582013
21
173.602692
0
LINE
8
boundary
62
5
39
2
10
197.582013
20
173.602692
11
198.773165
21
176.935950
0
LINE
8
boundary
62
5
39
2
10
198.773165
20
176.935950
11
199.680016
21
180.248543
0
LINE
8
boundary
62
5
39
2
10
199.680016
20
180.248543
11
200.758742
21
184.188996
0
LINE
8
boundary
62
5
39
2
10
200.758742
20
184.188996
11
201.331370
21
187.150276
0
LINE
8
boundary
62
5
39
2
10
201.331370
20
187.150276
11
202.184794
21
191.563746
0
LINE
8
boundary
62
5
39
2
10
202.184794
20
191.563746
11
202.497369
21
194.277817
0
LINE
8
boundary
62
5
39
2
10
202.497369
20
194.277817
11
203.043548
21
199.020019
0
LINE
8
boundary
62
5
39
2
10
203.043548
20
199.020019
11
203.142234
21
201.599880
0
LINE
8
boundary
62
5
39
2
10
203.142234
20
201.599880
11
203.330331
21
206.517169
0
LINE
8
boundary
62
5
39
2
10
203.330331
20
206.517169
11
197.455832
21
206.517169
0
LINE
8
boundary
62
5
39
2
10
197.455832
20
206.517169
11
190.673499
21
206.517169
0
LINE
8
boundary
62
5
39
2
10
190.673499
20
206.517169
11
190.505873
21
202.416042
0
LINE
8
boundary
62
5
39
2
10
190.505873
20
202.416042
11
190.386757
21
199.501669
0
LINE
8
boundary
62
5
39
2
10
190.386757
20
199.501669
11
189.861610
21
195.236465
0
LINE
8
boundary
62
5
39
2
10
189.861610
20
195.236465
11
189.528308
21
192.529414
0
LINE
8
boundary
62
5
39
2
10
189.528308
20
192.529414
11
188.580496
21
187.948851
0
LINE
8
boundary
62
5
39
2
10
188.580496
20
187.948851
11
188.103458
21
185.643413
0
LINE
8
boundary
62
5
39
2
10
188.103458
20
185.643413
11
186.619173
21
180.584216
0
LINE
8
boundary
62
5
39
2
10
186.619173
20
180.584216
11
186.120970
21
178.886103
0
LINE
8
boundary
62
5
39
2
10
186.120970
20
178.886103
11
183.927716
21
173.171118
0
LINE
8
boundary
62
5
39
2
10
183.927716
20
173.171118
11
183.593077
21
172.299151
0
LINE
8
boundary
62
5
39
2
10
183.593077
20
172.299151
11
181.067171
21
167.032084
0
LINE
8
boundary
62
5
39
2
10
181.067171
20
167.032084
11
180.520858
21
165.923147
0
LINE
8
boundary
62
5
39
2
10
180.520858
20
165.923147
11
176.854847
21
159.797431
0
LINE
8
boundary
62
5
39
2
10
176.854847
20
159.797431
11
175.619507
21
158.067359
0
LINE
8
boundary
62
5
39
2
10
175.619507
20
158.067359
11
172.686529
21
153.959760
0
LINE
8
boundary
62
5
39
2
10
172.686529
20
153.959760
11
169.604939
21
150.301827
0
LINE
8
boundary
62
5
39
2
10
169.604939
20
150.301827
11
168.041609
21
148.446116
0
LINE
8
boundary
62
5
39
2
10
168.041609
20
148.446116
11
164.606755
21
144.968962
0
LINE
8
boundary
62
5
39
2
10
164.606755
20
144.968962
11
162.890783
21
143.290502
0
LINE
8
boundary
62
5
39
2
10
162.890783
20
143.290502
11
161.317588
21
141.975592
0
LINE
8
boundary
62
5
39
2
10
161.317588
20
141.975592
11
157.188840
21
138.524698
0
LINE
8
boundary
62
5
39
2
10
157.188840
20
138.524698
11
153.390461
21
135.817216
0
LINE
8
boundary
62
5
39
2
10
153.390461
20
135.817216
11
150.991535
21
134.178101
0
LINE
8
boundary
62
5
39
2
10
150.991535
20
134.178101
11
145.164609
21
130.803564
0
LINE
8
boundary
62
5
39
2
10
145.164609
20
130.803564
11
144.208721
21
130.277494
0
LINE
8
boundary
62
5
39
2
10
144.208721
20
130.277494
11
138.801273
21
127.783211
0
LINE
8
boundary
62
5
39
2
10
138.801273
20
127.783211
11
136.644683
21
126.846920
0
LINE
8
boundary
62
5
39
2
10
136.644683
20
126.846920
11
133.672542
21
125.784710
0
LINE
8
boundary
62
5
39
2
10
133.672542
20
125.784710
11
130.841169
21
124.842574
0
LINE
8
boundary
62
5
39
2
10
130.841169
20
124.842574
11
129.400413
21
124.363166
0
LINE
8
boundary
62
5
39
2
10
129.400413
20
124.363166
11
127.911229
21
123.907549
0
LINE
8
boundary
62
5
39
2
10
127.911229
20
123.907549
11
125.743157
21
123.376725
0
LINE
8
boundary
62
5
39
2
10
125.743157
20
123.376725
11
124.893576
21
123.188283
0
LINE
8
boundary
62
5
39
2
10
124.893576
20
123.188283
11
122.538202
21
122.665847
0
LINE
8
boundary
62
5
39
2
10
122.538202
20
122.665847
11
120.769786
21
122.316876
0
LINE
8
boundary
62
5
39
2
10
120.769786
20
122.316876
11
119.671577
21
122.100160
0
LINE
8
boundary
62
5
39
2
10
119.671577
20
122.100160
11
117.339283
21
121.699975
0
LINE
8
boundary
62
5
39
2
10
117.339283
20
121.699975
11
115.853734
21
121.477489
0
LINE
8
boundary
62
5
39
2
10
115.853734
20
121.477489
11
114.641628
21
121.343387
0
LINE
8
boundary
62
5
39
2
10
114.641628
20
121.343387
11
112.366695
21
121.140049
0
LINE
8
boundary
62
5
39
2
10
112.366695
20
121.140049
11
110.195715
21
120.993402
0
LINE
8
boundary
62
5
39
2
10
110.195715
20
120.993402
11
108.095142
21
120.898293
0
LINE
8
boundary
62
5
39
2
10
108.095142
20
120.898293
11
107.570335
21
120.886373
0
LINE
8
boundary
62
5
39
2
10
107.570335
20
120.886373
11
106.035351
21
120.851510
0
LINE
8
boundary
62
5
39
2
10
106.035351
20
120.851510
11
105.483193
21
120.851510
0
LINE
8
boundary
62
5
39
2
10
105.483193
20
120.851510
11
103.988908
21
120.851510
0
LINE
8
boundary
62
5
39
2
10
103.988908
20
120.851510
11
103.447600
21
120.863804
0
LINE
8
boundary
62
5
39
2
10
103.447600
20
120.863804
11
101.929110
21
120.898293
0
LINE
8
boundary
62
5
39
2
10
101.929110
20
120.898293
11
99.828535
21
120.993402
0
LINE
8
boundary
62
5
39
2
10
99.828535
20
120.993402
11
97.657559
21
121.140049
0
LINE
8
boundary
62
5
39
2
10
97.657559
20
121.140049
11
95.382626
21
121.343387
0
LINE
8
boundary
62
5
39
2
10
95.382626
20
121.343387
11
94.170518
21
121.477489
0
LINE
8
boundary
62
5
39
2
10
94.170518
20
121.477489
11
93.149342
21
121.625274
0
LINE
8
boundary
62
5
39
2
10
93.149342
20
121.625274
11
91.017994
21
121.986004
0
LINE
8
boundary
62
5
39
2
10
91.017994
20
121.986004
11
90.352682
21
122.100161
0
LINE
8
boundary
62
5
39
2
10
90.352682
20
122.100161
11
88.772609
21
122.411963
0
LINE
8
boundary
62
5
39
2
10
88.772609
20
122.411963
11
87.486052
21
122.665847
0
LINE
8
boundary
62
5
39
2
10
87.486052
20
122.665847
11
86.378671
21
122.911470
0
LINE
8
boundary
62
5
39
2
10
86.378671
20
122.911470
11
84.281097
21
123.376725
0
LINE
8
boundary
62
5
39
2
10
84.281097
20
123.376725
11
82.113029
21
123.907549
0
LINE
8
boundary
62
5
39
2
10
82.113029
20
123.907549
11
81.100965
21
124.217191
0
LINE
8
boundary
62
5
39
2
10
81.100965
20
124.217191
11
78.371328
21
125.112691
0
LINE
8
boundary
62
5
39
2
10
78.371328
20
125.112691
11
76.351726
21
125.784710
0
LINE
8
boundary
62
5
39
2
10
76.351726
20
125.784710
11
75.354627
21
126.141060
0
LINE
8
boundary
62
5
39
2
10
75.354627
20
126.141060
11
73.379574
21
126.846920
0
LINE
8
boundary
62
5
39
2
10
73.379574
20
126.846920
11
72.176092
21
127.369415
0
LINE
8
boundary
62
5
39
2
10
72.176092
20
127.369415
11
71.222979
21
127.783211
0
LINE
8
boundary
62
5
39
2
10
71.222979
20
127.783211
11
68.939233
21
128.836629
0
LINE
8
boundary
62
5
39
2
10
68.939233
20
128.836629
11
65.815524
21
130.277494
0
LINE
8
boundary
62
5
39
2
10
65.815524
20
130.277494
11
65.363874
21
130.526058
0
LINE
8
boundary
62
5
39
2
10
65.363874
20
130.526058
11
64.859634
21
130.803564
0
LINE
8
boundary
62
5
39
2
10
64.859634
20
130.803564
11
61.882990
21
132.527427
0
LINE
8
boundary
62
5
39
2
10
61.882990
20
132.527427
11
59.032722
21
134.178100
0
LINE
8
boundary
62
5
39
2
10
59.032722
20
134.178100
11
58.103127
21
134.813267
0
LINE
8
boundary
62
5
39
2
10
58.103127
20
134.813267
11
56.633802
21
135.817217
0
LINE
8
boundary
62
5
39
2
10
56.633802
20
135.817217
11
54.359438
21
137.438382
0
LINE
8
boundary
62
5
39
2
10
54.359438
20
137.438382
11
52.835422
21
138.524698
0
LINE
8
boundary
62
5
39
2
10
52.835422
20
138.524698
11
50.571353
21
140.417050
0
LINE
8
boundary
62
5
39
2
10
50.571353
20
140.417050
11
47.133472
21
143.290502
0
LINE
8
boundary
62
5
39
2
10
47.133472
20
143.290502
11
46.663110
21
143.750583
0
LINE
8
boundary
62
5
39
2
10
46.663110
20
143.750583
11
45.417500
21
144.968962
0
LINE
8
boundary
62
5
39
2
10
45.417500
20
144.968962
11
42.950587
21
147.466253
0
LINE
8
boundary
62
5
39
2
10
42.950587
20
147.466253
11
41.982645
21
148.446116
0
LINE
8
boundary
62
5
39
2
10
41.982645
20
148.446116
11
39.355132
21
151.565046
0
LINE
8
boundary
62
5
39
2
10
39.355132
20
151.565046
11
37.337726
21
153.959760
0
LINE
8
boundary
62
5
39
2
10
37.337726
20
153.959760
11
35.853802
21
156.037972
0
LINE
8
boundary
62
5
39
2
10
35.853802
20
156.037972
11
33.169403
21
159.797431
0
LINE
8
boundary
62
5
39
2
10
33.169403
20
159.797431
11
32.523562
21
160.876596
0
LINE
8
boundary
62
5
39
2
10
32.523562
20
160.876596
11
29.503396
21
165.923147
0
LINE
8
boundary
62
5
39
2
10
29.503396
20
165.923147
11
28.957083
21
167.032084
0
LINE
8
boundary
62
5
39
2
10
28.957083
20
167.032084
11
26.762624
21
171.608007
0
LINE
8
boundary
62
5
39
2
10
26.762624
20
171.608007
11
26.431176
21
172.299151
0
LINE
8
boundary
62
5
39
2
10
26.431176
20
172.299151
11
24.446475
21
177.470705
0
LINE
8
boundary
62
5
39
2
10
24.446475
20
177.470705
11
23.903284
21
178.886104
0
LINE
8
boundary
62
5
39
2
10
23.903284
20
178.886104
11
22.512082
21
183.627998
0
LINE
8
boundary
62
5
39
2
10
22.512082
20
183.627998
11
21.920791
21
185.643413
0
LINE
8
boundary
62
5
39
2
10
21.920791
20
185.643413
11
21.008561
21
190.052015
0
LINE
8
boundary
62
5
39
2
10
21.008561
20
190.052015
11
20.495937
21
192.529414
0
LINE
8
boundary
62
5
39
2
10
20.495937
20
192.529414
11
19.980859
21
196.712845
0
LINE
8
boundary
62
5
39
2
10
19.980859
20
196.712845
11
19.637493
21
199.501669
0
LINE
8
boundary
62
5
39
2
10
19.637493
20
199.501669
11
19.470844
21
203.579068
0
LINE
8
boundary
62
5
39
2
10
19.470844
20
203.579068
11
19.350759
21
206.517169
0
LINE
8
boundary
62
5
39
2
10
19.350759
20
206.517169
11
15.346382
21
206.517169
0
LINE
8
boundary
62
5
39
2
10
15.346382
20
206.517169
11
9.575797
21
206.517169
0
LINE
8
boundary
62
5
39
2
10
9.575797
20
206.517169
11
7.921615
21
206.517169
0
LINE
8
boundary
62
5
39
2
10
7.921615
20
206.517169
11
6.667500
21
206.517169
0
LINE
8
boundary
62
5
39
2
10
6.667500
20
206.517169
11
6.907747
21
200.176288
0
LINE
8
boundary
62
5
39
2
10
6.907747
20
200.176288
11
6.951557
21
199.020019
0
LINE
8
boundary
62
5
39
2
10
6.951557
20
199.020019
11
7.693467
21
192.516666
0
LINE
8
boundary
62
5
39
2
10
7.693467
20
192.516666
11
7.802177
21
191.563745
0
LINE
8
boundary
62
5
39
2
10
7.802177
20
191.563745
11
9.101231
21
184.781604
0
LINE
8
boundary
62
5
39
2
10
9.101231
20
184.781604
11
9.214739
21
184.188996
0
LINE
8
boundary
62
5
39
2
10
9.214739
20
184.188996
11
9.410425
21
183.467356
0
LINE
8
boundary
62
5
39
2
10
9.410425
20
183.467356
11
17.990840
21
180.947919
0
LINE
8
boundary
62
5
39
2
10
17.990840
20
180.947919
11
16.794356
21
176.873067
0
LINE
8
boundary
62
5
39
2
10
16.794356
20
176.873067
11
10.928885
21
178.595325
0
LINE
8
boundary
62
5
39
2
10
10.928885
20
178.595325
11
11.162933
21
177.004540
0
LINE
8
boundary
62
5
39
2
10
11.162933
20
177.004540
11
11.433661
21
176.223667
0
LINE
8
boundary
62
5
39
2
10
11.433661
20
176.223667
11
13.738716
21
169.844183
0
LINE
8
boundary
62
5
39
2
10
13.738716
20
169.844183
11
14.044300
21
169.165524
0
LINE
8
boundary
62
5
39
2
10
14.044300
20
169.165524
11
16.841958
21
162.952332
0
LINE
8
boundary
62
5
39
2
10
16.841958
20
162.952332
11
17.738365
21
161.307787
0
LINE
8
boundary
62
5
39
2
10
17.738365
20
161.307787
11
20.469108
21
156.297977
0
LINE
8
boundary
62
5
39
2
10
20.469108
20
156.297977
11
22.313386
21
153.449580
0
LINE
8
boundary
62
5
39
2
10
22.313386
20
153.449580
11
24.600396
21
149.917401
0
LINE
8
boundary
62
5
39
2
10
24.600396
20
149.917401
11
27.885987
21
145.592520
0
LINE
8
annotation
62
1
39
211
10
175.217290
20
151.209953
11
175.217290
21
155.134833
0
LINE
8
annotation
62
1
39
211
10
175.217290
20
155.134833
11
174.344739
21
154.262036
0
LINE
8
annotation
62
1
39
211
10
21.023509
20
173.768722
11
21.023509
21
173.768722
0
LINE
8
annotation
62
1
39
211
10
21.023509
20
173.768722
11
21.309475
21
173.789669
0
LINE
8
annotation
62
1
39
211
10
21.309475
20
173.789669
11
21.584074
21
173.850398
0
LINE
8
annotation
62
1
39
211
10
21.584074
20
173.850398
11
21.843922
21
173.948362
0
LINE
8
annotation
62
1
39
211
10
21.843922
20
173.948362
11
22.085636
21
174.081013
0
LINE
8
annotation
62
1
39
211
10
22.085636
20
174.081013
11
22.305830
21
174.245802
0
LINE
8
annotation
62
1
39
211
10
22.305830
20
174.245802
11
22.501122
21
174.440182
0
LINE
8
annotation
62
1
39
211
10
22.501122
20
174.440182
11
22.668127
21
174.661604
0
LINE
8
annotation
62
1
39
211
10
22.668127
20
174.661604
11
22.803462
21
174.907521
0
LINE
8
annotation
62
1
39
211
10
22.803462
20
174.907521
11
22.903741
21
175.175384
0
LINE
8
annotation
62
1
39
211
10
22.903741
20
175.175384
11
23.298939
21
176.521302
0
LINE
8
annotation
62
1
39
211
10
23.298939
20
176.521302
11
23.298939
21
176.521302
0
LINE
8
annotation
62
1
39
211
10
23.298939
20
176.521302
11
23.331918
21
176.687328
0
LINE
8
annotation
62
1
39
211
10
23.331918
20
176.687328
11
23.334784
21
176.851888
0
LINE
8
annotation
62
1
39
211
10
23.334784
20
176.851888
11
23.309349
21
177.011684
0
LINE
8
annotation
62
1
39
211
10
23.309349
20
177.011684
11
23.257429
21
177.163415
0
LINE
8
annotation
62
1
39
211
10
23.257429
20
177.163415
11
23.180838
21
177.303780
0
LINE
8
annotation
62
1
39
211
10
23.180838
20
177.303780
11
23.081390
21
177.429479
0
LINE
8
annotation
62
1
39
211
10
23.081390
20
177.429479
11
22.960899
21
177.537212
0
LINE
8
annotation
62
1
39
211
10
22.960899
20
177.537212
11
22.821180
21
177.623679
0
LINE
8
annotation
62
1
39
211
10
22.821180
20
177.623679
11
22.664048
21
177.685580
0
LINE
8
annotation
62
1
39
211
10
22.664048
20
177.685580
11
22.664048
21
177.685580
0
LINE
8
annotation
62
1
39
211
10
22.664048
20
177.685580
11
22.498059
21
177.718556
0
LINE
8
annotation
62
1
39
211
10
22.498059
20
177.718556
11
22.333595
21
177.721405
0
LINE
8
annotation
62
1
39
211
10
22.333595
20
177.721405
11
22.173935
21
177.695932
0
LINE
8
annotation
62
1
39
211
10
22.173935
20
177.695932
11
22.022357
21
177.643940
0
LINE
8
annotation
62
1
39
211
10
22.022357
20
177.643940
11
21.882142
21
177.567235
0
LINE
8
annotation
62
1
39
211
10
21.882142
20
177.567235
11
21.756568
21
177.467622
0
LINE
8
annotation
62
1
39
211
10
21.756568
20
177.467622
11
21.648915
21
177.346904
0
LINE
8
annotation
62
1
39
211
10
21.648915
20
177.346904
11
21.562462
21
177.206887
0
LINE
8
annotation
62
1
39
211
10
21.562462
20
177.206887
11
21.500488
21
177.049375
0
LINE
8
annotation
62
1
39
211
10
21.500488
20
177.049375
11
21.368954
21
176.601413
0
LINE
8
annotation
62
1
39
211
10
21.368954
20
176.601413
11
21.368954
21
176.601413
0
LINE
8
annotation
62
1
39
211
10
21.368954
20
176.601413
11
21.335956
21
176.435478
0
LINE
8
annotation
62
1
39
211
10
21.335956
20
176.435478
11
21.333047
21
176.271158
0
LINE
8
annotation
62
1
39
211
10
21.333047
20
176.271158
11
21.358435
21
176.111706
0
LINE
8
annotation
62
1
39
211
10
21.358435
20
176.111706
11
21.410325
21
175.960376
0
LINE
8
annotation
62
1
39
211
10
21.410325
20
175.960376
11
21.486924
21
175.820421
0
LINE
8
annotation
62
1
39
211
10
21.486924
20
175.820421
11
21.586436
21
175.695095
0
LINE
8
annotation
62
1
39
211
10
21.586436
20
175.695095
11
21.707068
21
175.587650
0
LINE
8
annotation
62
1
39
211
10
21.707068
20
175.587650
11
21.847026
21
175.501341
0
LINE
8
annotation
62
1
39
211
10
21.847026
20
175.501341
11
22.004516
21
175.439421
0
LINE
8
annotation
62
1
39
211
10
22.004516
20
175.439421
11
22.903741
21
175.175384
0
LINE
8
annotation
62
1
39
211
10
23.824526
20
177.894653
11
21.799809
21
178.489163
0
LINE
8
annotation
62
1
39
211
10
50.148052
20
138.955586
11
50.397984
21
135.222125
0
LINE
8
annotation
62
1
39
211
10
50.397984
20
135.222125
11
51.956477
21
135.679740
0
LINE
8
annotation
62
1
39
211
10
49.939724
20
136.782816
11
50.718860
21
137.011591
0
LINE
8
annotation
62
1
39
211
10
80.163712
20
123.397662
11
80.163712
21
123.397662
0
LINE
8
annotation
62
1
39
211
10
80.163712
20
123.397662
11
80.034134
21
123.491041
0
LINE
8
annotation
62
1
39
211
10
80.034134
20
123.491041
11
79.894102
21
123.557901
0
LINE
8
annotation
62
1
39
211
10
79.894102
20
123.557901
11
79.747134
21
123.598530
0
LINE
8
annotation
62
1
39
211
10
79.747134
20
123.598530
11
79.596746
21
123.613217
0
LINE
8
annotation
62
1
39
211
10
79.596746
20
123.613217
11
79.446457
21
123.602248
0
LINE
8
annotation
62
1
39
211
10
79.446457
20
123.602248
11
79.299785
21
123.565912
0
LINE
8
annotation
62
1
39
211
10
79.299785
20
123.565912
11
79.160246
21
123.504498
0
LINE
8
annotation
62
1
39
211
10
79.160246
20
123.504498
11
79.031358
21
123.418292
0
LINE
8
annotation
62
1
39
211
10
79.031358
20
123.418292
11
78.916639
21
123.307584
0
LINE
8
annotation
62
1
39
211
10
78.916639
20
123.307584
11
78.916639
21
123.307584
0
LINE
8
annotation
62
1
39
211
10
78.916639
20
123.307584
11
78.823384
21
123.178277
0
LINE
8
annotation
62
1
39
211
10
78.823384
20
123.178277
11
78.756398
21
123.038433
0
LINE
8
annotation
62
1
39
211
10
78.756398
20
123.038433
11
78.715467
21
122.891574
0
LINE
8
annotation
62
1
39
211
10
78.715467
20
122.891574
11
78.700375
21
122.741223
0
LINE
8
annotation
62
1
39
211
10
78.700375
20
122.741223
11
78.710906
21
122.590903
0
LINE
8
annotation
62
1
39
211
10
78.710906
20
122.590903
11
78.746846
21
122.444137
0
LINE
8
annotation
62
1
39
211
10
78.746846
20
122.444137
11
78.807977
21
122.304446
0
LINE
8
annotation
62
1
39
211
10
78.807977
20
122.304446
11
78.894085
21
122.175355
0
LINE
8
annotation
62
1
39
211
10
78.894085
20
122.175355
11
79.004955
21
122.060385
0
LINE
8
annotation
62
1
39
211
10
79.004955
20
122.060385
11
79.338047
21
121.771759
0
LINE
8
annotation
62
1
39
211
10
79.338047
20
121.771759
11
79.338047
21
121.771759
0
LINE
8
annotation
62
1
39
211
10
79.338047
20
121.771759
11
79.467678
21
121.678323
0
LINE
8
annotation
62
1
39
211
10
79.467678
20
121.678323
11
79.607852
21
121.611312
0
LINE
8
annotation
62
1
39
211
10
79.607852
20
121.611312
11
79.755030
21
121.570467
0
LINE
8
annotation
62
1
39
211
10
79.755030
20
121.570467
11
79.905667
21
121.555528
0
LINE
8
annotation
62
1
39
211
10
79.905667
20
121.555528
11
80.056225
21
121.566237
0
LINE
8
annotation
62
1
39
211
10
80.056225
20
121.566237
11
80.203160
21
121.602334
0
LINE
8
annotation
62
1
39
211
10
80.203160
20
121.602334
11
80.342932
21
121.663560
0
LINE
8
annotation
62
1
39
211
10
80.342932
20
121.663560
11
80.471999
21
121.749657
0
LINE
8
annotation
62
1
39
211
10
80.471999
20
121.749657
11
80.586819
21
121.860365
0
LINE
8
annotation
62
1
39
211
10
80.586819
20
121.860365
11
80.586819
21
121.860365
0
LINE
8
annotation
62
1
39
211
10
80.586819
20
121.860365
11
80.680053
21
121.989777
0
LINE
8
annotation
62
1
39
211
10
80.680053
20
121.989777
11
80.746890
21
122.129796
0
LINE
8
annotation
62
1
39
211
10
80.746890
20
122.129796
11
80.787581
21
122.276876
0
LINE
8
annotation
62
1
39
211
10
80.787581
20
122.276876
11
80.802379
21
122.427471
0
LINE
8
annotation
62
1
39
211
10
80.802379
20
122.427471
11
80.791537
21
122.578033
0
LINE
8
annotation
62
1
39
211
10
80.791537
20
122.578033
11
80.755306
21
122.725017
0
LINE
8
annotation
62
1
39
211
10
80.755306
20
122.725017
11
80.693939
21
122.864877
0
LINE
8
annotation
62
1
39
211
10
80.693939
20
122.864877
11
80.607687
21
122.994065
0
LINE
8
annotation
62
1
39
211
10
80.607687
20
122.994065
11
80.496804
21
123.109036
0
LINE
8
annotation
62
1
39
211
10
80.496804
20
123.109036
11
80.163712
21
123.397662
0
LINE
8
annotation
62
1
39
211
10
80.677023
20
120.611530
11
80.677023
21
120.611530
0
LINE
8
annotation
62
1
39
211
10
80.677023
20
120.611530
11
80.806098
21
120.518575
0
LINE
8
annotation
62
1
39
211
10
80.806098
20
120.518575
11
80.945853
21
120.451928
0
LINE
8
annotation
62
1
39
211
10
80.945853
20
120.451928
11
81.092726
21
120.411346
0
LINE
8
annotation
62
1
39
211
10
81.092726
20
120.411346
11
81.243158
21
120.396586
0
LINE
8
annotation
62
1
39
211
10
81.243158
20
120.396586
11
81.393589
21
120.407404
0
LINE
8
annotation
62
1
39
211
10
81.393589
20
120.407404
11
81.540458
21
120.443559
0
LINE
8
annotation
62
1
39
211
10
81.540458
20
120.443559
11
81.680206
21
120.504806
0
LINE
8
annotation
62
1
39
211
10
81.680206
20
120.504806
11
81.809272
21
120.590903
0
LINE
8
annotation
62
1
39
211
10
81.809272
20
120.590903
11
81.924096
21
120.701608
0
LINE
8
annotation
62
1
39
211
10
81.924096
20
120.701608
11
81.924096
21
120.701608
0
LINE
8
annotation
62
1
39
211
10
81.924096
20
120.701608
11
82.017332
21
120.831018
0
LINE
8
annotation
62
1
39
211
10
82.017332
20
120.831018
11
82.084185
21
120.971023
0
LINE
8
annotation
62
1
39
211
10
82.084185
20
120.971023
11
82.124921
21
121.118065
0
LINE
8
annotation
62
1
39
211
10
82.124921
20
121.118065
11
82.139806
21
121.268585
0
LINE
8
annotation
62
1
39
211
10
82.139806
20
121.268585
11
82.129105
21
121.419024
0
LINE
8
annotation
62
1
39
211
10
82.129105
20
121.419024
11
82.093087
21
121.565824
0
LINE
8
annotation
62
1
39
211
10
82.093087
20
121.565824
11
82.032015
21
121.705427
0
LINE
8
annotation
62
1
39
211
10
82.032015
20
121.705427
11
81.946158
21
121.834274
0
LINE
8
annotation
62
1
39
211
10
81.946158
20
121.834274
11
81.835780
21
121.948806
0
LINE
8
annotation
62
1
39
211
10
81.835780
20
121.948806
11
81.835780
21
121.948806
0
LINE
8
annotation
62
1
39
211
10
81.835780
20
121.948806
11
81.706137
21
122.042242
0
LINE
8
annotation
62
1
39
211
10
81.706137
20
122.042242
11
81.565932
21
122.109252
0
LINE
8
annotation
62
1
39
211
10
81.565932
20
122.109252
11
81.418712
21
122.150099
0
LINE
8
annotation
62
1
39
211
10
81.418712
20
122.150099
11
81.268027
21
122.165044
0
LINE
8
annotation
62
1
39
211
10
81.268027
20
122.165044
11
81.117425
21
122.154346
0
LINE
8
annotation
62
1
39
211
10
81.117425
20
122.154346
11
80.970454
21
122.118269
0
LINE
8
annotation
62
1
39
211
10
80.970454
20
122.118269
11
80.830664
21
122.057072
0
LINE
8
annotation
62
1
39
211
10
80.830664
20
122.057072
11
80.701603
21
121.971017
0
LINE
8
annotation
62
1
39
211
10
80.701603
20
121.971017
11
80.586819
21
121.860365
0
LINE
8
annotation
62
1
39
211
10
80.586819
20
121.860365
11
80.586819
21
121.860365
0
LINE
8
annotation
62
1
39
211
10
80.586819
20
121.860365
11
80.493628
21
121.731002
0
LINE
8
annotation
62
1
39
211
10
80.493628
20
121.731002
11
80.426817
21
121.591007
0
LINE
8
annotation
62
1
39
211
10
80.426817
20
121.591007
11
80.386137
21
121.443931
0
LINE
8
annotation
62
1
39
211
10
80.386137
20
121.443931
11
80.371343
21
121.293322
0
LINE
8
annotation
62
1
39
211
10
80.371343
20
121.293322
11
80.382187
21
121.142730
0
LINE
8
annotation
62
1
39
211
10
80.382187
20
121.142730
11
80.418424
21
120.995705
0
LINE
8
annotation
62
1
39
211
10
80.418424
20
120.995705
11
80.479807
21
120.855797
0
LINE
8
annotation
62
1
39
211
10
80.479807
20
120.855797
11
80.566089
21
120.726556
0
LINE
8
annotation
62
1
39
211
10
80.566089
20
120.726556
11
80.677023
21
120.611530
0
LINE
8
annotation
62
1
39
211
10
98.376649
20
120.124751
11
98.376649
21
120.124751
0
LINE
8
annotation
62
1
39
211
10
98.376649
20
120.124751
11
98.431338
21
119.872993
0
LINE
8
annotation
62
1
39
211
10
98.431338
20
119.872993
11
98.520166
21
119.636357
0
LINE
8
annotation
62
1
39
211
10
98.520166
20
119.636357
11
98.640390
21
119.417549
0
LINE
8
annotation
62
1
39
211
10
98.640390
20
119.417549
11
98.789269
21
119.219278
0
LINE
8
annotation
62
1
39
211
10
98.789269
20
119.219278
11
98.964064
21
119.044250
0
LINE
8
annotation
62
1
39
211
10
98.964064
20
119.044250
11
99.162032
21
118.895174
0
LINE
8
annotation
62
1
39
211
10
99.162032
20
118.895174
11
99.380434
21
118.774756
0
LINE
8
annotation
62
1
39
211
10
99.380434
20
118.774756
11
99.616528
21
118.685705
0
LINE
8
annotation
62
1
39
211
10
99.616528
20
118.685705
11
99.867573
21
118.630727
0
LINE
8
annotation
62
1
39
211
10
99.867573
20
118.630727
11
101.122497
21
118.450297
0
LINE
8
annotation
62
1
39
211
10
101.122497
20
118.450297
11
101.122497
21
118.450297
0
LINE
8
annotation
62
1
39
211
10
101.122497
20
118.450297
11
101.274755
21
118.442135
0
LINE
8
annotation
62
1
39
211
10
101.274755
20
118.442135
11
101.421851
21
118.460576
0
LINE
8
annotation
62
1
39
211
10
101.421851
20
118.460576
11
101.561077
21
118.503607
0
LINE
8
annotation
62
1
39
211
10
101.561077
20
118.503607
11
101.689723
21
118.569217
0
LINE
8
annotation
62
1
39
211
10
101.689723
20
118.569217
11
101.805079
21
118.655397
0
LINE
8
annotation
62
1
39
211
10
101.805079
20
118.655397
11
101.904435
21
118.760134
0
LINE
8
annotation
62
1
39
211
10
101.904435
20
118.760134
11
101.985082
21
118.881417
0
LINE
8
annotation
62
1
39
211
10
101.985082
20
118.881417
11
102.044310
21
119.017236
0
LINE
8
annotation
62
1
39
211
10
102.044310
20
119.017236
11
102.079410
21
119.165580
0
LINE
8
annotation
62
1
39
211
10
102.079410
20
119.165580
11
102.079410
21
119.165580
0
LINE
8
annotation
62
1
39
211
10
102.079410
20
119.165580
11
102.087480
21
119.317492
0
LINE
8
annotation
62
1
39
211
10
102.087480
20
119.317492
11
102.068892
21
119.464331
0
LINE
8
annotation
62
1
39
211
10
102.068892
20
119.464331
11
102.025674
21
119.603374
0
LINE
8
annotation
62
1
39
211
10
102.025674
20
119.603374
11
101.959856
21
119.731899
0
LINE
8
annotation
62
1
39
211
10
101.959856
20
119.731899
11
101.873467
21
119.847184
0
LINE
8
annotation
62
1
39
211
10
101.873467
20
119.847184
11
101.768535
21
119.946507
0
LINE
8
annotation
62
1
39
211
10
101.768535
20
119.946507
11
101.647090
21
120.027146
0
LINE
8
annotation
62
1
39
211
10
101.647090
20
120.027146
11
101.511161
21
120.086378
0
LINE
8
annotation
62
1
39
211
10
101.511161
20
120.086378
11
101.362777
21
120.121482
0
LINE
8
annotation
62
1
39
211
10
101.362777
20
120.121482
11
100.944391
21
120.181637
0
LINE
8
annotation
62
1
39
211
10
100.944391
20
120.181637
11
100.944391
21
120.181637
0
LINE
8
annotation
62
1
39
211
10
100.944391
20
120.181637
11
100.792135
21
120.189759
0
LINE
8
annotation
62
1
39
211
10
100.792135
20
120.189759
11
100.645046
21
120.171218
0
LINE
8
annotation
62
1
39
211
10
100.645046
20
120.171218
11
100.505833
21
120.128056
0
LINE
8
annotation
62
1
39
211
10
100.505833
20
120.128056
11
100.377207
21
120.062314
0
LINE
8
annotation
62
1
39
211
10
100.377207
20
120.062314
11
100.261876
21
119.976032
0
LINE
8
annotation
62
1
39
211
10
100.261876
20
119.976032
11
100.162552
21
119.871251
0
LINE
8
annotation
62
1
39
211
10
100.162552
20
119.871251
11
100.081944
21
119.750011
0
LINE
8
annotation
62
1
39
211
10
100.081944
20
119.750011
11
100.022761
21
119.614354
0
LINE
8
annotation
62
1
39
211
10
100.022761
20
119.614354
11
99.987714
21
119.466320
0
LINE
8
annotation
62
1
39
211
10
99.987714
20
119.466320
11
99.867573
21
118.630727
0
LINE
8
annotation
62
1
39
211
10
97.981321
20
120.714241
11
97.710811
21
118.832800
0
LINE
8
annotation
62
1
39
211
10
118.679169
20
119.798781
11
121.344431
21
121.015965
0
LINE
8
annotation
62
1
39
211
10
121.344431
20
121.015965
11
120.481146
21
121.337815
0
LINE
8
annotation
62
1
39
211
10
119.366243
20
118.387334
11
119.366243
21
118.387334
0
LINE
8
annotation
62
1
39
211
10
119.366243
20
118.387334
11
119.371376
21
118.314815
0
LINE
8
annotation
62
1
39
211
10
119.371376
20
118.314815
11
119.388884
21
118.246033
0
LINE
8
annotation
62
1
39
211
10
119.388884
20
118.246033
11
119.417643
21
118.182208
0
LINE
8
annotation
62
1
39
211
10
119.417643
20
118.182208
11
119.456527
21
118.124564
0
LINE
8
annotation
62
1
39
211
10
119.456527
20
118.124564
11
119.504412
21
118.074323
0
LINE
8
annotation
62
1
39
211
10
119.504412
20
118.074323
11
119.560173
21
118.032706
0
LINE
8
annotation
62
1
39
211
10
119.560173
20
118.032706
11
119.622684
21
118.000935
0
LINE
8
annotation
62
1
39
211
10
119.622684
20
118.000935
11
119.690821
21
117.980232
0
LINE
8
annotation
62
1
39
211
10
119.690821
20
117.980232
11
119.763459
21
117.971820
0
LINE
8
annotation
62
1
39
211
10
119.763459
20
117.971820
11
119.763459
21
117.971820
0
LINE
8
annotation
62
1
39
211
10
119.763459
20
117.971820
11
120.050651
21
117.978901
0
LINE
8
annotation
62
1
39
211
10
120.050651
20
117.978901
11
120.333078
21
118.014826
0
LINE
8
annotation
62
1
39
211
10
120.333078
20
118.014826
11
120.608767
21
118.078692
0
LINE
8
annotation
62
1
39
211
10
120.608767
20
118.078692
11
120.875748
21
118.169599
0
LINE
8
annotation
62
1
39
211
10
120.875748
20
118.169599
11
121.132050
21
118.286648
0
LINE
8
annotation
62
1
39
211
10
121.132050
20
118.286648
11
121.375700
21
118.428938
0
LINE
8
annotation
62
1
39
211
10
121.375700
20
118.428938
11
121.604728
21
118.595569
0
LINE
8
annotation
62
1
39
211
10
121.604728
20
118.595569
11
121.817162
21
118.785640
0
LINE
8
annotation
62
1
39
211
10
121.817162
20
118.785640
11
122.011030
21
118.998251
0
LINE
8
annotation
62
1
39
211
10
122.011030
20
118.998251
11
122.011030
21
118.998251
0
LINE
8
annotation
62
1
39
211
10
122.011030
20
118.998251
11
122.029365
21
119.022403
0
LINE
8
annotation
62
1
39
211
10
122.029365
20
119.022403
11
122.045835
21
119.047813
0
LINE
8
annotation
62
1
39
211
10
122.045835
20
119.047813
11
122.060377
21
119.074318
0
LINE
8
annotation
62
1
39
211
10
122.060377
20
119.074318
11
122.072928
21
119.101753
0
LINE
8
annotation
62
1
39
211
10
122.072928
20
119.101753
11
122.083424
21
119.129957
0
LINE
8
annotation
62
1
39
211
10
122.083424
20
119.129957
11
122.091802
21
119.158764
0
LINE
8
annotation
62
1
39
211
10
122.091802
20
119.158764
11
122.097999
21
119.188011
0
LINE
8
annotation
62
1
39
211
10
122.097999
20
119.188011
11
122.101952
21
119.217536
0
LINE
8
annotation
62
1
39
211
10
122.101952
20
119.217536
11
122.103596
21
119.247173
0
LINE
8
annotation
62
1
39
211
10
122.103596
20
119.247173
11
122.103596
21
119.247173
0
LINE
8
annotation
62
1
39
211
10
122.103596
20
119.247173
11
122.098741
21
119.320413
0
LINE
8
annotation
62
1
39
211
10
122.098741
20
119.320413
11
122.081456
21
119.389747
0
LINE
8
annotation
62
1
39
211
10
122.081456
20
119.389747
11
122.052862
21
119.453972
0
LINE
8
annotation
62
1
39
211
10
122.052862
20
119.453972
11
122.014078
21
119.511882
0
LINE
8
annotation
62
1
39
211
10
122.014078
20
119.511882
11
121.966226
21
119.562274
0
LINE
8
annotation
62
1
39
211
10
121.966226
20
119.562274
11
121.910424
21
119.603943
0
LINE
8
annotation
62
1
39
211
10
121.910424
20
119.603943
11
121.847794
21
119.635686
0
LINE
8
annotation
62
1
39
211
10
121.847794
20
119.635686
11
121.779456
21
119.656297
0
LINE
8
annotation
62
1
39
211
10
121.779456
20
119.656297
11
121.706529
21
119.664574
0
LINE
8
annotation
62
1
39
211
10
121.706529
20
119.664574
11
121.706529
21
119.664574
0
LINE
8
annotation
62
1
39
211
10
121.706529
20
119.664574
11
121.419612
21
119.657019
0
LINE
8
annotation
62
1
39
211
10
121.419612
20
119.657019
11
121.137393
21
119.620741
0
LINE
8
annotation
62
1
39
211
10
121.137393
20
119.620741
11
120.861841
21
119.556638
0
LINE
8
annotation
62
1
39
211
10
120.861841
20
119.556638
11
120.594929
21
119.465613
0
LINE
8
annotation
62
1
39
211
10
120.594929
20
119.465613
11
120.338627
21
119.348564
0
LINE
8
annotation
62
1
39
211
10
120.338627
20
119.348564
11
120.094908
21
119.206392
0
LINE
8
annotation
62
1
39
211
10
120.094908
20
119.206392
11
119.865743
21
119.039998
0
LINE
8
annotation
62
1
39
211
10
119.865743
20
119.039998
11
119.653102
21
118.850281
0
LINE
8
annotation
62
1
39
211
10
119.653102
20
118.850281
11
119.458957
21
118.638142
0
LINE
8
annotation
62
1
39
211
10
119.458957
20
118.638142
11
119.458957
21
118.638142
0
LINE
8
annotation
62
1
39
211
10
119.458957
20
118.638142
11
119.440649
21
118.614060
0
LINE
8
annotation
62
1
39
211
10
119.440649
20
118.614060
11
119.424245
21
118.588812
0
LINE
8
annotation
62
1
39
211
10
119.424245
20
118.588812
11
119.409787
21
118.562493
0
LINE
8
annotation
62
1
39
211
10
119.409787
20
118.562493
11
119.397316
21
118.535196
0
LINE
8
annotation
62
1
39
211
10
119.397316
20
118.535196
11
119.386875
21
118.507015
0
LINE
8
annotation
62
1
39
211
10
119.386875
20
118.507015
11
119.378505
21
118.478045
0
LINE
8
annotation
62
1
39
211
10
119.378505
20
118.478045
11
119.372248
21
118.448378
0
LINE
8
annotation
62
1
39
211
10
119.372248
20
118.448378
11
119.368147
21
118.418110
0
LINE
8
annotation
62
1
39
211
10
119.368147
20
118.418110
11
119.366243
21
118.387334
0
LINE
8
annotation
62
1
39
211
10
143.496393
20
126.579394
11
145.210184
21
129.246106
0
LINE
8
annotation
62
1
39
211
10
145.210184
20
129.246106
11
144.236235
21
129.034092
0
LINE
8
annotation
62
1
39
211
10
145.089254
20
125.555725
11
146.803045
21
128.222436
0
LINE
8
annotation
62
1
39
211
10
146.803045
20
128.222436
11
145.829096
21
128.010423
0
LINE
8
annotation
62
1
39
211
10
193.557759
20
190.922728
11
191.592019
21
190.922728
0
LINE
8
annotation
62
1
39
211
10
191.592019
20
190.922728
11
193.557759
21
194.463013
0
LINE
8
annotation
62
1
39
211
10
193.557759
20
194.463013
11
191.592019
21
194.463013
0
LINE
8
annotation
62
1
39
211
10
196.821466
20
192.692870
11
194.885699
21
192.692870
0
LINE
8
annotation
62
1
39
211
10
199.721332
20
190.922699
11
198.149007
21
190.922699
0
LINE
8
annotation
62
1
39
211
10
198.149007
20
190.922699
11
199.601887
21
193.261649
0
LINE
8
annotation
62
1
39
211
10
199.601887
20
193.261649
11
199.601887
21
193.261649
0
LINE
8
annotation
62
1
39
211
10
199.601887
20
193.261649
11
199.603624
21
193.263798
0
LINE
8
annotation
62
1
39
211
10
199.603624
20
193.263798
11
199.605290
21
193.265966
0
LINE
8
annotation
62
1
39
211
10
199.605290
20
193.265966
11
199.606895
21
193.268170
0
LINE
8
annotation
62
1
39
211
10
199.606895
20
193.268170
11
199.608451
21
193.270429
0
LINE
8
annotation
62
1
39
211
10
199.608451
20
193.270429
11
199.609968
21
193.272761
0
LINE
8
annotation
62
1
39
211
10
199.609968
20
193.272761
11
199.611459
21
193.275184
0
LINE
8
annotation
62
1
39
211
10
199.611459
20
193.275184
11
199.612932
21
193.277717
0
LINE
8
annotation
62
1
39
211
10
199.612932
20
193.277717
11
199.614401
21
193.280378
0
LINE
8
annotation
62
1
39
211
10
199.614401
20
193.280378
11
199.615874
21
193.283185
0
LINE
8
annotation
62
1
39
211
10
199.615874
20
193.283185
11
199.615874
21
193.283185
0
LINE
8
annotation
62
1
39
211
10
199.615874
20
193.283185
11
199.675863
21
193.411986
0
LINE
8
annotation
62
1
39
211
10
199.675863
20
193.411986
11
199.710908
21
193.545501
0
LINE
8
annotation
62
1
39
211
10
199.710908
20
193.545501
11
199.721867
21
193.680711
0
LINE
8
annotation
62
1
39
211
10
199.721867
20
193.680711
11
199.709599
21
193.814599
0
LINE
8
annotation
62
1
39
211
10
199.709599
20
193.814599
11
199.674963
21
193.944150
0
LINE
8
annotation
62
1
39
211
10
199.674963
20
193.944150
11
199.618818
21
194.066346
0
LINE
8
annotation
62
1
39
211
10
199.618818
20
194.066346
11
199.542023
21
194.178170
0
LINE
8
annotation
62
1
39
211
10
199.542023
20
194.178170
11
199.445436
21
194.276606
0
LINE
8
annotation
62
1
39
211
10
199.445436
20
194.276606
11
199.329916
21
194.358636
0
LINE
8
annotation
62
1
39
211
10
199.329916
20
194.358636
11
199.329916
21
194.358636
0
LINE
8
annotation
62
1
39
211
10
199.329916
20
194.358636
11
199.200757
21
194.417772
0
LINE
8
annotation
62
1
39
211
10
199.200757
20
194.417772
11
199.067038
21
194.452277
0
LINE
8
annotation
62
1
39
211
10
199.067038
20
194.452277
11
198.931749
21
194.462926
0
LINE
8
annotation
62
1
39
211
10
198.931749
20
194.462926
11
198.797880
21
194.450497
0
LINE
8
annotation
62
1
39
211
10
198.797880
20
194.450497
11
198.668421
21
194.415765
0
LINE
8
annotation
62
1
39
211
10
198.668421
20
194.415765
11
198.546360
21
194.359507
0
LINE
8
annotation
62
1
39
211
10
198.546360
20
194.359507
11
198.434688
21
194.282501
0
LINE
8
annotation
62
1
39
211
10
198.434688
20
194.282501
11
198.336393
21
194.185522
0
LINE
8
annotation
62
1
39
211
10
198.336393
20
194.185522
11
198.254465
21
194.069348
0
LINE
8
annotation
62
1
39
211
10
198.254465
20
194.069348
11
198.151227
21
193.871308
0
LINE
8
boundary
62
5
39
2
10
6.677248
20
210.022689
11
7.698321
21
209.900300
0
LINE
8
boundary
62
5
39
2
10
7.698321
20
209.900300
11
10.097360
21
209.785635
0
LINE
8
boundary
62
5
39
2
10
10.097360
20
209.785635
11
14.766849
21
209.692169
0
LINE
8
boundary
62
5
39
2
10
14.766849
20
209.692169
11
16.844374
21
209.802001
0
LINE
8
boundary
62
5
39
2
10
16.844374
20
209.802001
11
21.902376
21
210.069403
0
LINE
8
boundary
62
5
39
2
10
21.902376
20
210.069403
11
27.099351
21
210.730713
0
LINE
8
boundary
62
5
39
2
10
27.099351
20
210.730713
11
29.068461
21
210.981277
0
LINE
8
boundary
62
5
39
2
10
29.068461
20
210.981277
11
33.716759
21
211.930000
0
LINE
8
boundary
62
5
39
2
10
33.716759
20
211.930000
11
36.191750
21
212.502555
0
LINE
8
boundary
62
5
39
2
10
36.191750
20
212.502555
11
37.209045
21
212.820615
0
LINE
8
boundary
62
5
39
2
10
37.209045
20
212.820615
11
43.180922
21
214.687740
0
LINE
8
boundary
62
5
39
2
10
43.180922
20
214.687740
11
46.912654
21
216.177151
0
LINE
8
boundary
62
5
39
2
10
46.912654
20
216.177151
11
50.026646
21
217.420006
0
LINE
8
boundary
62
5
39
2
10
50.026646
20
217.420006
11
56.132897
21
220.426940
0
LINE
8
boundary
62
5
39
2
10
56.132897
20
220.426940
11
56.677509
21
220.695126
0
LINE
8
boundary
62
5
39
2
10
56.677509
20
220.695126
11
58.179149
21
221.588271
0
LINE
8
boundary
62
5
39
2
10
58.179149
20
221.588271
11
62.996866
21
224.599902
0
LINE
8
boundary
62
5
39
2
10
62.996866
20
224.599902
11
64.527264
21
225.734527
0
LINE
8
boundary
62
5
39
2
10
64.527264
20
225.734527
11
68.978051
21
229.034306
0
LINE
8
boundary
62
5
39
2
10
68.978051
20
229.034306
11
72.116300
21
231.777415
0
LINE
8
boundary
62
5
39
2
10
72.116300
20
231.777415
11
74.596431
21
233.945272
0
LINE
8
boundary
62
5
39
2
10
74.596431
20
233.945272
11
78.899642
21
238.373585
0
LINE
8
boundary
62
5
39
2
10
78.899642
20
238.373585
11
79.805582
21
239.305862
0
LINE
8
boundary
62
5
39
2
10
79.805582
20
239.305862
11
83.351131
21
243.613918
0
LINE
8
boundary
62
5
39
2
10
83.351131
20
243.613918
11
84.535401
21
245.100164
0
LINE
8
boundary
62
5
39
2
10
84.535401
20
245.100164
11
88.699429
21
251.307388
0
LINE
8
boundary
62
5
39
2
10
88.699429
20
251.307388
11
89.592141
21
252.910250
0
LINE
8
boundary
62
5
39
2
10
89.592141
20
252.910250
11
92.335521
21
257.835987
0
LINE
8
boundary
62
5
39
2
10
92.335521
20
257.835987
11
93.570046
21
260.565880
0
LINE
8
boundary
62
5
39
2
10
93.570046
20
260.565880
11
95.413674
21
264.642679
0
LINE
8
boundary
62
5
39
2
10
95.413674
20
264.642679
11
96.720020
21
268.328716
0
LINE
8
boundary
62
5
39
2
10
96.720020
20
268.328716
11
97.908151
21
271.681196
0
LINE
8
boundary
62
5
39
2
10
97.908151
20
271.681196
11
99.070106
21
276.121536
0
LINE
8
boundary
62
5
39
2
10
99.070106
20
276.121536
11
99.797894
21
278.902745
0
LINE
8
boundary
62
5
39
2
10
99.797894
20
278.902745
11
100.655999
21
283.875792
0
LINE
8
boundary
62
5
39
2
10
100.655999
20
283.875792
11
101.066798
21
286.256505
0
LINE
8
boundary
62
5
39
2
10
101.066798
20
286.256505
11
101.518977
21
291.531764
0
LINE
8
boundary
62
5
39
2
10
101.518977
20
291.531764
11
101.703991
21
293.690200
0
LINE
8
boundary
62
5
39
2
10
101.703991
20
293.690200
11
101.703991
21
299.038348
0
LINE
8
boundary
62
5
39
2
10
101.703991
20
299.038348
11
101.703991
21
301.150637
0
LINE
8
boundary
62
5
39
2
10
101.703991
20
301.150637
11
101.258090
21
306.352649
0
LINE
8
boundary
62
5
39
2
10
101.258090
20
306.352649
11
101.066798
21
308.584335
0
LINE
8
boundary
62
5
39
2
10
101.066798
20
308.584335
11
100.229061
21
313.439355
0
LINE
8
boundary
62
5
39
2
10
100.229061
20
313.439355
11
99.797895
21
315.938104
0
LINE
8
boundary
62
5
39
2
10
99.797895
20
315.938104
11
98.664315
21
320.270006
0
LINE
8
boundary
62
5
39
2
10
98.664315
20
320.270006
11
97.908151
21
323.159649
0
LINE
8
boundary
62
5
39
2
10
97.908151
20
323.159649
11
96.610093
21
326.822304
0
LINE
8
boundary
62
5
39
2
10
96.610093
20
326.822304
11
95.413674
21
330.198166
0
LINE
8
boundary
62
5
39
2
10
95.413674
20
330.198166
11
94.110780
21
333.079237
0
LINE
8
boundary
62
5
39
2
10
94.110780
20
333.079237
11
92.335521
21
337.004851
0
LINE
8
boundary
62
5
39
2
10
92.335521
20
337.004851
11
91.208488
21
339.028441
0
LINE
8
boundary
62
5
39
2
10
91.208488
20
339.028441
11
88.699429
21
343.533446
0
LINE
8
boundary
62
5
39
2
10
88.699429
20
343.533446
11
87.942788
21
344.661350
0
LINE
8
boundary
62
5
39
2
10
87.942788
20
344.661350
11
84.535401
21
349.740678
0
LINE
8
boundary
62
5
39
2
10
84.535401
20
349.740678
11
83.351131
21
351.226925
0
LINE
8
boundary
62
5
39
2
10
83.351131
20
351.226925
11
80.356450
21
354.865643
0
LINE
8
boundary
62
5
39
2
10
80.356450
20
354.865643
11
79.805582
21
355.534983
0
LINE
8
boundary
62
5
39
2
10
79.805582
20
355.534983
11
76.070410
21
359.378746
0
LINE
8
boundary
62
5
39
2
10
76.070410
20
359.378746
11
74.596431
21
360.895571
0
LINE
8
boundary
62
5
39
2
10
74.596431
20
360.895571
11
71.565108
21
363.545216
0
LINE
8
boundary
62
5
39
2
10
71.565108
20
363.545216
11
68.978050
21
365.806533
0
LINE
8
boundary
62
5
39
2
10
68.978050
20
365.806533
11
66.870058
21
367.369384
0
LINE
8
boundary
62
5
39
2
10
66.870058
20
367.369384
11
62.996867
21
370.240941
0
LINE
8
boundary
62
5
39
2
10
62.996867
20
370.240941
11
62.011945
21
370.856630
0
LINE
8
boundary
62
5
39
2
10
62.011945
20
370.856630
11
58.179150
21
373.252580
0
LINE
8
boundary
62
5
39
2
10
58.179150
20
373.252580
11
56.979764
21
373.965952
0
LINE
8
boundary
62
5
39
2
10
56.979764
20
373.965952
11
51.728787
21
376.582653
0
LINE
8
boundary
62
5
39
2
10
51.728787
20
376.582653
11
50.026646
21
377.420840
0
LINE
8
boundary
62
5
39
2
10
50.026646
20
377.420840
11
46.406130
21
378.865854
0
LINE
8
boundary
62
5
39
2
10
46.406130
20
378.865854
11
43.180922
21
380.153107
0
LINE
8
boundary
62
5
39
2
10
43.180922
20
380.153107
11
41.030774
21
380.825358
0
LINE
8
boundary
62
5
39
2
10
41.030774
20
380.825358
11
36.191751
21
382.338288
0
LINE
8
boundary
62
5
39
2
10
36.191751
20
382.338288
11
35.619563
21
382.470655
0
LINE
8
boundary
62
5
39
2
10
35.619563
20
382.470655
11
33.716759
21
382.910839
0
LINE
8
boundary
62
5
39
2
10
33.716759
20
382.910839
11
30.113838
21
383.646191
0
LINE
8
boundary
62
5
39
2
10
30.113838
20
383.646191
11
29.068461
21
383.859555
0
LINE
8
boundary
62
5
39
2
10
29.068461
20
383.859555
11
24.587566
21
384.429756
0
LINE
8
boundary
62
5
39
2
10
24.587566
20
384.429756
11
21.902375
21
384.771442
0
LINE
8
boundary
62
5
39
2
10
21.902375
20
384.771442
11
19.098253
21
384.919684
0
LINE
8
boundary
62
5
39
2
10
19.098253
20
384.919684
11
14.766849
21
385.148682
0
LINE
8
boundary
62
5
39
2
10
14.766849
20
385.148682
11
13.656544
21
385.126460
0
LINE
8
boundary
62
5
39
2
10
13.656544
20
385.126460
11
10.097359
21
385.055208
0
LINE
8
boundary
62
5
39
2
10
10.097359
20
385.055208
11
8.246836
21
384.966754
0
LINE
8
boundary
62
5
39
2
10
8.246836
20
384.966754
11
7.698320
21
384.940536
0
LINE
8
boundary
62
5
39
2
10
7.698320
20
384.940536
11
6.667500
21
384.816980
0
LINE
8
boundary
62
5
39
2
10
6.667500
20
384.816980
11
6.667500
21
375.977997
0
LINE
8
boundary
62
5
39
2
10
6.667500
20
375.977997
11
33.080799
21
375.752952
0
LINE
8
boundary
62
5
39
2
10
33.080799
20
375.752952
11
33.080799
21
371.506073
0
LINE
8
boundary
62
5
39
2
10
33.080799
20
371.506073
11
6.752844
21
371.506073
0
LINE
8
boundary
62
5
39
2
10
6.752844
20
371.506073
11
6.667500
21
370.264159
0
LINE
8
boundary
62
5
39
2
10
6.667500
20
370.264159
11
8.282098
21
370.443778
0
LINE
8
boundary
62
5
39
2
10
8.282098
20
370.443778
11
11.225376
21
370.545705
0
LINE
8
boundary
62
5
39
2
10
11.225376
20
370.545705
11
14.625058
21
370.663439
0
LINE
8
boundary
62
5
39
2
10
14.625058
20
370.663439
11
20.444545
21
370.414529
0
LINE
8
boundary
62
5
39
2
10
20.444545
20
370.414529
11
21.068678
21
370.387836
0
LINE
8
boundary
62
5
39
2
10
21.068678
20
370.387836
11
22.518548
21
370.210917
0
LINE
8
boundary
62
5
39
2
10
22.518548
20
370.210917
11
27.508397
21
369.441884
0
LINE
8
boundary
62
5
39
2
10
27.508397
20
369.441884
11
29.651490
21
368.933034
0
LINE
8
boundary
62
5
39
2
10
29.651490
20
368.933034
11
33.907135
21
367.922581
0
LINE
8
boundary
62
5
39
2
10
33.907135
20
367.922581
11
38.626106
21
366.386370
0
LINE
8
boundary
62
5
39
2
10
38.626106
20
366.386370
11
40.226197
21
365.865479
0
LINE
8
boundary
62
5
39
2
10
40.226197
20
365.865479
11
44.261566
21
364.169734
0
LINE
8
boundary
62
5
39
2
10
44.261566
20
364.169734
11
46.371923
21
363.213318
0
LINE
8
boundary
62
5
39
2
10
46.371923
20
363.213318
11
47.134078
21
362.787518
0
LINE
8
boundary
62
5
39
2
10
47.134078
20
362.787518
11
52.238293
21
359.935896
0
LINE
8
boundary
62
5
39
2
10
52.238293
20
359.935896
11
54.908427
21
358.129123
0
LINE
8
boundary
62
5
39
2
10
54.908427
20
358.129123
11
57.833197
21
356.150055
0
LINE
8
boundary
62
5
39
2
10
57.833197
20
356.150055
11
61.983486
21
352.781692
0
LINE
8
boundary
62
5
39
2
10
61.983486
20
352.781692
11
63.101642
21
351.874195
0
LINE
8
boundary
62
5
39
2
10
63.101642
20
351.874195
11
66.892972
21
348.196717
0
LINE
8
boundary
62
5
39
2
10
66.892972
20
348.196717
11
67.963598
21
347.114359
0
LINE
8
boundary
62
5
39
2
10
67.963598
20
347.114359
11
72.305100
21
341.873094
0
LINE
8
boundary
62
5
39
2
10
72.305100
20
341.873094
11
73.398125
21
340.283635
0
LINE
8
boundary
62
5
39
2
10
73.398125
20
340.283635
11
76.165802
21
336.258929
0
LINE
8
boundary
62
5
39
2
10
76.165802
20
336.258929
11
77.735295
21
333.465487
0
LINE
8
boundary
62
5
39
2
10
77.735295
20
333.465487
11
79.505689
21
330.314477
0
LINE
8
boundary
62
5
39
2
10
79.505689
20
330.314477
11
81.229454
21
326.458217
0
LINE
8
boundary
62
5
39
2
10
81.229454
20
326.458217
11
81.902312
21
324.952956
0
LINE
8
boundary
62
5
39
2
10
81.902312
20
324.952956
11
90.099258
21
324.952956
0
LINE
8
boundary
62
5
39
2
10
90.099258
20
324.952956
11
90.099258
21
320.706075
0
LINE
8
boundary
62
5
39
2
10
90.099258
20
320.706075
11
83.601566
21
320.706076
0
LINE
8
boundary
62
5
39
2
10
83.601566
20
320.706076
11
83.899235
21
319.355254
0
LINE
8
boundary
62
5
39
2
10
83.899235
20
319.355254
11
84.486944
21
317.627819
0
LINE
8
boundary
62
5
39
2
10
84.486944
20
317.627819
11
85.775514
21
312.240671
0
LINE
8
boundary
62
5
39
2
10
85.775514
20
312.240671
11
86.074250
21
310.991739
0
LINE
8
boundary
62
5
39
2
10
86.074250
20
310.991739
11
86.898546
21
305.188262
0
LINE
8
boundary
62
5
39
2
10
86.898546
20
305.188262
11
87.033775
21
304.236172
0
LINE
8
boundary
62
5
39
2
10
87.033775
20
304.236172
11
87.315202
21
298.261398
0
LINE
8
boundary
62
5
39
2
10
87.315202
20
298.261398
11
87.354814
21
297.420415
0
LINE
8
boundary
62
5
39
2
10
87.354814
20
297.420415
11
87.076567
21
291.513135
0
LINE
8
boundary
62
5
39
2
10
87.076567
20
291.513135
11
87.033776
21
290.604666
0
LINE
8
boundary
62
5
39
2
10
87.033776
20
290.604666
11
86.235845
21
284.986830
0
LINE
8
boundary
62
5
39
2
10
86.235845
20
284.986830
11
86.074250
21
283.849109
0
LINE
8
boundary
62
5
39
2
10
86.074250
20
283.849109
11
84.846672
21
278.716941
0
LINE
8
boundary
62
5
39
2
10
84.846672
20
278.716941
11
84.486944
21
277.213020
0
LINE
8
boundary
62
5
39
2
10
84.486944
20
277.213020
11
83.522412
21
274.378003
0
LINE
8
boundary
62
5
39
2
10
83.522412
20
274.378003
11
90.105704
21
274.152959
0
LINE
8
boundary
62
5
39
2
10
90.105704
20
274.152959
11
90.105704
21
269.906079
0
LINE
8
boundary
62
5
39
2
10
90.105704
20
269.906079
11
81.910443
21
269.906079
0
LINE
8
boundary
62
5
39
2
10
81.910443
20
269.906079
11
80.631799
21
267.045607
0
LINE
8
boundary
62
5
39
2
10
80.631799
20
267.045607
11
79.505688
21
264.526363
0
LINE
8
boundary
62
5
39
2
10
79.505688
20
264.526363
11
77.905009
21
261.677414
0
LINE
8
boundary
62
5
39
2
10
77.905009
20
261.677414
11
76.165802
21
258.581920
0
LINE
8
boundary
62
5
39
2
10
76.165802
20
258.581920
11
74.826367
21
256.634136
0
LINE
8
boundary
62
5
39
2
10
74.826367
20
256.634136
11
72.305100
21
252.967756
0
LINE
8
boundary
62
5
39
2
10
72.305100
20
252.967756
11
71.437553
21
251.920412
0
LINE
8
boundary
62
5
39
2
10
71.437553
20
251.920412
11
67.963598
21
247.726484
0
LINE
8
boundary
62
5
39
2
10
67.963598
20
247.726484
11
66.892972
21
246.644125
0
LINE
8
boundary
62
5
39
2
10
66.892972
20
246.644125
11
63.754287
21
243.599690
0
LINE
8
boundary
62
5
39
2
10
63.754287
20
243.599690
11
63.101642
21
242.966645
0
LINE
8
boundary
62
5
39
2
10
63.101642
20
242.966645
11
59.502404
21
240.045515
0
LINE
8
boundary
62
5
39
2
10
59.502404
20
240.045515
11
57.833197
21
238.690787
0
LINE
8
boundary
62
5
39
2
10
57.833197
20
238.690787
11
55.092455
21
236.836238
0
LINE
8
boundary
62
5
39
2
10
55.092455
20
236.836238
11
52.238293
21
234.904949
0
LINE
8
boundary
62
5
39
2
10
52.238293
20
234.904949
11
50.553075
21
233.963451
0
LINE
8
boundary
62
5
39
2
10
50.553075
20
233.963451
11
46.371923
21
231.627514
0
LINE
8
boundary
62
5
39
2
10
46.371923
20
231.627514
11
44.261567
21
230.671096
0
LINE
8
boundary
62
5
39
2
10
44.261567
20
230.671096
11
41.086663
21
229.336936
0
LINE
8
boundary
62
5
39
2
10
41.086663
20
229.336936
11
40.226197
21
228.975351
0
LINE
8
boundary
62
5
39
2
10
40.226197
20
228.975351
11
36.174382
21
227.656342
0
LINE
8
boundary
62
5
39
2
10
36.174382
20
227.656342
11
33.907135
21
226.918271
0
LINE
8
boundary
62
5
39
2
10
33.907135
20
226.918271
11
31.249529
21
226.287247
0
LINE
8
boundary
62
5
39
2
10
31.249529
20
226.287247
11
27.508397
21
225.398949
0
LINE
8
boundary
62
5
39
2
10
27.508397
20
225.398949
11
26.328243
21
225.217061
0
LINE
8
boundary
62
5
39
2
10
26.328243
20
225.217061
11
22.518548
21
224.629908
0
LINE
8
boundary
62
5
39
2
10
22.518548
20
224.629908
11
21.398080
21
224.493185
0
LINE
8
boundary
62
5
39
2
10
21.398080
20
224.493185
11
16.428485
21
224.254532
0
LINE
8
boundary
62
5
39
2
10
16.428485
20
224.254532
11
14.625058
21
224.177399
0
LINE
8
boundary
62
5
39
2
10
14.625058
20
224.177399
11
11.535584
21
224.284385
0
LINE
8
boundary
62
5
39
2
10
11.535584
20
224.284385
11
8.282099
21
224.397056
0
LINE
8
boundary
62
5
39
2
10
8.282099
20
224.397056
11
6.727833
21
224.569967
0
LINE
8
boundary
62
5
39
2
10
6.727833
20
224.569967
11
6.667500
21
223.578006
0
LINE
8
boundary
62
5
39
2
10
6.667500
20
223.578006
11
33.095347
21
223.352962
0
LINE
8
boundary
62
5
39
2
10
33.095347
20
223.352962
11
33.095347
21
219.106082
0
LINE
8
boundary
62
5
39
2
10
33.095347
20
219.106082
11
6.752844
21
219.106082
0
LINE
8
boundary
62
5
39
2
10
6.752844
20
219.106082
11
6.667500
21
210.023857
0
LINE
8
boundary
62
5
39
2
10
6.667500
20
210.023857
11
6.677248
21
210.022689
0
LINE
8
annotation
62
1
39
211
10
43.023912
20
217.628818
11
43.023912
21
224.830226
0
LINE
8
annotation
62
1
39
211
10
43.023912
20
224.830226
11
41.422947
21
223.228809
0
LINE
8
annotation
62
1
39
211
10
96.482988
20
269.906334
11
94.597105
21
269.906334
0
LINE
8
annotation
62
1
39
211
10
94.597105
20
269.906334
11
96.339723
21
272.711725
0
LINE
8
annotation
62
1
39
211
10
96.339723
20
272.711725
11
96.339723
21
272.711725
0
LINE
8
annotation
62
1
39
211
10
96.339723
20
272.711725
11
96.341806
21
272.714303
0
LINE
8
annotation
62
1
39
211
10
96.341806
20
272.714303
11
96.343804
21
272.716903
0
LINE
8
annotation
62
1
39
211
10
96.343804
20
272.716903
11
96.345729
21
272.719547
0
LINE
8
annotation
62
1
39
211
10
96.345729
20
272.719547
11
96.347595
21
272.722256
0
LINE
8
annotation
62
1
39
211
10
96.347595
20
272.722256
11
96.349416
21
272.725053
0
LINE
8
annotation
62
1
39
211
10
96.349416
20
272.725053
11
96.351203
21
272.727959
0
LINE
8
annotation
62
1
39
211
10
96.351203
20
272.727959
11
96.352971
21
272.730997
0
LINE
8
annotation
62
1
39
211
10
96.352971
20
272.730997
11
96.354732
21
272.734189
0
LINE
8
annotation
62
1
39
211
10
96.354732
20
272.734189
11
96.356499
21
272.737556
0
LINE
8
annotation
62
1
39
211
10
96.356499
20
272.737556
11
96.356499
21
272.737556
0
LINE
8
annotation
62
1
39
211
10
96.356499
20
272.737556
11
96.428452
21
272.892043
0
LINE
8
annotation
62
1
39
211
10
96.428452
20
272.892043
11
96.470485
21
273.052183
0
LINE
8
annotation
62
1
39
211
10
96.470485
20
273.052183
11
96.483629
21
273.214357
0
LINE
8
annotation
62
1
39
211
10
96.483629
20
273.214357
11
96.468915
21
273.374947
0
LINE
8
annotation
62
1
39
211
10
96.468915
20
273.374947
11
96.427372
21
273.530333
0
LINE
8
annotation
62
1
39
211
10
96.427372
20
273.530333
11
96.360030
21
273.676898
0
LINE
8
annotation
62
1
39
211
10
96.360030
20
273.676898
11
96.267920
21
273.811022
0
LINE
8
annotation
62
1
39
211
10
96.267920
20
273.811022
11
96.152071
21
273.929088
0
LINE
8
annotation
62
1
39
211
10
96.152071
20
273.929088
11
96.013515
21
274.027477
0
LINE
8
annotation
62
1
39
211
10
96.013515
20
274.027477
11
96.013515
21
274.027477
0
LINE
8
annotation
62
1
39
211
10
96.013515
20
274.027477
11
95.858597
21
274.098406
0
LINE
8
annotation
62
1
39
211
10
95.858597
20
274.098406
11
95.698212
21
274.139792
0
LINE
8
annotation
62
1
39
211
10
95.698212
20
274.139792
11
95.535944
21
274.152565
0
LINE
8
annotation
62
1
39
211
10
95.535944
20
274.152565
11
95.375378
21
274.137657
0
LINE
8
annotation
62
1
39
211
10
95.375378
20
274.137657
11
95.220102
21
274.095998
0
LINE
8
annotation
62
1
39
211
10
95.220102
20
274.095998
11
95.073699
21
274.028522
0
LINE
8
annotation
62
1
39
211
10
95.073699
20
274.028522
11
94.939757
21
273.936159
0
LINE
8
annotation
62
1
39
211
10
94.939757
20
273.936159
11
94.821860
21
273.819840
0
LINE
8
annotation
62
1
39
211
10
94.821860
20
273.819840
11
94.723594
21
273.680497
0
LINE
8
annotation
62
1
39
211
10
94.723594
20
273.680497
11
94.599768
21
273.442965
0
LINE
8
annotation
62
1
39
211
10
94.590894
20
320.706384
11
95.533887
21
320.706384
0
LINE
8
annotation
62
1
39
211
10
95.533887
20
320.706384
11
95.533887
21
320.706384
0
LINE
8
annotation
62
1
39
211
10
95.533887
20
320.706384
11
95.703486
21
320.721598
0
LINE
8
annotation
62
1
39
211
10
95.703486
20
320.721598
11
95.863073
21
320.765447
0
LINE
8
annotation
62
1
39
211
10
95.863073
20
320.765447
11
96.009994
21
320.835237
0
LINE
8
annotation
62
1
39
211
10
96.009994
20
320.835237
11
96.141594
21
320.928279
0
LINE
8
annotation
62
1
39
211
10
96.141594
20
320.928279
11
96.255218
21
321.041880
0
LINE
8
annotation
62
1
39
211
10
96.255218
20
321.041880
11
96.348213
21
321.173348
0
LINE
8
annotation
62
1
39
211
10
96.348213
20
321.173348
11
96.417925
21
321.319993
0
LINE
8
annotation
62
1
39
211
10
96.417925
20
321.319993
11
96.461698
21
321.479123
0
LINE
8
annotation
62
1
39
211
10
96.461698
20
321.479123
11
96.476879
21
321.648045
0
LINE
8
annotation
62
1
39
211
10
96.476879
20
321.648045
11
96.476879
21
322.120207
0
LINE
8
annotation
62
1
39
211
10
96.476879
20
322.120207
11
96.476879
21
322.120207
0
LINE
8
annotation
62
1
39
211
10
96.476879
20
322.120207
11
96.461698
21
322.289060
0
LINE
8
annotation
62
1
39
211
10
96.461698
20
322.289060
11
96.417925
21
322.448152
0
LINE
8
annotation
62
1
39
211
10
96.417925
20
322.448152
11
96.348213
21
322.594786
0
LINE
8
annotation
62
1
39
211
10
96.348213
20
322.594786
11
96.255218
21
322.726263
0
LINE
8
annotation
62
1
39
211
10
96.255218
20
322.726263
11
96.141594
21
322.839886
0
LINE
8
annotation
62
1
39
211
10
96.141594
20
322.839886
11
96.009994
21
322.932956
0
LINE
8
annotation
62
1
39
211
10
96.009994
20
322.932956
11
95.863073
21
323.002775
0
LINE
8
annotation
62
1
39
211
10
95.863073
20
323.002775
11
95.703486
21
323.046645
0
LINE
8
annotation
62
1
39
211
10
95.703486
20
323.046645
11
95.533887
21
323.061868
0
LINE
8
annotation
62
1
39
211
10
95.533887
20
323.061868
11
95.061725
21
323.061868
0
LINE
8
annotation
62
1
39
211
10
95.061725
20
323.061868
11
95.533887
21
323.061868
0
LINE
8
annotation
62
1
39
211
10
95.533887
20
323.061868
11
95.533887
21
323.061868
0
LINE
8
annotation
62
1
39
211
10
95.533887
20
323.061868
11
95.703486
21
323.077095
0
LINE
8
annotation
62
1
39
211
10
95.703486
20
323.077095
11
95.863073
21
323.120991
0
LINE
8
annotation
62
1
39
211
10
95.863073
20
323.120991
11
96.009994
21
323.190879
0
LINE
8
annotation
62
1
39
211
10
96.009994
20
323.190879
11
96.141594
21
323.284084
0
LINE
8
annotation
62
1
39
211
10
96.141594
20
323.284084
11
96.255218
21
323.397930
0
LINE
8
annotation
62
1
39
211
10
96.255218
20
323.397930
11
96.348213
21
323.529740
0
LINE
8
annotation
62
1
39
211
10
96.348213
20
323.529740
11
96.417925
21
323.676838
0
LINE
8
annotation
62
1
39
211
10
96.417925
20
323.676838
11
96.461698
21
323.836547
0
LINE
8
annotation
62
1
39
211
10
96.461698
20
323.836547
11
96.476879
21
324.006192
0
LINE
8
annotation
62
1
39
211
10
96.476879
20
324.006192
11
96.476879
21
324.006192
0
LINE
8
annotation
62
1
39
211
10
96.476879
20
324.006192
11
96.461698
21
324.175045
0
LINE
8
annotation
62
1
39
211
10
96.461698
20
324.175045
11
96.417925
21
324.334137
0
LINE
8
annotation
62
1
39
211
10
96.417925
20
324.334137
11
96.348213
21
324.480771
0
LINE
8
annotation
62
1
39
211
10
96.348213
20
324.480771
11
96.255218
21
324.612248
0
LINE
8
annotation
62
1
39
211
10
96.255218
20
324.612248
11
96.141594
21
324.725871
0
LINE
8
annotation
62
1
39
211
10
96.141594
20
324.725871
11
96.009994
21
324.818941
0
LINE
8
annotation
62
1
39
211
10
96.009994
20
324.818941
11
95.863073
21
324.888760
0
LINE
8
annotation
62
1
39
211
10
95.863073
20
324.888760
11
95.703486
21
324.932630
0
LINE
8
annotation
62
1
39
211
10
95.703486
20
324.932630
11
95.533887
21
324.947853
0
LINE
8
annotation
62
1
39
211
10
95.533887
20
324.947853
11
94.590894
21
324.947853
0
LINE
8
annotation
62
1
39
211
10
44.207943
20
371.629774
11
40.209369
21
371.629774
0
LINE
8
annotation
62
1
39
211
10
40.209369
20
371.629774
11
41.806270
21
377.230217
0
LINE
8
annotation
62
1
39
211
10
43.009364
20
370.028809
11
43.009364
21
373.227126
0
LINE
8
annotation
62
1
39
211
10
93.616099
20
297.628900
11
92.562726
21
296.105293
0
LINE
8
annotation
62
1
39
211
10
92.562726
20
296.105293
11
91.509156
21
297.628900
0
LINE
8
annotation
62
1
39
211
10
92.562726
20
296.227903
11
92.562726
21
294.470169
0
LINE
8
annotation
62
1
39
211
10
96.527977
20
296.049534
11
94.800945
21
296.049534
0
LINE
8
annotation
62
1
39
211
10
98.765700
20
297.628801
11
98.765700
21
297.628801
0
LINE
8
annotation
62
1
39
211
10
98.765700
20
297.628801
11
98.564769
21
297.553464
0
LINE
8
annotation
62
1
39
211
10
98.564769
20
297.553464
11
98.380389
21
297.451957
0
LINE
8
annotation
62
1
39
211
10
98.380389
20
297.451957
11
98.214452
21
297.326822
0
LINE
8
annotation
62
1
39
211
10
98.214452
20
297.326822
11
98.068851
21
297.180603
0
LINE
8
annotation
62
1
39
211
10
98.068851
20
297.180603
11
97.945479
21
297.015843
0
LINE
8
annotation
62
1
39
211
10
97.945479
20
297.015843
11
97.846227
21
296.835085
0
LINE
8
annotation
62
1
39
211
10
97.846227
20
296.835085
11
97.772990
21
296.640873
0
LINE
8
annotation
62
1
39
211
10
97.772990
20
296.640873
11
97.727660
21
296.435749
0
LINE
8
annotation
62
1
39
211
10
97.727660
20
296.435749
11
97.712129
21
296.222257
0
LINE
8
annotation
62
1
39
211
10
97.712129
20
296.222257
11
97.712129
21
295.172450
0
LINE
8
annotation
62
1
39
211
10
97.712129
20
295.172450
11
97.712129
21
295.172450
0
LINE
8
annotation
62
1
39
211
10
97.712129
20
295.172450
11
97.723453
21
295.046276
0
LINE
8
annotation
62
1
39
211
10
97.723453
20
295.046276
11
97.756093
21
294.927504
0
LINE
8
annotation
62
1
39
211
10
97.756093
20
294.927504
11
97.808050
21
294.818120
0
LINE
8
annotation
62
1
39
211
10
97.808050
20
294.818120
11
97.877325
21
294.720112
0
LINE
8
annotation
62
1
39
211
10
97.877325
20
294.720112
11
97.961920
21
294.635468
0
LINE
8
annotation
62
1
39
211
10
97.961920
20
294.635468
11
98.059835
21
294.566174
0
LINE
8
annotation
62
1
39
211
10
98.059835
20
294.566174
11
98.169073
21
294.514218
0
LINE
8
annotation
62
1
39
211
10
98.169073
20
294.514218
11
98.287634
21
294.481587
0
LINE
8
annotation
62
1
39
211
10
98.287634
20
294.481587
11
98.413519
21
294.470268
0
LINE
8
annotation
62
1
39
211
10
98.413519
20
294.470268
11
98.413519
21
294.470268
0
LINE
8
annotation
62
1
39
211
10
98.413519
20
294.470268
11
98.539666
21
294.481587
0
LINE
8
annotation
62
1
39
211
10
98.539666
20
294.481587
11
98.658366
21
294.514218
0
LINE
8
annotation
62
1
39
211
10
98.658366
20
294.514218
11
98.767644
21
294.566174
0
LINE
8
annotation
62
1
39
211
10
98.767644
20
294.566174
11
98.865527
21
294.635468
0
LINE
8
annotation
62
1
39
211
10
98.865527
20
294.635468
11
98.950040
21
294.720112
0
LINE
8
annotation
62
1
39
211
10
98.950040
20
294.720112
11
99.019209
21
294.818120
0
LINE
8
annotation
62
1
39
211
10
99.019209
20
294.818120
11
99.071060
21
294.927504
0
LINE
8
annotation
62
1
39
211
10
99.071060
20
294.927504
11
99.103618
21
295.046276
0
LINE
8
annotation
62
1
39
211
10
99.103618
20
295.046276
11
99.114909
21
295.172450
0
LINE
8
annotation
62
1
39
211
10
99.114909
20
295.172450
11
99.114909
21
295.521858
0
LINE
8
annotation
62
1
39
211
10
99.114909
20
295.521858
11
99.114909
21
295.521858
0
LINE
8
annotation
62
1
39
211
10
99.114909
20
295.521858
11
99.103618
21
295.647971
0
LINE
8
annotation
62
1
39
211
10
99.103618
20
295.647971
11
99.071060
21
295.766579
0
LINE
8
annotation
62
1
39
211
10
99.071060
20
295.766579
11
99.019209
21
295.875726
0
LINE
8
annotation
62
1
39
211
10
99.019209
20
295.875726
11
98.950040
21
295.973452
0
LINE
8
annotation
62
1
39
211
10
98.950040
20
295.973452
11
98.865527
21
296.057801
0
LINE
8
annotation
62
1
39
211
10
98.865527
20
296.057801
11
98.767644
21
296.126814
0
LINE
8
annotation
62
1
39
211
10
98.767644
20
296.126814
11
98.658366
21
296.178533
0
LINE
8
annotation
62
1
39
211
10
98.658366
20
296.178533
11
98.539666
21
296.211000
0
LINE
8
annotation
62
1
39
211
10
98.539666
20
296.211000
11
98.413519
21
296.222257
0
LINE
8
annotation
62
1
39
211
10
98.413519
20
296.222257
11
97.712129
21
296.222257
0
LINE
8
annotation
62
1
39
211
10
97.624282
20
294.075451
11
99.203549
21
294.075451
0
LINE
8
boundary
62
5
39
2
10
6.667500
20
443.917976
11
6.667500
21
433.894070
0
LINE
8
boundary
62
5
39
2
10
6.667500
20
433.894070
11
42.958696
21
433.669026
0
LINE
8
boundary
62
5
39
2
10
42.958696
20
433.669026
11
42.958696
21
431.061037
0
LINE
8
boundary
62
5
39
2
10
42.958696
20
431.061037
11
43.666354
21
430.907867
0
LINE
8
boundary
62
5
39
2
10
43.666354
20
430.907867
11
46.564746
21
430.280495
0
LINE
8
boundary
62
5
39
2
10
46.564746
20
430.280495
11
48.525119
21
429.752243
0
LINE
8
boundary
62
5
39
2
10
48.525119
20
429.752243
11
49.796238
21
429.409723
0
LINE
8
boundary
62
5
39
2
10
49.796238
20
429.409723
11
53.290756
21
428.180637
0
LINE
8
boundary
62
5
39
2
10
53.290756
20
428.180637
11
57.510850
21
426.696352
0
LINE
8
boundary
62
5
39
2
10
57.510850
20
426.696352
11
58.081079
21
426.444545
0
LINE
8
boundary
62
5
39
2
10
58.081079
20
426.444545
11
59.063449
21
426.010741
0
LINE
8
boundary
62
5
39
2
10
59.063449
20
426.010741
11
62.692327
21
424.204460
0
LINE
8
boundary
62
5
39
2
10
62.692327
20
424.204460
11
64.787353
21
423.161660
0
LINE
8
boundary
62
5
39
2
10
64.787353
20
423.161660
11
67.223091
21
421.696016
0
LINE
8
boundary
62
5
39
2
10
67.223091
20
421.696016
11
71.671003
21
419.019578
0
LINE
8
boundary
62
5
39
2
10
71.671003
20
419.019578
11
75.895092
21
415.717930
0
LINE
8
boundary
62
5
39
2
10
75.895092
20
415.717930
11
77.885368
21
414.158466
0
LINE
8
boundary
62
5
39
2
10
77.885368
20
414.158466
11
79.965341
21
412.225647
0
LINE
8
boundary
62
5
39
2
10
79.965341
20
412.225647
11
83.603534
21
408.844875
0
LINE
8
boundary
62
5
39
2
10
83.603534
20
408.844875
11
84.696469
21
407.635856
0
LINE
8
boundary
62
5
39
2
10
84.696469
20
407.635856
11
87.519762
21
404.300402
0
LINE
8
boundary
62
5
39
2
10
87.519762
20
404.300402
11
88.600766
21
403.023293
0
LINE
8
boundary
62
5
39
2
10
88.600766
20
403.023293
11
90.882197
21
399.795880
0
LINE
8
boundary
62
5
39
2
10
90.882197
20
399.795880
11
92.969039
21
396.843751
0
LINE
8
boundary
62
5
39
2
10
92.969039
20
396.843751
11
94.021808
21
395.029404
0
LINE
8
boundary
62
5
39
2
10
94.021808
20
395.029404
11
96.721545
21
390.376671
0
LINE
8
boundary
62
5
39
2
10
96.721545
20
390.376671
11
97.672736
21
388.323682
0
LINE
8
boundary
62
5
39
2
10
97.672736
20
388.323682
11
97.672736
21
390.545315
0
LINE
8
boundary
62
5
39
2
10
97.672736
20
390.545315
11
97.672736
21
391.208252
0
LINE
8
boundary
62
5
39
2
10
97.672736
20
391.208252
11
97.672736
21
397.855387
0
LINE
8
boundary
62
5
39
2
10
97.672736
20
397.855387
11
97.672736
21
401.352696
0
LINE
8
boundary
62
5
39
2
10
97.672736
20
401.352696
11
97.672736
21
405.329185
0
LINE
8
boundary
62
5
39
2
10
97.672736
20
405.329185
11
97.672736
21
412.552661
0
LINE
8
boundary
62
5
39
2
10
97.672736
20
412.552661
11
97.672736
21
413.840187
0
LINE
8
boundary
62
5
39
2
10
97.672736
20
413.840187
11
92.686036
21
419.268248
0
LINE
8
boundary
62
5
39
2
10
92.686036
20
419.268248
11
88.748740
21
422.931869
0
LINE
8
boundary
62
5
39
2
10
88.748740
20
422.931869
11
86.564473
21
424.964304
0
LINE
8
boundary
62
5
39
2
10
86.564473
20
424.964304
11
83.805581
21
427.164577
0
LINE
8
boundary
62
5
39
2
10
83.805581
20
427.164577
11
79.818156
21
430.120420
0
LINE
8
boundary
62
5
39
2
10
79.818156
20
430.120420
11
75.381578
21
432.916925
0
LINE
8
boundary
62
5
39
2
10
75.381578
20
432.916925
11
72.543717
21
434.705715
0
LINE
8
boundary
62
5
39
2
10
72.543717
20
434.705715
11
70.014033
21
436.052210
0
LINE
8
boundary
62
5
39
2
10
70.014033
20
436.052210
11
64.747641
21
438.590521
0
LINE
8
boundary
62
5
39
2
10
64.747641
20
438.590521
11
56.931717
21
441.686895
0
LINE
8
boundary
62
5
39
2
10
56.931717
20
441.686895
11
56.373277
21
441.890546
0
LINE
8
boundary
62
5
39
2
10
56.373277
20
441.890546
11
48.048593
21
444.139701
0
LINE
8
boundary
62
5
39
2
10
48.048593
20
444.139701
11
42.957632
21
445.148824
0
LINE
8
boundary
62
5
39
2
10
42.957632
20
445.148824
11
39.337688
21
445.695113
0
LINE
8
boundary
62
5
39
2
10
39.337688
20
445.695113
11
32.029278
21
446.307970
0
LINE
8
boundary
62
5
39
2
10
32.029278
20
446.307970
11
30.553069
21
446.431757
0
LINE
8
boundary
62
5
39
2
10
30.553069
20
446.431757
11
29.840296
21
446.445301
0
LINE
8
boundary
62
5
39
2
10
29.840296
20
446.445301
11
21.779975
21
446.216970
0
LINE
8
boundary
62
5
39
2
10
21.779975
20
446.216970
11
17.092735
21
445.790041
0
LINE
8
boundary
62
5
39
2
10
17.092735
20
445.790041
11
13.201339
21
445.242429
0
LINE
8
boundary
62
5
39
2
10
13.201339
20
445.242429
11
6.667500
21
443.917976
0
LINE
8
annotation
62
1
39
211
10
44.277523
20
431.328921
11
43.844291
21
431.328921
0
LINE
8
annotation
62
1
39
211
10
43.844291
20
431.328921
11
44.017310
21
431.935709
0
LINE
8
annotation
62
1
39
211
10
44.147661
20
431.155462
11
44.147661
21
431.501989
0
LINE
8
annotation
62
1
39
211
10
29.070536
20
438.932239
11
27.977816
21
437.351719
0
LINE
8
annotation
62
1
39
211
10
27.977816
20
437.351719
11
26.884891
21
438.932239
0
LINE
8
annotation
62
1
39
211
10
27.977816
20
437.478909
11
27.977816
21
435.655517
0
LINE
8
annotation
62
1
39
211
10
32.091184
20
437.293878
11
30.299641
21
437.293878
0
LINE
8
annotation
62
1
39
211
10
34.774995
20
435.655593
11
33.319816
21
435.655593
0
LINE
8
annotation
62
1
39
211
10
33.319816
20
435.655593
11
34.664449
21
437.820280
0
LINE
8
annotation
62
1
39
211
10
34.664449
20
437.820280
11
34.664449
21
437.820280
0
LINE
8
annotation
62
1
39
211
10
34.664449
20
437.820280
11
34.666057
21
437.822269
0
LINE
8
annotation
62
1
39
211
10
34.666057
20
437.822269
11
34.667598
21
437.824275
0
LINE
8
annotation
62
1
39
211
10
34.667598
20
437.824275
11
34.669084
21
437.826315
0
LINE
8
annotation
62
1
39
211
10
34.669084
20
437.826315
11
34.670524
21
437.828406
0
LINE
8
annotation
62
1
39
211
10
34.670524
20
437.828406
11
34.671929
21
437.830564
0
LINE
8
annotation
62
1
39
211
10
34.671929
20
437.830564
11
34.673308
21
437.832807
0
LINE
8
annotation
62
1
39
211
10
34.673308
20
437.832807
11
34.674672
21
437.835151
0
LINE
8
annotation
62
1
39
211
10
34.674672
20
437.835151
11
34.676030
21
437.837613
0
LINE
8
annotation
62
1
39
211
10
34.676030
20
437.837613
11
34.677394
21
437.840211
0
LINE
8
annotation
62
1
39
211
10
34.677394
20
437.840211
11
34.677394
21
437.840211
0
LINE
8
annotation
62
1
39
211
10
34.677394
20
437.840211
11
34.732914
21
437.959417
0
LINE
8
annotation
62
1
39
211
10
34.732914
20
437.959417
11
34.765348
21
438.082983
0
LINE
8
annotation
62
1
39
211
10
34.765348
20
438.082983
11
34.775490
21
438.208119
0
LINE
8
annotation
62
1
39
211
10
34.775490
20
438.208119
11
34.764136
21
438.332033
0
LINE
8
annotation
62
1
39
211
10
34.764136
20
438.332033
11
34.732081
21
438.451931
0
LINE
8
annotation
62
1
39
211
10
34.732081
20
438.451931
11
34.680119
21
438.565023
0
LINE
8
annotation
62
1
39
211
10
34.680119
20
438.565023
11
34.609045
21
438.668516
0
LINE
8
annotation
62
1
39
211
10
34.609045
20
438.668516
11
34.519654
21
438.759617
0
LINE
8
annotation
62
1
39
211
10
34.519654
20
438.759617
11
34.412742
21
438.835536
0
LINE
8
annotation
62
1
39
211
10
34.412742
20
438.835536
11
34.412742
21
438.835536
0
LINE
8
annotation
62
1
39
211
10
34.412742
20
438.835536
11
34.293205
21
438.890266
0
LINE
8
annotation
62
1
39
211
10
34.293205
20
438.890266
11
34.169449
21
438.922200
0
LINE
8
annotation
62
1
39
211
10
34.169449
20
438.922200
11
34.044240
21
438.932056
0
LINE
8
annotation
62
1
39
211
10
34.044240
20
438.932056
11
33.920345
21
438.920553
0
LINE
8
annotation
62
1
39
211
10
33.920345
20
438.920553
11
33.800531
21
438.888408
0
LINE
8
annotation
62
1
39
211
10
33.800531
20
438.888408
11
33.687564
21
438.836342
0
LINE
8
annotation
62
1
39
211
10
33.687564
20
438.836342
11
33.584212
21
438.765073
0
LINE
8
annotation
62
1
39
211
10
33.584212
20
438.765073
11
33.493241
21
438.675320
0
LINE
8
annotation
62
1
39
211
10
33.493241
20
438.675320
11
33.417417
21
438.567801
0
LINE
8
annotation
62
1
39
211
10
33.417417
20
438.567801
11
33.321871
21
438.384517
0
LINE
8
annotation
62
1
39
211
10
37.795787
20
437.293878
11
36.004244
21
437.293878
0
LINE
8
annotation
62
1
39
211
10
40.479599
20
435.655593
11
39.024420
21
435.655593
0
LINE
8
annotation
62
1
39
211
10
39.024420
20
435.655593
11
40.369053
21
437.820280
0
LINE
8
annotation
62
1
39
211
10
40.369053
20
437.820280
11
40.369053
21
437.820280
0
LINE
8
annotation
62
1
39
211
10
40.369053
20
437.820280
11
40.370661
21
437.822269
0
LINE
8
annotation
62
1
39
211
10
40.370661
20
437.822269
11
40.372202
21
437.824275
0
LINE
8
annotation
62
1
39
211
10
40.372202
20
437.824275
11
40.373688
21
437.826315
0
LINE
8
annotation
62
1
39
211
10
40.373688
20
437.826315
11
40.375128
21
437.828406
0
LINE
8
annotation
62
1
39
211
10
40.375128
20
437.828406
11
40.376532
21
437.830564
0
LINE
8
annotation
62
1
39
211
10
40.376532
20
437.830564
11
40.377912
21
437.832807
0
LINE
8
annotation
62
1
39
211
10
40.377912
20
437.832807
11
40.379276
21
437.835151
0
LINE
8
annotation
62
1
39
211
10
40.379276
20
437.835151
11
40.380634
21
437.837613
0
LINE
8
annotation
62
1
39
211
10
40.380634
20
437.837613
11
40.381998
21
437.840211
0
LINE
8
annotation
62
1
39
211
10
40.381998
20
437.840211
11
40.381998
21
437.840211
0
LINE
8
annotation
62
1
39
211
10
40.381998
20
437.840211
11
40.437518
21
437.959417
0
LINE
8
annotation
62
1
39
211
10
40.437518
20
437.959417
11
40.469951
21
438.082983
0
LINE
8
annotation
62
1
39
211
10
40.469951
20
438.082983
11
40.480094
21
438.208119
0
LINE
8
annotation
62
1
39
211
10
40.480094
20
438.208119
11
40.468740
21
438.332033
0
LINE
8
annotation
62
1
39
211
10
40.468740
20
438.332033
11
40.436685
21
438.451931
0
LINE
8
annotation
62
1
39
211
10
40.436685
20
438.451931
11
40.384723
21
438.565023
0
LINE
8
annotation
62
1
39
211
10
40.384723
20
438.565023
11
40.313649
21
438.668516
0
LINE
8
annotation
62
1
39
211
10
40.313649
20
438.668516
11
40.224258
21
438.759617
0
LINE
8
annotation
62
1
39
211
10
40.224258
20
438.759617
11
40.117346
21
438.835536
0
LINE
8
annotation
62
1
39
211
10
40.117346
20
438.835536
11
40.117346
21
438.835536
0
LINE
8
annotation
62
1
39
211
10
40.117346
20
438.835536
11
39.997809
21
438.890266
0
LINE
8
annotation
62
1
39
211
10
39.997809
20
438.890266
11
39.874053
21
438.922200
0
LINE
8
annotation
62
1
39
211
10
39.874053
20
438.922200
11
39.748844
21
438.932056
0
LINE
8
annotation
62
1
39
211
10
39.748844
20
438.932056
11
39.624949
21
438.920553
0
LINE
8
annotation
62
1
39
211
10
39.624949
20
438.920553
11
39.505135
21
438.888408
0
LINE
8
annotation
62
1
39
211
10
39.505135
20
438.888408
11
39.392168
21
438.836342
0
LINE
8
annotation
62
1
39
211
10
39.392168
20
438.836342
11
39.288816
21
438.765073
0
LINE
8
annotation
62
1
39
211
10
39.288816
20
438.765073
11
39.197845
21
438.675320
0
LINE
8
annotation
62
1
39
211
10
39.197845
20
438.675320
11
39.122021
21
438.567801
0
LINE
8
annotation
62
1
39
211
10
39.122021
20
438.567801
11
39.026475
21
438.384517
0
LINE
8
boundary
62
5
39
2
10
6.667500
20
466.434525
11
6.667500
21
455.456810
0
LINE
8
boundary
62
5
39
2
10
6.667500
20
455.456810
11
10.266717
21
454.173273
0
LINE
8
boundary
62
5
39
2
10
10.266717
20
454.173273
11
11.943918
21
453.575156
0
LINE
8
boundary
62
5
39
2
10
11.943918
20
453.575156
11
21.063145
21
451.364710
0
LINE
8
boundary
62
5
39
2
10
21.063145
20
451.364710
11
23.769331
21
450.889273
0
LINE
8
boundary
62
5
39
2
10
23.769331
20
450.889273
11
30.446897
21
450.034104
0
LINE
8
boundary
62
5
39
2
10
30.446897
20
450.034104
11
35.594555
21
449.695660
0
LINE
8
boundary
62
5
39
2
10
35.594555
20
449.695660
11
40.044052
21
449.620301
0
LINE
8
boundary
62
5
39
2
10
40.044052
20
449.620301
11
47.425830
21
449.946147
0
LINE
8
boundary
62
5
39
2
10
47.425830
20
449.946147
11
49.802244
21
450.173097
0
LINE
8
boundary
62
5
39
2
10
49.802244
20
450.173097
11
58.912797
21
451.598299
0
LINE
8
boundary
62
5
39
2
10
58.912797
20
451.598299
11
59.668308
21
451.758381
0
LINE
8
boundary
62
5
39
2
10
59.668308
20
451.758381
11
67.656693
21
453.945287
0
LINE
8
boundary
62
5
39
2
10
67.656693
20
453.945287
11
69.588459
21
454.474128
0
LINE
8
boundary
62
5
39
2
10
69.588459
20
454.474128
11
69.588459
21
455.455707
0
LINE
8
boundary
62
5
39
2
10
69.588459
20
455.455707
11
69.588459
21
465.889145
0
LINE
8
boundary
62
5
39
2
10
69.588459
20
465.889145
11
69.588459
21
468.472710
0
LINE
8
boundary
62
5
39
2
10
69.588459
20
468.472710
11
68.446829
21
468.040026
0
LINE
8
boundary
62
5
39
2
10
68.446829
20
468.040026
11
68.446829
21
466.659569
0
LINE
8
boundary
62
5
39
2
10
68.446829
20
466.659569
11
64.255908
21
466.659569
0
LINE
8
boundary
62
5
39
2
10
64.255908
20
466.659569
11
63.668430
21
466.477339
0
LINE
8
boundary
62
5
39
2
10
63.668430
20
466.477339
11
60.305623
21
465.434232
0
LINE
8
boundary
62
5
39
2
10
60.305623
20
465.434232
11
58.847458
21
465.080249
0
LINE
8
boundary
62
5
39
2
10
58.847458
20
465.080249
11
57.232958
21
464.688316
0
LINE
8
boundary
62
5
39
2
10
57.232958
20
464.688316
11
53.927104
21
464.087116
0
LINE
8
boundary
62
5
39
2
10
53.927104
20
464.087116
11
51.080007
21
463.569346
0
LINE
8
boundary
62
5
39
2
10
51.080007
20
463.569346
11
48.978649
21
463.326136
0
LINE
8
boundary
62
5
39
2
10
48.978649
20
463.326136
11
46.509038
21
463.040304
0
LINE
8
boundary
62
5
39
2
10
46.509038
20
463.040304
11
44.003883
21
462.889319
0
LINE
8
boundary
62
5
39
2
10
44.003883
20
462.889319
11
41.968521
21
462.766646
0
LINE
8
boundary
62
5
39
2
10
41.968521
20
462.766646
11
39.010936
21
462.784097
0
LINE
8
boundary
62
5
39
2
10
39.010936
20
462.784097
11
35.402996
21
462.805384
0
LINE
8
boundary
62
5
39
2
10
35.402996
20
462.805384
11
34.070796
21
462.882567
0
LINE
8
boundary
62
5
39
2
10
34.070796
20
462.882567
11
33.027319
21
462.943022
0
LINE
8
boundary
62
5
39
2
10
33.027319
20
462.943022
11
29.121542
21
463.433256
0
LINE
8
boundary
62
5
39
2
10
29.121542
20
463.433256
11
24.311533
21
464.036976
0
LINE
8
boundary
62
5
39
2
10
24.311533
20
464.036976
11
19.486070
21
465.224224
0
LINE
8
boundary
62
5
39
2
10
19.486070
20
465.224224
11
15.874870
21
466.113537
0
LINE
8
boundary
62
5
39
2
10
15.874870
20
466.113537
11
14.832320
21
466.449260
0
LINE
8
boundary
62
5
39
2
10
14.832320
20
466.449260
11
13.541457
21
466.864943
0
LINE
8
boundary
62
5
39
2
10
13.541457
20
466.864943
11
10.271783
21
468.079320
0
LINE
8
boundary
62
5
39
2
10
10.271783
20
468.079320
11
8.628281
21
468.689729
0
LINE
8
boundary
62
5
39
2
10
8.628281
20
468.689729
11
8.628281
21
466.659569
0
LINE
8
boundary
62
5
39
2
10
8.628281
20
466.659569
11
6.752844
21
466.659569
0
LINE
8
boundary
62
5
39
2
10
6.752844
20
466.659569
11
6.667500
21
466.434525
0
LINE
8
annotation
62
1
39
211
10
69.520745
20
466.634798
11
69.520745
21
467.330516
0
LINE
8
annotation
62
1
39
211
10
69.520745
20
467.330516
11
69.366078
21
467.175806
0
LINE
8
annotation
62
1
39
211
10
10.641262
20
466.289823
11
10.641262
21
467.675492
0
LINE
8
annotation
62
1
39
211
10
10.641262
20
467.675492
11
10.333210
21
467.367353
0
LINE
8
annotation
62
1
39
211
10
33.236513
20
459.863328
11
31.725502
21
457.677788
0
LINE
8
annotation
62
1
39
211
10
31.725502
20
457.677788
11
30.214206
21
459.863328
0
LINE
8
annotation
62
1
39
211
10
31.725502
20
457.853665
11
31.725502
21
455.332281
0
LINE
8
annotation
62
1
39
211
10
37.413461
20
457.597805
11
34.936118
21
457.597805
0
LINE
8
annotation
62
1
39
211
10
39.112070
20
455.332423
11
40.118180
21
455.332423
0
LINE
8
annotation
62
1
39
211
10
40.118180
20
455.332423
11
40.118180
21
455.332423
0
LINE
8
annotation
62
1
39
211
10
40.118180
20
455.332423
11
40.298757
21
455.348660
0
LINE
8
annotation
62
1
39
211
10
40.298757
20
455.348660
11
40.468827
21
455.395467
0
LINE
8
annotation
62
1
39
211
10
40.468827
20
455.395467
11
40.625523
21
455.469996
0
LINE
8
annotation
62
1
39
211
10
40.625523
20
455.469996
11
40.765978
21
455.569395
0
LINE
8
annotation
62
1
39
211
10
40.765978
20
455.569395
11
40.887325
21
455.690813
0
LINE
8
annotation
62
1
39
211
10
40.887325
20
455.690813
11
40.986697
21
455.831401
0
LINE
8
annotation
62
1
39
211
10
40.986697
20
455.831401
11
41.061226
21
455.988306
0
LINE
8
annotation
62
1
39
211
10
41.061226
20
455.988306
11
41.108046
21
456.158680
0
LINE
8
annotation
62
1
39
211
10
41.108046
20
456.158680
11
41.124290
21
456.339670
0
LINE
8
annotation
62
1
39
211
10
41.124290
20
456.339670
11
41.124290
21
456.840878
0
LINE
8
annotation
62
1
39
211
10
41.124290
20
456.840878
11
41.124290
21
456.840878
0
LINE
8
annotation
62
1
39
211
10
41.124290
20
456.840878
11
41.108056
21
457.021781
0
LINE
8
annotation
62
1
39
211
10
41.108056
20
457.021781
11
41.061259
21
457.191919
0
LINE
8
annotation
62
1
39
211
10
41.061259
20
457.191919
11
40.986760
21
457.348484
0
LINE
8
annotation
62
1
39
211
10
40.986760
20
457.348484
11
40.887419
21
457.488668
0
LINE
8
annotation
62
1
39
211
10
40.887419
20
457.488668
11
40.766095
21
457.609662
0
LINE
8
annotation
62
1
39
211
10
40.766095
20
457.609662
11
40.625650
21
457.708658
0
LINE
8
annotation
62
1
39
211
10
40.625650
20
457.708658
11
40.468942
21
457.782846
0
LINE
8
annotation
62
1
39
211
10
40.468942
20
457.782846
11
40.298832
21
457.829419
0
LINE
8
annotation
62
1
39
211
10
40.298832
20
457.829419
11
40.118180
21
457.845567
0
LINE
8
annotation
62
1
39
211
10
40.118180
20
457.845567
11
39.112070
21
457.845567
0
LINE
8
annotation
62
1
39
211
10
39.112070
20
457.845567
11
39.112070
21
459.863186
0
LINE
8
annotation
62
1
39
211
10
39.112070
20
459.863186
11
41.124290
21
459.863186
0
LINE
8
annotation
62
1
39
211
10
45.301095
20
457.597805
11
42.823752
21
457.597805
0
LINE
8
annotation
62
1
39
211
10
48.007093
20
455.332423
11
48.007093
21
459.863186
0
LINE
8
annotation
62
1
39
211
10
48.007093
20
459.863186
11
46.999847
21
458.855655
0
LINE
8
boundary
62
5
39
2
10
104.878991
20
224.414116
11
104.878991
21
221.843360
0
LINE
8
boundary
62
5
39
2
10
104.878991
20
221.843360
11
122.607734
21
221.618316
0
LINE
8
boundary
62
5
39
2
10
122.607734
20
221.618316
11
122.607734
21
217.371436
0
LINE
8
boundary
62
5
39
2
10
122.607734
20
217.371436
11
104.964335
21
217.371436
0
LINE
8
boundary
62
5
39
2
10
104.964335
20
217.371436
11
104.878991
21
209.692169
0
LINE
8
boundary
62
5
39
2
10
104.878991
20
209.692169
11
108.590643
21
210.044439
0
LINE
8
boundary
62
5
39
2
10
108.590643
20
210.044439
11
111.673868
21
210.574738
0
LINE
8
boundary
62
5
39
2
10
111.673868
20
210.574738
11
115.034901
21
211.152819
0
LINE
8
boundary
62
5
39
2
10
115.034901
20
211.152819
11
118.069191
21
211.914777
0
LINE
8
boundary
62
5
39
2
10
118.069191
20
211.914777
11
121.376877
21
212.745386
0
LINE
8
boundary
62
5
39
2
10
121.376877
20
212.745386
11
124.344854
21
213.734638
0
LINE
8
boundary
62
5
39
2
10
124.344854
20
213.734638
11
127.580256
21
214.813030
0
LINE
8
boundary
62
5
39
2
10
127.580256
20
214.813030
11
130.464916
21
216.023919
0
LINE
8
boundary
62
5
39
2
10
130.464916
20
216.023919
11
133.609491
21
217.343911
0
LINE
8
boundary
62
5
39
2
10
133.609491
20
217.343911
11
136.394316
21
218.769492
0
LINE
8
boundary
62
5
39
2
10
136.394316
20
218.769492
11
139.430055
21
220.323521
0
LINE
8
boundary
62
5
39
2
10
139.430055
20
220.323521
11
142.099086
21
221.955634
0
LINE
8
boundary
62
5
39
2
10
142.099086
20
221.955634
11
145.008601
21
223.734801
0
LINE
8
boundary
62
5
39
2
10
145.008601
20
223.734801
11
147.546553
21
225.564097
0
LINE
8
boundary
62
5
39
2
10
147.546553
20
225.564097
11
150.313181
21
227.558214
0
LINE
8
boundary
62
5
39
2
10
150.313181
20
227.558214
11
152.705508
21
229.574210
0
LINE
8
boundary
62
5
39
2
10
152.705508
20
229.574210
11
155.313399
21
231.771848
0
LINE
8
boundary
62
5
39
2
10
155.313399
20
231.771848
11
157.546419
21
233.962998
0
LINE
8
boundary
62
5
39
2
10
157.546419
20
233.962998
11
159.980635
21
236.351579
0
LINE
8
boundary
62
5
39
2
10
159.980635
20
236.351579
11
162.041543
21
238.705334
0
LINE
8
boundary
62
5
39
2
10
162.041543
20
238.705334
11
164.288139
21
241.271168
0
LINE
8
boundary
62
5
39
2
10
164.288139
20
241.271168
11
166.165136
21
243.774048
0
LINE
8
boundary
62
5
39
2
10
166.165136
20
243.774048
11
168.211252
21
246.502442
0
LINE
8
boundary
62
5
39
2
10
168.211252
20
246.502442
11
169.893581
21
249.140108
0
LINE
8
boundary
62
5
39
2
10
169.893581
20
249.140108
11
171.727492
21
252.015433
0
LINE
8
boundary
62
5
39
2
10
171.727492
20
252.015433
11
173.205524
21
254.772777
0
LINE
8
boundary
62
5
39
2
10
173.205524
20
254.772777
11
174.816718
21
257.778564
0
LINE
8
boundary
62
5
39
2
10
174.816718
20
257.778564
11
176.081968
21
260.639794
0
LINE
8
boundary
62
5
39
2
10
176.081968
20
260.639794
11
177.461236
21
263.758828
0
LINE
8
boundary
62
5
39
2
10
177.461236
20
263.758828
11
178.506483
21
266.707549
0
LINE
8
boundary
62
5
39
2
10
178.506483
20
266.707549
11
179.645907
21
269.921959
0
LINE
8
boundary
62
5
39
2
10
179.645907
20
269.921959
11
180.465149
21
272.941292
0
LINE
8
boundary
62
5
39
2
10
180.465149
20
272.941292
11
181.358206
21
276.232670
0
LINE
8
boundary
62
5
39
2
10
181.358206
20
276.232670
11
181.946755
21
279.305311
0
LINE
8
boundary
62
5
39
2
10
181.946755
20
279.305311
11
182.588340
21
282.654805
0
LINE
8
boundary
62
5
39
2
10
182.588340
20
282.654805
11
182.942825
21
285.763157
0
LINE
8
boundary
62
5
39
2
10
182.942825
20
285.763157
11
183.329238
21
289.151576
0
LINE
8
boundary
62
5
39
2
10
183.329238
20
289.151576
11
183.447619
21
292.277832
0
LINE
8
boundary
62
5
39
2
10
183.447619
20
292.277832
11
183.576667
21
295.685769
0
LINE
8
boundary
62
5
39
2
10
183.576667
20
295.685769
11
183.458286
21
298.812027
0
LINE
8
boundary
62
5
39
2
10
183.458286
20
298.812027
11
183.329238
21
302.219968
0
LINE
8
boundary
62
5
39
2
10
183.329238
20
302.219968
11
182.974753
21
305.328320
0
LINE
8
boundary
62
5
39
2
10
182.974753
20
305.328320
11
182.588340
21
308.716742
0
LINE
8
boundary
62
5
39
2
10
182.588340
20
308.716742
11
181.999791
21
311.789384
0
LINE
8
boundary
62
5
39
2
10
181.999791
20
311.789384
11
181.358206
21
315.138881
0
LINE
8
boundary
62
5
39
2
10
181.358206
20
315.138881
11
180.538964
21
318.158214
0
LINE
8
boundary
62
5
39
2
10
180.538964
20
318.158214
11
179.645908
21
321.449595
0
LINE
8
boundary
62
5
39
2
10
179.645908
20
321.449595
11
178.600659
21
324.398325
0
LINE
8
boundary
62
5
39
2
10
178.600659
20
324.398325
11
177.461235
21
327.612725
0
LINE
8
boundary
62
5
39
2
10
177.461235
20
327.612725
11
176.195985
21
330.473949
0
LINE
8
boundary
62
5
39
2
10
176.195985
20
330.473949
11
174.816718
21
333.592983
0
LINE
8
boundary
62
5
39
2
10
174.816718
20
333.592983
11
173.338687
21
336.350326
0
LINE
8
boundary
62
5
39
2
10
173.338687
20
336.350326
11
171.727491
21
339.356118
0
LINE
8
boundary
62
5
39
2
10
171.727491
20
339.356118
11
170.045162
21
341.993780
0
LINE
8
boundary
62
5
39
2
10
170.045162
20
341.993780
11
168.211252
21
344.869109
0
LINE
8
boundary
62
5
39
2
10
168.211252
20
344.869109
11
166.334255
21
347.371991
0
LINE
8
boundary
62
5
39
2
10
166.334255
20
347.371991
11
164.288138
21
350.100379
0
LINE
8
boundary
62
5
39
2
10
164.288138
20
350.100379
11
162.227230
21
352.454135
0
LINE
8
boundary
62
5
39
2
10
162.227230
20
352.454135
11
159.980635
21
355.019975
0
LINE
8
boundary
62
5
39
2
10
159.980635
20
355.019975
11
157.747615
21
357.211125
0
LINE
8
boundary
62
5
39
2
10
157.747615
20
357.211125
11
155.313400
21
359.599700
0
LINE
8
boundary
62
5
39
2
10
155.313400
20
359.599700
11
152.921073
21
361.615695
0
LINE
8
boundary
62
5
39
2
10
152.921073
20
361.615695
11
150.313181
21
363.813343
0
LINE
8
boundary
62
5
39
2
10
150.313181
20
363.813343
11
147.775229
21
365.642633
0
LINE
8
boundary
62
5
39
2
10
147.775229
20
365.642633
11
145.008601
21
367.636743
0
LINE
8
boundary
62
5
39
2
10
145.008601
20
367.636743
11
142.339570
21
369.268861
0
LINE
8
boundary
62
5
39
2
10
142.339570
20
369.268861
11
139.430055
21
371.048035
0
LINE
8
boundary
62
5
39
2
10
139.430055
20
371.048035
11
136.645230
21
372.473619
0
LINE
8
boundary
62
5
39
2
10
136.645230
20
372.473619
11
133.609492
21
374.027643
0
LINE
8
boundary
62
5
39
2
10
133.609492
20
374.027643
11
130.724832
21
375.238529
0
LINE
8
boundary
62
5
39
2
10
130.724832
20
375.238529
11
127.580256
21
376.558518
0
LINE
8
boundary
62
5
39
2
10
127.580256
20
376.558518
11
124.612279
21
377.547776
0
LINE
8
boundary
62
5
39
2
10
124.612279
20
377.547776
11
121.376877
21
378.626167
0
LINE
8
boundary
62
5
39
2
10
121.376877
20
378.626167
11
118.342587
21
379.388120
0
LINE
8
boundary
62
5
39
2
10
118.342587
20
379.388120
11
115.034900
21
380.218729
0
LINE
8
boundary
62
5
39
2
10
115.034900
20
380.218729
11
111.951675
21
380.749022
0
LINE
8
boundary
62
5
39
2
10
111.951675
20
380.749022
11
108.590642
21
381.327103
0
LINE
8
boundary
62
5
39
2
10
108.590642
20
381.327103
11
105.476138
21
381.622697
0
LINE
8
boundary
62
5
39
2
10
105.476138
20
381.622697
11
104.878991
21
381.679372
0
LINE
8
boundary
62
5
39
2
10
104.878991
20
381.679372
11
104.878992
21
374.243350
0
LINE
8
boundary
62
5
39
2
10
104.878992
20
374.243350
11
122.592867
21
374.018307
0
LINE
8
boundary
62
5
39
2
10
122.592867
20
374.018307
11
122.592867
21
369.771427
0
LINE
8
boundary
62
5
39
2
10
122.592867
20
369.771427
11
104.964335
21
369.771426
0
LINE
8
boundary
62
5
39
2
10
104.964335
20
369.771426
11
104.878992
21
366.957428
0
LINE
8
boundary
62
5
39
2
10
104.878992
20
366.957428
11
105.822996
21
366.881217
0
LINE
8
boundary
62
5
39
2
10
105.822996
20
366.881217
11
106.594800
21
366.755786
0
LINE
8
boundary
62
5
39
2
10
106.594800
20
366.755786
11
111.523816
21
365.954747
0
LINE
8
boundary
62
5
39
2
10
111.523816
20
365.954747
11
112.283023
21
365.767619
0
LINE
8
boundary
62
5
39
2
10
112.283023
20
365.767619
11
117.131609
21
364.572559
0
LINE
8
boundary
62
5
39
2
10
117.131609
20
364.572559
11
117.873297
21
364.324946
0
LINE
8
boundary
62
5
39
2
10
117.873297
20
364.324946
11
122.609995
21
362.743621
0
LINE
8
boundary
62
5
39
2
10
122.609995
20
362.743621
11
123.329353
21
362.437133
0
LINE
8
boundary
62
5
39
2
10
123.329353
20
362.437133
11
127.923432
21
360.479759
0
LINE
8
boundary
62
5
39
2
10
127.923432
20
360.479759
11
128.615796
21
360.116376
0
LINE
8
boundary
62
5
39
2
10
128.615796
20
360.116376
11
133.037492
21
357.795701
0
LINE
8
boundary
62
5
39
2
10
133.037492
20
357.795701
11
133.698370
21
357.377786
0
LINE
8
boundary
62
5
39
2
10
133.698370
20
357.377786
11
137.918986
21
354.708824
0
LINE
8
boundary
62
5
39
2
10
137.918986
20
354.708824
11
138.544093
21
354.239087
0
LINE
8
boundary
62
5
39
2
10
138.544093
20
354.239087
11
142.536251
21
351.239176
0
LINE
8
boundary
62
5
39
2
10
142.536251
20
351.239176
11
143.121533
21
350.720663
0
LINE
8
boundary
62
5
39
2
10
143.121533
20
350.720663
11
146.859371
21
347.409237
0
LINE
8
boundary
62
5
39
2
10
146.859371
20
347.409237
11
147.401033
21
346.845306
0
LINE
8
boundary
62
5
39
2
10
147.401033
20
346.845306
11
150.860268
21
343.243846
0
LINE
8
boundary
62
5
39
2
10
150.860268
20
343.243846
11
151.354795
21
342.638162
0
LINE
8
boundary
62
5
39
2
10
151.354795
20
342.638162
11
154.513033
21
338.770029
0
LINE
8
boundary
62
5
39
2
10
154.513033
20
338.770029
11
154.957221
21
338.126512
0
LINE
8
boundary
62
5
39
2
10
154.957221
20
338.126512
11
157.793957
21
334.016787
0
LINE
8
boundary
62
5
39
2
10
157.793957
20
334.016787
11
158.184920
21
333.339619
0
LINE
8
boundary
62
5
39
2
10
158.184920
20
333.339619
11
160.681747
21
329.014955
0
LINE
8
boundary
62
5
39
2
10
160.681747
20
329.014955
11
161.016955
21
328.308521
0
LINE
8
boundary
62
5
39
2
10
161.016955
20
328.308521
11
163.157718
21
323.796979
0
LINE
8
boundary
62
5
39
2
10
163.157718
20
323.796979
11
163.377178
21
323.218310
0
LINE
8
boundary
62
5
39
2
10
163.377178
20
323.218310
11
171.720745
21
323.218310
0
LINE
8
boundary
62
5
39
2
10
171.720745
20
323.218310
11
171.720745
21
318.971430
0
LINE
8
boundary
62
5
39
2
10
171.720745
20
318.971430
11
165.158512
21
318.971430
0
LINE
8
boundary
62
5
39
2
10
165.158512
20
318.971430
11
165.205792
21
318.396690
0
LINE
8
boundary
62
5
39
2
10
165.205792
20
318.396690
11
165.423339
21
317.645633
0
LINE
8
boundary
62
5
39
2
10
165.423339
20
317.645633
11
166.812679
21
312.849103
0
LINE
8
boundary
62
5
39
2
10
166.812679
20
312.849103
11
166.969082
21
312.082978
0
LINE
8
boundary
62
5
39
2
10
166.969082
20
312.082978
11
167.967931
21
307.190216
0
LINE
8
boundary
62
5
39
2
10
167.967931
20
307.190216
11
168.062186
21
306.413988
0
LINE
8
boundary
62
5
39
2
10
168.062186
20
306.413988
11
168.664107
21
301.456702
0
LINE
8
boundary
62
5
39
2
10
168.664107
20
301.456702
11
168.695590
21
300.675406
0
LINE
8
boundary
62
5
39
2
10
168.695590
20
300.675406
11
168.896670
21
295.685769
0
LINE
8
boundary
62
5
39
2
10
168.896670
20
295.685769
11
168.865187
21
294.904474
0
LINE
8
boundary
62
5
39
2
10
168.865187
20
294.904474
11
168.664107
21
289.914843
0
LINE
8
boundary
62
5
39
2
10
168.664107
20
289.914843
11
168.569853
21
289.138617
0
LINE
8
boundary
62
5
39
2
10
168.569853
20
289.138617
11
167.967931
21
284.181336
0
LINE
8
boundary
62
5
39
2
10
167.967931
20
284.181336
11
167.811528
21
283.415210
0
LINE
8
boundary
62
5
39
2
10
167.811528
20
283.415210
11
166.812679
21
278.522448
0
LINE
8
boundary
62
5
39
2
10
166.812679
20
278.522448
11
166.595132
21
277.771390
0
LINE
8
boundary
62
5
39
2
10
166.595132
20
277.771390
11
165.205792
21
272.974865
0
LINE
8
boundary
62
5
39
2
10
165.205792
20
272.974865
11
165.165411
21
272.418313
0
LINE
8
boundary
62
5
39
2
10
165.165411
20
272.418313
11
171.726664
21
272.418312
0
LINE
8
boundary
62
5
39
2
10
171.726664
20
272.418312
11
171.726664
21
268.171433
0
LINE
8
boundary
62
5
39
2
10
171.726664
20
268.171433
11
163.384080
21
268.171433
0
LINE
8
boundary
62
5
39
2
10
163.384080
20
268.171433
11
163.157718
21
267.574571
0
LINE
8
boundary
62
5
39
2
10
163.157718
20
267.574571
11
162.822511
21
266.868138
0
LINE
8
boundary
62
5
39
2
10
162.822511
20
266.868138
11
160.681747
21
262.356591
0
LINE
8
boundary
62
5
39
2
10
160.681747
20
262.356591
11
160.290784
21
261.679421
0
LINE
8
boundary
62
5
39
2
10
160.290784
20
261.679421
11
157.793957
21
257.354762
0
LINE
8
boundary
62
5
39
2
10
157.793957
20
257.354762
11
157.349770
21
256.711246
0
LINE
8
boundary
62
5
39
2
10
157.349770
20
256.711246
11
154.513033
21
252.601527
0
LINE
8
boundary
62
5
39
2
10
154.513033
20
252.601527
11
154.018506
21
251.995841
0
LINE
8
boundary
62
5
39
2
10
154.018506
20
251.995841
11
150.860268
21
248.127707
0
LINE
8
boundary
62
5
39
2
10
150.860268
20
248.127707
11
150.318607
21
247.563780
0
LINE
8
boundary
62
5
39
2
10
150.318607
20
247.563780
11
146.859371
21
243.962320
0
LINE
8
boundary
62
5
39
2
10
146.859371
20
243.962320
11
146.274089
21
243.443805
0
LINE
8
boundary
62
5
39
2
10
146.274089
20
243.443805
11
142.536251
21
240.132374
0
LINE
8
boundary
62
5
39
2
10
142.536251
20
240.132374
11
141.911144
21
239.662636
0
LINE
8
boundary
62
5
39
2
10
141.911144
20
239.662636
11
137.918986
21
236.662724
0
LINE
8
boundary
62
5
39
2
10
137.918986
20
236.662724
11
137.258107
21
236.244811
0
LINE
8
boundary
62
5
39
2
10
137.258107
20
236.244811
11
133.037492
21
233.575849
0
LINE
8
boundary
62
5
39
2
10
133.037492
20
233.575849
11
132.345128
21
233.212468
0
LINE
8
boundary
62
5
39
2
10
132.345128
20
233.212468
11
127.923432
21
230.891793
0
LINE
8
boundary
62
5
39
2
10
127.923432
20
230.891793
11
127.204075
21
230.585304
0
LINE
8
boundary
62
5
39
2
10
127.204075
20
230.585304
11
122.609995
21
228.627940
0
LINE
8
boundary
62
5
39
2
10
122.609995
20
228.627940
11
121.868307
21
228.380327
0
LINE
8
boundary
62
5
39
2
10
121.868307
20
228.380327
11
117.131609
21
226.798992
0
LINE
8
boundary
62
5
39
2
10
117.131609
20
226.798992
11
116.372401
21
226.611864
0
LINE
8
boundary
62
5
39
2
10
116.372401
20
226.611864
11
111.523816
21
225.416793
0
LINE
8
boundary
62
5
39
2
10
111.523816
20
225.416793
11
110.752012
21
225.291364
0
LINE
8
boundary
62
5
39
2
10
110.752012
20
225.291364
11
105.822996
21
224.490324
0
LINE
8
boundary
62
5
39
2
10
105.822996
20
224.490324
11
105.043605
21
224.427405
0
LINE
8
boundary
62
5
39
2
10
105.043605
20
224.427405
11
104.878991
21
224.414116
0
LINE
8
annotation
62
1
39
211
10
129.940988
20
216.847585
11
129.940988
21
222.142166
0
LINE
8
annotation
62
1
39
211
10
129.940988
20
222.142166
11
128.763935
21
220.964781
0
LINE
8
annotation
62
1
39
211
10
178.204399
20
268.137566
11
176.288207
21
268.137566
0
LINE
8
annotation
62
1
39
211
10
176.288207
20
268.137566
11
178.058831
21
270.988043
0
LINE
8
annotation
62
1
39
211
10
178.058831
20
270.988043
11
178.058831
21
270.988043
0
LINE
8
annotation
62
1
39
211
10
178.058831
20
270.988043
11
178.060948
21
270.990663
0
LINE
8
annotation
62
1
39
211
10
178.060948
20
270.990663
11
178.062978
21
270.993304
0
LINE
8
annotation
62
1
39
211
10
178.062978
20
270.993304
11
178.064934
21
270.995990
0
LINE
8
annotation
62
1
39
211
10
178.064934
20
270.995990
11
178.066830
21
270.998743
0
LINE
8
annotation
62
1
39
211
10
178.066830
20
270.998743
11
178.068680
21
271.001585
0
LINE
8
annotation
62
1
39
211
10
178.068680
20
271.001585
11
178.070496
21
271.004538
0
LINE
8
annotation
62
1
39
211
10
178.070496
20
271.004538
11
178.072292
21
271.007625
0
LINE
8
annotation
62
1
39
211
10
178.072292
20
271.007625
11
178.074081
21
271.010868
0
LINE
8
annotation
62
1
39
211
10
178.074081
20
271.010868
11
178.075877
21
271.014289
0
LINE
8
annotation
62
1
39
211
10
178.075877
20
271.014289
11
178.075877
21
271.014289
0
LINE
8
annotation
62
1
39
211
10
178.075877
20
271.014289
11
178.148986
21
271.171259
0
LINE
8
annotation
62
1
39
211
10
178.148986
20
271.171259
11
178.191695
21
271.333973
0
LINE
8
annotation
62
1
39
211
10
178.191695
20
271.333973
11
178.205050
21
271.498753
0
LINE
8
annotation
62
1
39
211
10
178.205050
20
271.498753
11
178.190099
21
271.661924
0
LINE
8
annotation
62
1
39
211
10
178.190099
20
271.661924
11
178.147889
21
271.819807
0
LINE
8
annotation
62
1
39
211
10
178.147889
20
271.819807
11
178.079465
21
271.968727
0
LINE
8
annotation
62
1
39
211
10
178.079465
20
271.968727
11
177.985874
21
272.105007
0
LINE
8
annotation
62
1
39
211
10
177.985874
20
272.105007
11
177.868164
21
272.224971
0
LINE
8
annotation
62
1
39
211
10
177.868164
20
272.224971
11
177.727380
21
272.324941
0
LINE
8
annotation
62
1
39
211
10
177.727380
20
272.324941
11
177.727380
21
272.324941
0
LINE
8
annotation
62
1
39
211
10
177.727380
20
272.324941
11
177.569973
21
272.397010
0
LINE
8
annotation
62
1
39
211
10
177.569973
20
272.397010
11
177.407010
21
272.439061
0
LINE
8
annotation
62
1
39
211
10
177.407010
20
272.439061
11
177.242134
21
272.452039
0
LINE
8
annotation
62
1
39
211
10
177.242134
20
272.452039
11
177.078988
21
272.436891
0
LINE
8
annotation
62
1
39
211
10
177.078988
20
272.436891
11
176.921216
21
272.394564
0
LINE
8
annotation
62
1
39
211
10
176.921216
20
272.394564
11
176.772461
21
272.326003
0
LINE
8
annotation
62
1
39
211
10
176.772461
20
272.326003
11
176.636366
21
272.232155
0
LINE
8
annotation
62
1
39
211
10
176.636366
20
272.232155
11
176.516574
21
272.113967
0
LINE
8
annotation
62
1
39
211
10
176.516574
20
272.113967
11
176.416728
21
271.972385
0
LINE
8
annotation
62
1
39
211
10
176.416728
20
271.972385
11
176.290912
21
271.731035
0
LINE
8
annotation
62
1
39
211
10
176.282231
20
318.937761
11
177.240315
21
318.937761
0
LINE
8
annotation
62
1
39
211
10
177.240315
20
318.937761
11
177.240315
21
318.937761
0
LINE
8
annotation
62
1
39
211
10
177.240315
20
318.937761
11
177.412629
21
318.953218
0
LINE
8
annotation
62
1
39
211
10
177.412629
20
318.953218
11
177.574770
21
318.997768
0
LINE
8
annotation
62
1
39
211
10
177.574770
20
318.997768
11
177.724042
21
319.068676
0
LINE
8
annotation
62
1
39
211
10
177.724042
20
319.068676
11
177.857748
21
319.163206
0
LINE
8
annotation
62
1
39
211
10
177.857748
20
319.163206
11
177.973191
21
319.278625
0
LINE
8
annotation
62
1
39
211
10
177.973191
20
319.278625
11
178.067674
21
319.412198
0
LINE
8
annotation
62
1
39
211
10
178.067674
20
319.412198
11
178.138501
21
319.561189
0
LINE
8
annotation
62
1
39
211
10
178.138501
20
319.561189
11
178.182975
21
319.722866
0
LINE
8
annotation
62
1
39
211
10
178.182975
20
319.722866
11
178.198399
21
319.894492
0
LINE
8
annotation
62
1
39
211
10
178.198399
20
319.894492
11
178.198399
21
320.374210
0
LINE
8
annotation
62
1
39
211
10
178.198399
20
320.374210
11
178.198399
21
320.374210
0
LINE
8
annotation
62
1
39
211
10
178.198399
20
320.374210
11
178.182975
21
320.545764
0
LINE
8
annotation
62
1
39
211
10
178.182975
20
320.545764
11
178.138501
21
320.707403
0
LINE
8
annotation
62
1
39
211
10
178.138501
20
320.707403
11
178.067674
21
320.856383
0
LINE
8
annotation
62
1
39
211
10
178.067674
20
320.856383
11
177.973191
21
320.989965
0
LINE
8
annotation
62
1
39
211
10
177.973191
20
320.989965
11
177.857748
21
321.105406
0
LINE
8
annotation
62
1
39
211
10
177.857748
20
321.105406
11
177.724042
21
321.199965
0
LINE
8
annotation
62
1
39
211
10
177.724042
20
321.199965
11
177.574770
21
321.270902
0
LINE
8
annotation
62
1
39
211
10
177.574770
20
321.270902
11
177.412629
21
321.315474
0
LINE
8
annotation
62
1
39
211
10
177.412629
20
321.315474
11
177.240315
21
321.330941
0
LINE
8
annotation
62
1
39
211
10
177.240315
20
321.330941
11
176.760597
21
321.330941
0
LINE
8
annotation
62
1
39
211
10
176.760597
20
321.330941
11
177.240315
21
321.330941
0
LINE
8
annotation
62
1
39
211
10
177.240315
20
321.330941
11
177.240315
21
321.330941
0
LINE
8
annotation
62
1
39
211
10
177.240315
20
321.330941
11
177.412629
21
321.346411
0
LINE
8
annotation
62
1
39
211
10
177.412629
20
321.346411
11
177.574770
21
321.391009
0
LINE
8
annotation
62
1
39
211
10
177.574770
20
321.391009
11
177.724042
21
321.462016
0
LINE
8
annotation
62
1
39
211
10
177.724042
20
321.462016
11
177.857748
21
321.556713
0
LINE
8
annotation
62
1
39
211
10
177.857748
20
321.556713
11
177.973191
21
321.672381
0
LINE
8
annotation
62
1
39
211
10
177.973191
20
321.672381
11
178.067674
21
321.806300
0
LINE
8
annotation
62
1
39
211
10
178.067674
20
321.806300
11
178.138501
21
321.955752
0
LINE
8
annotation
62
1
39
211
10
178.138501
20
321.955752
11
178.182975
21
322.118017
0
LINE
8
annotation
62
1
39
211
10
178.182975
20
322.118017
11
178.198399
21
322.290377
0
LINE
8
annotation
62
1
39
211
10
178.198399
20
322.290377
11
178.198399
21
322.290377
0
LINE
8
annotation
62
1
39
211
10
178.198399
20
322.290377
11
178.182975
21
322.461932
0
LINE
8
annotation
62
1
39
211
10
178.182975
20
322.461932
11
178.138501
21
322.623570
0
LINE
8
annotation
62
1
39
211
10
178.138501
20
322.623570
11
178.067674
21
322.772551
0
LINE
8
annotation
62
1
39
211
10
178.067674
20
322.772551
11
177.973191
21
322.906132
0
LINE
8
annotation
62
1
39
211
10
177.973191
20
322.906132
11
177.857748
21
323.021574
0
LINE
8
annotation
62
1
39
211
10
177.857748
20
323.021574
11
177.724042
21
323.116133
0
LINE
8
annotation
62
1
39
211
10
177.724042
20
323.116133
11
177.574770
21
323.187070
0
LINE
8
annotation
62
1
39
211
10
177.574770
20
323.187070
11
177.412629
21
323.231642
0
LINE
8
annotation
62
1
39
211
10
177.412629
20
323.231642
11
177.240315
21
323.247108
0
LINE
8
annotation
62
1
39
211
10
177.240315
20
323.247108
11
176.282231
21
323.247108
0
LINE
8
annotation
62
1
39
211
10
130.248577
20
370.526207
11
127.511876
21
370.526207
0
LINE
8
annotation
62
1
39
211
10
127.511876
20
370.526207
11
128.604826
21
374.359258
0
LINE
8
annotation
62
1
39
211
10
129.428247
20
369.430475
11
129.428247
21
371.619465
0
LINE
8
annotation
62
1
39
211
10
173.815405
20
298.577691
11
172.782861
21
297.084211
0
LINE
8
annotation
62
1
39
211
10
172.782861
20
297.084211
11
171.750123
21
298.577691
0
LINE
8
annotation
62
1
39
211
10
172.782861
20
297.204396
11
172.782861
21
295.481418
0
LINE
8
annotation
62
1
39
211
10
176.669707
20
297.029555
11
174.976823
21
297.029555
0
LINE
8
annotation
62
1
39
211
10
178.518840
20
295.481515
11
178.518840
21
298.577594
0
LINE
8
annotation
62
1
39
211
10
178.518840
20
298.577594
11
177.830542
21
297.889102
0
LINE
8
boundary
62
5
39
2
10
104.878991
20
397.423784
11
104.878991
21
387.381681
0
LINE
8
boundary
62
5
39
2
10
104.878991
20
387.381681
11
107.950415
21
386.759085
0
LINE
8
boundary
62
5
39
2
10
107.950415
20
386.759085
11
111.412830
21
386.057235
0
LINE
8
boundary
62
5
39
2
10
111.412830
20
386.057235
11
112.968060
21
385.838378
0
LINE
8
boundary
62
5
39
2
10
112.968060
20
385.838378
11
115.304226
21
385.509621
0
LINE
8
boundary
62
5
39
2
10
115.304226
20
385.509621
11
118.063024
21
385.258338
0
LINE
8
boundary
62
5
39
2
10
118.063024
20
385.258338
11
119.991466
21
385.082688
0
LINE
8
boundary
62
5
39
2
10
119.991466
20
385.082688
11
123.214827
21
384.991387
0
LINE
8
boundary
62
5
39
2
10
123.214827
20
384.991387
11
128.051788
21
384.854372
0
LINE
8
boundary
62
5
39
2
10
128.051788
20
384.854372
11
128.764560
21
384.867916
0
LINE
8
boundary
62
5
39
2
10
128.764560
20
384.867916
11
133.684776
21
385.280502
0
LINE
8
boundary
62
5
39
2
10
133.684776
20
385.280502
11
137.549179
21
385.604554
0
LINE
8
boundary
62
5
39
2
10
137.549179
20
385.604554
11
138.975196
21
385.819755
0
LINE
8
boundary
62
5
39
2
10
138.975196
20
385.819755
11
141.169122
21
386.150845
0
LINE
8
boundary
62
5
39
2
10
141.169122
20
386.150845
11
144.235550
21
386.758664
0
LINE
8
boundary
62
5
39
2
10
144.235550
20
386.758664
11
146.260084
21
387.159959
0
LINE
8
boundary
62
5
39
2
10
146.260084
20
387.159959
11
149.462024
21
388.025055
0
LINE
8
boundary
62
5
39
2
10
149.462024
20
388.025055
11
154.584768
21
389.409128
0
LINE
8
boundary
62
5
39
2
10
154.584768
20
389.409128
11
159.800031
21
391.457627
0
LINE
8
boundary
62
5
39
2
10
159.800031
20
391.457627
11
162.959132
21
392.709141
0
LINE
8
boundary
62
5
39
2
10
162.959132
20
392.709141
11
164.867068
21
393.628734
0
LINE
8
boundary
62
5
39
2
10
164.867068
20
393.628734
11
168.225524
21
395.247447
0
LINE
8
boundary
62
5
39
2
10
168.225524
20
395.247447
11
169.846192
21
396.110092
0
LINE
8
boundary
62
5
39
2
10
169.846192
20
396.110092
11
170.755208
21
396.593943
0
LINE
8
boundary
62
5
39
2
10
170.755208
20
396.593943
11
174.629241
21
399.035868
0
LINE
8
boundary
62
5
39
2
10
174.629241
20
399.035868
11
178.029648
21
401.179251
0
LINE
8
boundary
62
5
39
2
10
178.029648
20
401.179251
11
179.343797
21
402.153414
0
LINE
8
boundary
62
5
39
2
10
179.343797
20
402.153414
11
182.017072
21
404.135083
0
LINE
8
boundary
62
5
39
2
10
182.017072
20
404.135083
11
183.882733
21
405.622979
0
LINE
8
boundary
62
5
39
2
10
183.882733
20
405.622979
11
184.775963
21
406.335351
0
LINE
8
boundary
62
5
39
2
10
184.775963
20
406.335351
11
188.173750
21
409.496967
0
LINE
8
boundary
62
5
39
2
10
188.173750
20
409.496967
11
190.897527
21
412.031413
0
LINE
8
boundary
62
5
39
2
10
190.897527
20
412.031413
11
192.326944
21
413.587344
0
LINE
8
boundary
62
5
39
2
10
192.326944
20
413.587344
11
195.884227
21
417.459475
0
LINE
8
boundary
62
5
39
2
10
195.884227
20
417.459475
11
195.884227
21
418.290728
0
LINE
8
boundary
62
5
39
2
10
195.884227
20
418.290728
11
195.884227
21
425.970475
0
LINE
8
boundary
62
5
39
2
10
195.884227
20
425.970475
11
195.884227
21
429.696693
0
LINE
8
boundary
62
5
39
2
10
195.884227
20
429.696693
11
195.884227
21
433.444269
0
LINE
8
boundary
62
5
39
2
10
195.884227
20
433.444269
11
195.884227
21
435.426131
0
LINE
8
boundary
62
5
39
2
10
195.884227
20
435.426131
11
195.884227
21
440.754347
0
LINE
8
boundary
62
5
39
2
10
195.884227
20
440.754347
11
195.884227
21
442.975986
0
LINE
8
boundary
62
5
39
2
10
195.884227
20
442.975986
11
194.933036
21
440.922991
0
LINE
8
boundary
62
5
39
2
10
194.933036
20
440.922991
11
194.547132
21
440.257924
0
LINE
8
boundary
62
5
39
2
10
194.547132
20
440.257924
11
191.180530
21
434.455910
0
LINE
8
boundary
62
5
39
2
10
191.180530
20
434.455910
11
188.796909
21
431.083929
0
LINE
8
boundary
62
5
39
2
10
188.796909
20
431.083929
11
186.812257
21
428.276359
0
LINE
8
boundary
62
5
39
2
10
186.812257
20
428.276359
11
182.907960
21
423.663813
0
LINE
8
boundary
62
5
39
2
10
182.907960
20
423.663813
11
181.815025
21
422.454798
0
LINE
8
boundary
62
5
39
2
10
181.815025
20
422.454798
11
180.951224
21
421.652109
0
LINE
8
boundary
62
5
39
2
10
180.951224
20
421.652109
11
176.096860
21
417.141181
0
LINE
8
boundary
62
5
39
2
10
176.096860
20
417.141181
11
170.011681
21
412.373193
0
LINE
8
boundary
62
5
39
2
10
170.011681
20
412.373193
11
162.998844
21
408.137992
0
LINE
8
boundary
62
5
39
2
10
162.998844
20
408.137992
11
157.274940
21
405.288913
0
LINE
8
boundary
62
5
39
2
10
157.274940
20
405.288913
11
155.722341
21
404.603304
0
LINE
8
boundary
62
5
39
2
10
155.722341
20
404.603304
11
153.256018
21
403.735855
0
LINE
8
boundary
62
5
39
2
10
153.256018
20
403.735855
11
148.007729
21
401.889935
0
LINE
8
boundary
62
5
39
2
10
148.007729
20
401.889935
11
144.776237
21
401.019167
0
LINE
8
boundary
62
5
39
2
10
144.776237
20
401.019167
11
141.184614
21
400.241750
0
LINE
8
boundary
62
5
39
2
10
141.184614
20
400.241750
11
141.184614
21
397.648828
0
LINE
8
boundary
62
5
39
2
10
141.184614
20
397.648828
11
104.964335
21
397.648828
0
LINE
8
boundary
62
5
39
2
10
104.964335
20
397.648828
11
104.878991
21
397.423784
0
LINE
8
annotation
62
1
39
211
10
146.076264
20
396.221574
11
146.076264
21
399.722258
0
LINE
8
annotation
62
1
39
211
10
146.076264
20
399.722258
11
145.298017
21
398.943791
0
LINE
8
annotation
62
1
39
211
10
127.645658
20
395.644153
11
126.552938
21
394.063634
0
LINE
8
annotation
62
1
39
211
10
126.552938
20
394.063634
11
125.460013
21
395.644153
0
LINE
8
annotation
62
1
39
211
10
126.552938
20
394.190823
11
126.552938
21
392.367432
0
LINE
8
annotation
62
1
39
211
10
130.666306
20
394.005793
11
128.874763
21
394.005793
0
LINE
8
annotation
62
1
39
211
10
133.350118
20
392.367508
11
131.894939
21
392.367508
0
LINE
8
annotation
62
1
39
211
10
131.894939
20
392.367508
11
133.239572
21
394.532195
0
LINE
8
annotation
62
1
39
211
10
133.239572
20
394.532195
11
133.239572
21
394.532195
0
LINE
8
annotation
62
1
39
211
10
133.239572
20
394.532195
11
133.241179
21
394.534184
0
LINE
8
annotation
62
1
39
211
10
133.241179
20
394.534184
11
133.242721
21
394.536190
0
LINE
8
annotation
62
1
39
211
10
133.242721
20
394.536190
11
133.244206
21
394.538230
0
LINE
8
annotation
62
1
39
211
10
133.244206
20
394.538230
11
133.245646
21
394.540320
0
LINE
8
annotation
62
1
39
211
10
133.245646
20
394.540320
11
133.247051
21
394.542478
0
LINE
8
annotation
62
1
39
211
10
133.247051
20
394.542478
11
133.248430
21
394.544721
0
LINE
8
annotation
62
1
39
211
10
133.248430
20
394.544721
11
133.249794
21
394.547065
0
LINE
8
annotation
62
1
39
211
10
133.249794
20
394.547065
11
133.251153
21
394.549528
0
LINE
8
annotation
62
1
39
211
10
133.251153
20
394.549528
11
133.252517
21
394.552126
0
LINE
8
annotation
62
1
39
211
10
133.252517
20
394.552126
11
133.252517
21
394.552126
0
LINE
8
annotation
62
1
39
211
10
133.252517
20
394.552126
11
133.308036
21
394.671331
0
LINE
8
annotation
62
1
39
211
10
133.308036
20
394.671331
11
133.340470
21
394.794898
0
LINE
8
annotation
62
1
39
211
10
133.340470
20
394.794898
11
133.350612
21
394.920034
0
LINE
8
annotation
62
1
39
211
10
133.350612
20
394.920034
11
133.339259
21
395.043947
0
LINE
8
annotation
62
1
39
211
10
133.339259
20
395.043947
11
133.307203
21
395.163846
0
LINE
8
annotation
62
1
39
211
10
133.307203
20
395.163846
11
133.255241
21
395.276938
0
LINE
8
annotation
62
1
39
211
10
133.255241
20
395.276938
11
133.184167
21
395.380430
0
LINE
8
annotation
62
1
39
211
10
133.184167
20
395.380430
11
133.094777
21
395.471532
0
LINE
8
annotation
62
1
39
211
10
133.094777
20
395.471532
11
132.987864
21
395.547450
0
LINE
8
annotation
62
1
39
211
10
132.987864
20
395.547450
11
132.987864
21
395.547450
0
LINE
8
annotation
62
1
39
211
10
132.987864
20
395.547450
11
132.868327
21
395.602181
0
LINE
8
annotation
62
1
39
211
10
132.868327
20
395.602181
11
132.744571
21
395.634115
0
LINE
8
annotation
62
1
39
211
10
132.744571
20
395.634115
11
132.619362
21
395.643971
0
LINE
8
annotation
62
1
39
211
10
132.619362
20
395.643971
11
132.495467
21
395.632467
0
LINE
8
annotation
62
1
39
211
10
132.495467
20
395.632467
11
132.375653
21
395.600323
0
LINE
8
annotation
62
1
39
211
10
132.375653
20
395.600323
11
132.262687
21
395.548257
0
LINE
8
annotation
62
1
39
211
10
132.262687
20
395.548257
11
132.159335
21
395.476988
0
LINE
8
annotation
62
1
39
211
10
132.159335
20
395.476988
11
132.068363
21
395.387235
0
LINE
8
annotation
62
1
39
211
10
132.068363
20
395.387235
11
131.992540
21
395.279715
0
LINE
8
annotation
62
1
39
211
10
131.992540
20
395.279715
11
131.896993
21
395.096431
0
LINE
8
annotation
62
1
39
211
10
136.370910
20
394.005793
11
134.579367
21
394.005793
0
LINE
8
annotation
62
1
39
211
10
138.327809
20
392.367534
11
138.327809
21
395.644051
0
LINE
8
annotation
62
1
39
211
10
138.327809
20
395.644051
11
137.599398
21
394.915434
0
LINE
8
boundary
62
5
39
2
10
104.878991
20
460.202425
11
104.878991
21
449.242902
0
LINE
8
boundary
62
5
39
2
10
104.878991
20
449.242902
11
106.868014
21
449.017858
0
LINE
8
boundary
62
5
39
2
10
106.868014
20
449.017858
11
106.868014
21
446.980006
0
LINE
8
boundary
62
5
39
2
10
106.868014
20
446.980006
11
111.752948
21
448.794305
0
LINE
8
boundary
62
5
39
2
10
111.752948
20
448.794305
11
114.086362
21
449.545712
0
LINE
8
boundary
62
5
39
2
10
114.086362
20
449.545712
11
122.500818
21
451.617882
0
LINE
8
boundary
62
5
39
2
10
122.500818
20
451.617882
11
131.238811
21
452.716211
0
LINE
8
boundary
62
5
39
2
10
131.238811
20
452.716211
11
133.614487
21
452.853853
0
LINE
8
boundary
62
5
39
2
10
133.614487
20
452.853853
11
140.180013
21
452.892599
0
LINE
8
boundary
62
5
39
2
10
140.180013
20
452.892599
11
144.720530
21
452.618938
0
LINE
8
boundary
62
5
39
2
10
144.720530
20
452.618938
11
149.291499
21
452.089896
0
LINE
8
boundary
62
5
39
2
10
149.291499
20
452.089896
11
155.444450
21
450.970928
0
LINE
8
boundary
62
5
39
2
10
155.444450
20
450.970928
11
158.517114
21
450.225008
0
LINE
8
boundary
62
5
39
2
10
158.517114
20
450.225008
11
161.683253
21
449.242902
0
LINE
8
boundary
62
5
39
2
10
161.683253
20
449.242902
11
162.408756
21
449.017858
0
LINE
8
boundary
62
5
39
2
10
162.408756
20
449.017858
11
166.634329
21
449.017858
0
LINE
8
boundary
62
5
39
2
10
166.634329
20
449.017858
11
166.634329
21
447.628304
0
LINE
8
boundary
62
5
39
2
10
166.634329
20
447.628304
11
167.799950
21
447.186529
0
LINE
8
boundary
62
5
39
2
10
167.799950
20
447.186529
11
167.799951
21
448.624036
0
LINE
8
boundary
62
5
39
2
10
167.799951
20
448.624036
11
167.799950
21
449.770090
0
LINE
8
boundary
62
5
39
2
10
167.799950
20
449.770090
11
167.799950
21
454.627770
0
LINE
8
boundary
62
5
39
2
10
167.799950
20
454.627770
11
167.799951
21
460.994363
0
LINE
8
boundary
62
5
39
2
10
167.799951
20
460.994363
11
162.700297
21
462.581179
0
LINE
8
boundary
62
5
39
2
10
162.700297
20
462.581179
11
157.879799
21
463.900848
0
LINE
8
boundary
62
5
39
2
10
157.879799
20
463.900848
11
157.124289
21
464.060930
0
LINE
8
boundary
62
5
39
2
10
157.124289
20
464.060930
11
152.213736
21
464.829110
0
LINE
8
boundary
62
5
39
2
10
152.213736
20
464.829110
11
148.013736
21
465.486132
0
LINE
8
boundary
62
5
39
2
10
148.013736
20
465.486132
11
146.923277
21
465.590273
0
LINE
8
boundary
62
5
39
2
10
146.923277
20
465.590273
11
145.637321
21
465.713084
0
LINE
8
boundary
62
5
39
2
10
145.637321
20
465.713084
11
141.571356
21
465.892565
0
LINE
8
boundary
62
5
39
2
10
141.571356
20
465.892565
11
138.255543
21
466.038929
0
LINE
8
boundary
62
5
39
2
10
138.255543
20
466.038929
11
136.245797
21
466.004894
0
LINE
8
boundary
62
5
39
2
10
136.245797
20
466.004894
11
133.806046
21
465.963567
0
LINE
8
boundary
62
5
39
2
10
133.806046
20
465.963567
11
130.934423
21
465.774762
0
LINE
8
boundary
62
5
39
2
10
130.934423
20
465.774762
11
128.658389
21
465.625130
0
LINE
8
boundary
62
5
39
2
10
128.658389
20
465.625130
11
125.656632
21
465.240714
0
LINE
8
boundary
62
5
39
2
10
125.656632
20
465.240714
11
121.980823
21
464.769966
0
LINE
8
boundary
62
5
39
2
10
121.980823
20
464.769966
11
120.465397
21
464.503727
0
LINE
8
boundary
62
5
39
2
10
120.465397
20
464.503727
11
119.274636
21
464.294524
0
LINE
8
boundary
62
5
39
2
10
119.274636
20
464.294524
11
115.318781
21
463.343446
0
LINE
8
boundary
62
5
39
2
10
115.318781
20
463.343446
11
110.532542
21
462.192744
0
LINE
8
boundary
62
5
39
2
10
110.532542
20
462.192744
11
105.387646
21
460.383819
0
LINE
8
boundary
62
5
39
2
10
105.387646
20
460.383819
11
104.878991
21
460.202425
0
LINE
8
annotation
62
1
39
211
10
167.572206
20
446.747007
11
167.277450
21
446.747007
0
LINE
8
annotation
62
1
39
211
10
167.277450
20
446.747007
11
167.395166
21
447.159845
0
LINE
8
annotation
62
1
39
211
10
167.483852
20
446.628992
11
167.483852
21
446.864756
0
LINE
8
annotation
62
1
39
211
10
107.304021
20
446.838243
11
107.191696
21
446.838243
0
LINE
8
annotation
62
1
39
211
10
107.191696
20
446.838243
11
107.236555
21
446.995566
0
LINE
8
annotation
62
1
39
211
10
107.270351
20
446.793270
11
107.270351
21
446.883115
0
LINE
8
annotation
62
1
39
211
10
130.945176
20
460.326957
11
129.434164
21
458.141417
0
LINE
8
annotation
62
1
39
211
10
129.434164
20
458.141417
11
127.922869
21
460.326957
0
LINE
8
annotation
62
1
39
211
10
129.434164
20
458.317294
11
129.434164
21
455.795911
0
LINE
8
annotation
62
1
39
211
10
135.122123
20
458.061434
11
132.644780
21
458.061434
0
LINE
8
annotation
62
1
39
211
10
136.820733
20
455.796053
11
137.826843
21
455.796053
0
LINE
8
annotation
62
1
39
211
10
137.826843
20
455.796053
11
137.826843
21
455.796053
0
LINE
8
annotation
62
1
39
211
10
137.826843
20
455.796053
11
138.007420
21
455.812289
0
LINE
8
annotation
62
1
39
211
10
138.007420
20
455.812289
11
138.177490
21
455.859096
0
LINE
8
annotation
62
1
39
211
10
138.177490
20
455.859096
11
138.334186
21
455.933625
0
LINE
8
annotation
62
1
39
211
10
138.334186
20
455.933625
11
138.474641
21
456.033024
0
LINE
8
annotation
62
1
39
211
10
138.474641
20
456.033024
11
138.595988
21
456.154442
0
LINE
8
annotation
62
1
39
211
10
138.595988
20
456.154442
11
138.695359
21
456.295030
0
LINE
8
annotation
62
1
39
211
10
138.695359
20
456.295030
11
138.769889
21
456.451935
0
LINE
8
annotation
62
1
39
211
10
138.769889
20
456.451935
11
138.816709
21
456.622309
0
LINE
8
annotation
62
1
39
211
10
138.816709
20
456.622309
11
138.832953
21
456.803299
0
LINE
8
annotation
62
1
39
211
10
138.832953
20
456.803299
11
138.832953
21
457.304507
0
LINE
8
annotation
62
1
39
211
10
138.832953
20
457.304507
11
138.832953
21
457.304507
0
LINE
8
annotation
62
1
39
211
10
138.832953
20
457.304507
11
138.816718
21
457.485410
0
LINE
8
annotation
62
1
39
211
10
138.816718
20
457.485410
11
138.769922
21
457.655548
0
LINE
8
annotation
62
1
39
211
10
138.769922
20
457.655548
11
138.695423
21
457.812113
0
LINE
8
annotation
62
1
39
211
10
138.695423
20
457.812113
11
138.596081
21
457.952298
0
LINE
8
annotation
62
1
39
211
10
138.596081
20
457.952298
11
138.474758
21
458.073292
0
LINE
8
annotation
62
1
39
211
10
138.474758
20
458.073292
11
138.334312
21
458.172287
0
LINE
8
annotation
62
1
39
211
10
138.334312
20
458.172287
11
138.177605
21
458.246475
0
LINE
8
annotation
62
1
39
211
10
138.177605
20
458.246475
11
138.007495
21
458.293048
0
LINE
8
annotation
62
1
39
211
10
138.007495
20
458.293048
11
137.826843
21
458.309196
0
LINE
8
annotation
62
1
39
211
10
137.826843
20
458.309196
11
136.820733
21
458.309196
0
LINE
8
annotation
62
1
39
211
10
136.820733
20
458.309196
11
136.820733
21
460.326815
0
LINE
8
annotation
62
1
39
211
10
136.820733
20
460.326815
11
138.832953
21
460.326815
0
LINE
8
annotation
62
1
39
211
10
143.009758
20
458.061434
11
140.532415
21
458.061434
0
LINE
8
annotation
62
1
39
211
10
146.720929
20
455.796016
11
144.708710
21
455.796016
0
LINE
8
annotation
62
1
39
211
10
144.708710
20
455.796016
11
146.568067
21
458.789342
0
LINE
8
annotation
62
1
39
211
10
146.568067
20
458.789342
11
146.568067
21
458.789342
0
LINE
8
annotation
62
1
39
211
10
146.568067
20
458.789342
11
146.570289
21
458.792092
0
LINE
8
annotation
62
1
39
211
10
146.570289
20
458.792092
11
146.572421
21
458.794866
0
LINE
8
annotation
62
1
39
211
10
146.572421
20
458.794866
11
146.574475
21
458.797687
0
LINE
8
annotation
62
1
39
211
10
146.574475
20
458.797687
11
146.576467
21
458.800578
0
LINE
8
annotation
62
1
39
211
10
146.576467
20
458.800578
11
146.578409
21
458.803562
0
LINE
8
annotation
62
1
39
211
10
146.578409
20
458.803562
11
146.580316
21
458.806663
0
LINE
8
annotation
62
1
39
211
10
146.580316
20
458.806663
11
146.582202
21
458.809905
0
LINE
8
annotation
62
1
39
211
10
146.582202
20
458.809905
11
146.584081
21
458.813310
0
LINE
8
annotation
62
1
39
211
10
146.584081
20
458.813310
11
146.585967
21
458.816903
0
LINE
8
annotation
62
1
39
211
10
146.585967
20
458.816903
11
146.585967
21
458.816903
0
LINE
8
annotation
62
1
39
211
10
146.585967
20
458.816903
11
146.662739
21
458.981740
0
LINE
8
annotation
62
1
39
211
10
146.662739
20
458.981740
11
146.707588
21
459.152607
0
LINE
8
annotation
62
1
39
211
10
146.707588
20
459.152607
11
146.721613
21
459.325646
0
LINE
8
annotation
62
1
39
211
10
146.721613
20
459.325646
11
146.705913
21
459.496993
0
LINE
8
annotation
62
1
39
211
10
146.705913
20
459.496993
11
146.661587
21
459.662789
0
LINE
8
annotation
62
1
39
211
10
146.661587
20
459.662789
11
146.589734
21
459.819172
0
LINE
8
annotation
62
1
39
211
10
146.589734
20
459.819172
11
146.491454
21
459.962281
0
LINE
8
annotation
62
1
39
211
10
146.491454
20
459.962281
11
146.367844
21
460.088256
0
LINE
8
annotation
62
1
39
211
10
146.367844
20
460.088256
11
146.220005
21
460.193236
0
LINE
8
annotation
62
1
39
211
10
146.220005
20
460.193236
11
146.220005
21
460.193236
0
LINE
8
annotation
62
1
39
211
10
146.220005
20
460.193236
11
146.054710
21
460.268918
0
LINE
8
annotation
62
1
39
211
10
146.054710
20
460.268918
11
145.883580
21
460.313076
0
LINE
8
annotation
62
1
39
211
10
145.883580
20
460.313076
11
145.710442
21
460.326704
0
LINE
8
annotation
62
1
39
211
10
145.710442
20
460.326704
11
145.539120
21
460.310797
0
LINE
8
annotation
62
1
39
211
10
145.539120
20
460.310797
11
145.373441
21
460.266348
0
LINE
8
annotation
62
1
39
211
10
145.373441
20
460.266348
11
145.217231
21
460.194352
0
LINE
8
annotation
62
1
39
211
10
145.217231
20
460.194352
11
145.074316
21
460.095801
0
LINE
8
annotation
62
1
39
211
10
145.074316
20
460.095801
11
144.948521
21
459.971690
0
LINE
8
annotation
62
1
39
211
10
144.948521
20
459.971690
11
144.843672
21
459.823013
0
LINE
8
annotation
62
1
39
211
10
144.843672
20
459.823013
11
144.711551
21
459.569567
0
LINE
8
frame
62
5
39
2
10
0.000000
20
0.000000
11
215.900000
21
0.000000
0
LINE
8
frame
62
5
39
2
10
215.900000
20
0.000000
11
215.900000
21
490.000000
0
LINE
8
frame
62
5
39
2
10
215.900000
20
490.000000
11
0.000000
21
490.000000
0
LINE
8
frame
62
5
39
2
10
0.000000
20
490.000000
11
0.000000
21
0.000000
0
ENDSEC
0
EOF
