0
SECTION
2
HEADER
9
$ACADVER
1
AC1009
0
ENDSEC
0
SECTION
2
TABLES
0
TABLE
2
VPORT
70
1
0
VPORT
2
ACTIVE
70
0
10
0.0
20
0.0
11
0.0
21
0.0
12
0.0
22
0.0
13
0.0
23
0.0
14
0.0
24
0.0
15
0.0
25
0.0
16
0.0
26
0.0
36
0.0
17
0.0
27
0.0
37
0.0
40
0.0
41
0.0
42
0.0
43
0.0
44
0.0
50
0.0
51
0.0
71
0
72
1000
73
1
74
3
75
0
76
0
77
0
78
0
0
ENDTAB
0
ENDSEC
0
SECTION
2
ENTITIES
0
LINE
8
boundary
62
5
39
2
10
56.340247
20
41.815380
11
56.977026
21
42.717973
0
LINE
8
boundary
62
5
39
2
10
56.977026
20
42.717973
11
58.989871
21
45.981883
0
LINE
8
boundary
62
5
39
2
10
58.989871
20
45.981883
11
59.960539
21
47.555859
0
LINE
8
boundary
62
5
39
2
10
59.960539
20
47.555859
11
61.410506
21
50.268089
0
LINE
8
boundary
62
5
39
2
10
61.410506
20
50.268089
11
62.600539
21
52.494101
0
LINE
8
boundary
62
5
39
2
10
62.600539
20
52.494101
11
63.597846
21
54.672161
0
LINE
8
boundary
62
5
39
2
10
63.597846
20
54.672161
11
64.900849
21
57.517845
0
LINE
8
boundary
62
5
39
2
10
64.900849
20
57.517845
11
65.546406
21
59.192524
0
LINE
8
boundary
62
5
39
2
10
65.546406
20
59.192524
11
66.865075
21
62.613376
0
LINE
8
boundary
62
5
39
2
10
66.865075
20
62.613376
11
67.249410
21
63.827706
0
LINE
8
boundary
62
5
39
2
10
67.249410
20
63.827706
11
68.496510
21
67.767983
0
LINE
8
boundary
62
5
39
2
10
68.496510
20
67.767983
11
68.698739
21
68.576233
0
LINE
8
boundary
62
5
39
2
10
68.698739
20
68.576233
11
69.798033
21
72.969819
0
LINE
8
boundary
62
5
39
2
10
69.798033
20
72.969819
11
70.772016
21
78.207673
0
LINE
8
boundary
62
5
39
2
10
70.772016
20
78.207673
11
71.420297
21
83.470878
0
LINE
8
boundary
62
5
39
2
10
71.420297
20
83.470878
11
71.465016
21
84.199773
0
LINE
8
boundary
62
5
39
2
10
71.465016
20
84.199773
11
71.730192
21
88.676351
0
LINE
8
boundary
62
5
39
2
10
71.730192
20
88.676351
11
71.734525
21
93.957573
0
LINE
8
boundary
62
5
39
2
10
71.734525
20
93.957573
11
71.465017
21
98.581818
0
LINE
8
boundary
62
5
39
2
10
71.465017
20
98.581818
11
71.420297
21
99.310712
0
LINE
8
boundary
62
5
39
2
10
71.420297
20
99.310712
11
70.772016
21
104.573924
0
LINE
8
boundary
62
5
39
2
10
70.772016
20
104.573924
11
69.798032
21
109.811782
0
LINE
8
boundary
62
5
39
2
10
69.798032
20
109.811782
11
69.667277
21
110.334375
0
LINE
8
boundary
62
5
39
2
10
69.667277
20
110.334375
11
68.496510
21
115.013613
0
LINE
8
boundary
62
5
39
2
10
68.496510
20
115.013613
11
68.200797
21
115.947938
0
LINE
8
boundary
62
5
39
2
10
68.200797
20
115.947938
11
66.865074
21
120.168223
0
LINE
8
boundary
62
5
39
2
10
66.865074
20
120.168223
11
66.306702
21
121.616732
0
LINE
8
boundary
62
5
39
2
10
66.306702
20
121.616732
11
64.900849
21
125.263754
0
LINE
8
boundary
62
5
39
2
10
64.900849
20
125.263754
11
63.957493
21
127.323987
0
LINE
8
boundary
62
5
39
2
10
63.957493
20
127.323987
11
62.600539
21
130.287495
0
LINE
8
boundary
62
5
39
2
10
62.600539
20
130.287495
11
61.124160
21
133.049123
0
LINE
8
boundary
62
5
39
2
10
61.124160
20
133.049123
11
59.960539
21
135.225733
0
LINE
8
boundary
62
5
39
2
10
59.960539
20
135.225733
11
57.776557
21
138.767150
0
LINE
8
boundary
62
5
39
2
10
57.776557
20
138.767150
11
56.977025
21
140.063617
0
LINE
8
boundary
62
5
39
2
10
56.977025
20
140.063617
11
53.883878
21
144.447961
0
LINE
8
boundary
62
5
39
2
10
53.883878
20
144.447961
11
52.448871
21
146.276501
0
LINE
8
boundary
62
5
39
2
10
52.448871
20
146.276501
11
49.909242
21
149.309635
0
LINE
8
boundary
62
5
39
2
10
49.909242
20
149.309635
11
49.230656
21
150.022174
0
LINE
8
boundary
62
5
39
2
10
49.230656
20
150.022174
11
45.795167
21
153.629579
0
LINE
8
boundary
62
5
39
2
10
45.795167
20
153.629579
11
43.857118
21
155.419358
0
LINE
8
boundary
62
5
39
2
10
43.857118
20
155.419358
11
41.333083
21
157.750297
0
LINE
8
boundary
62
5
39
2
10
41.333083
20
157.750297
11
37.831743
21
160.588740
0
LINE
8
boundary
62
5
39
2
10
37.831743
20
160.588740
11
36.525007
21
161.648071
0
LINE
8
boundary
62
5
39
2
10
36.525007
20
161.648071
11
32.109129
21
164.776935
0
LINE
8
boundary
62
5
39
2
10
32.109129
20
164.776935
11
31.365276
21
165.276427
0
LINE
8
boundary
62
5
39
2
10
31.365276
20
165.276427
11
25.822372
21
168.485492
0
LINE
8
boundary
62
5
39
2
10
25.822372
20
168.485492
11
23.404602
21
169.676847
0
LINE
8
boundary
62
5
39
2
10
23.404602
20
169.676847
11
19.972523
21
171.368005
0
LINE
8
boundary
62
5
39
2
10
19.972523
20
171.368005
11
15.081044
21
173.380769
0
LINE
8
boundary
62
5
39
2
10
15.081044
20
173.380769
11
13.830483
21
173.895351
0
LINE
8
boundary
62
5
39
2
10
13.830483
20
173.895351
11
10.556685
21
174.988664
0
LINE
8
boundary
62
5
39
2
10
10.556685
20
174.988664
11
7.404969
21
175.945255
0
LINE
8
boundary
62
5
39
2
10
7.404969
20
175.945255
11
6.667500
21
176.114086
0
LINE
8
boundary
62
5
39
2
10
6.667500
20
176.114086
11
6.667500
21
169.948373
0
LINE
8
boundary
62
5
39
2
10
6.667500
20
169.948373
11
18.051659
21
169.723330
0
LINE
8
boundary
62
5
39
2
10
18.051659
20
169.723330
11
18.051659
21
165.476449
0
LINE
8
boundary
62
5
39
2
10
18.051659
20
165.476449
11
6.752844
21
165.476450
0
LINE
8
boundary
62
5
39
2
10
6.752844
20
165.476450
11
6.667500
21
160.987004
0
LINE
8
boundary
62
5
39
2
10
6.667500
20
160.987004
11
7.805189
21
160.645585
0
LINE
8
boundary
62
5
39
2
10
7.805189
20
160.645585
11
9.635412
21
159.948705
0
LINE
8
boundary
62
5
39
2
10
9.635412
20
159.948705
11
13.328973
21
158.542327
0
LINE
8
boundary
62
5
39
2
10
13.328973
20
158.542327
11
13.876642
21
158.287632
0
LINE
8
boundary
62
5
39
2
10
13.876642
20
158.287632
11
15.778962
21
157.402948
0
LINE
8
boundary
62
5
39
2
10
15.778962
20
157.402948
11
17.972987
21
156.296058
0
LINE
8
boundary
62
5
39
2
10
17.972987
20
156.296058
11
18.547368
21
156.006286
0
LINE
8
boundary
62
5
39
2
10
18.547368
20
156.006286
11
21.897546
21
154.014055
0
LINE
8
boundary
62
5
39
2
10
21.897546
20
154.014055
11
23.432797
21
153.101098
0
LINE
8
boundary
62
5
39
2
10
23.432797
20
153.101098
11
25.640978
21
151.573806
0
LINE
8
boundary
62
5
39
2
10
25.640978
20
151.573806
11
27.997782
21
149.943696
0
LINE
8
boundary
62
5
39
2
10
27.997782
20
149.943696
11
29.203606
21
148.982091
0
LINE
8
boundary
62
5
39
2
10
29.203606
20
148.982091
11
32.238784
21
146.561663
0
LINE
8
boundary
62
5
39
2
10
32.238784
20
146.561663
11
34.078638
21
144.878871
0
LINE
8
boundary
62
5
39
2
10
34.078638
20
144.878871
11
35.761002
21
143.251922
0
LINE
8
boundary
62
5
39
2
10
35.761002
20
143.251922
11
38.716635
21
140.041807
0
LINE
8
boundary
62
5
39
2
10
38.716635
20
140.041807
11
39.606246
21
139.061511
0
LINE
8
boundary
62
5
39
2
10
39.606246
20
139.061511
11
41.468865
21
136.720423
0
LINE
8
boundary
62
5
39
2
10
41.468865
20
136.720423
11
42.775242
21
135.078463
0
LINE
8
boundary
62
5
39
2
10
42.775242
20
135.078463
11
44.017943
21
133.290774
0
LINE
8
boundary
62
5
39
2
10
44.017943
20
133.290774
11
45.620696
21
130.985140
0
LINE
8
boundary
62
5
39
2
10
45.620696
20
130.985140
11
46.363107
21
129.755215
0
LINE
8
boundary
62
5
39
2
10
46.363107
20
129.755215
11
48.148320
21
126.797689
0
LINE
8
boundary
62
5
39
2
10
48.148320
20
126.797689
11
48.502505
21
126.115472
0
LINE
8
boundary
62
5
39
2
10
48.502505
20
126.115472
11
50.363677
21
122.530578
0
LINE
8
boundary
62
5
39
2
10
50.363677
20
122.530578
11
50.994693
21
121.097575
0
LINE
8
boundary
62
5
39
2
10
50.994693
20
121.097575
11
51.815044
21
119.148372
0
LINE
8
boundary
62
5
39
2
10
51.815044
20
119.148372
11
60.118312
21
118.923333
0
LINE
8
boundary
62
5
39
2
10
60.118312
20
118.923333
11
60.118312
21
114.676453
0
LINE
8
boundary
62
5
39
2
10
60.118312
20
114.676453
11
53.614374
21
114.676452
0
LINE
8
boundary
62
5
39
2
10
53.614374
20
114.676452
11
53.769806
21
113.763976
0
LINE
8
boundary
62
5
39
2
10
53.769806
20
113.763976
11
54.744213
21
110.317507
0
LINE
8
boundary
62
5
39
2
10
54.744213
20
110.317507
11
55.025129
21
109.323917
0
LINE
8
boundary
62
5
39
2
10
55.025129
20
109.323917
11
55.720236
21
106.129171
0
LINE
8
boundary
62
5
39
2
10
55.720236
20
106.129171
11
55.996307
21
104.860338
0
LINE
8
boundary
62
5
39
2
10
55.996307
20
104.860338
11
56.458726
21
101.861517
0
LINE
8
boundary
62
5
39
2
10
56.458726
20
101.861517
11
56.687219
21
100.379708
0
LINE
8
boundary
62
5
39
2
10
56.687219
20
100.379708
11
56.950948
21
97.514422
0
LINE
8
boundary
62
5
39
2
10
56.950948
20
97.514422
11
57.100649
21
95.887989
0
LINE
8
boundary
62
5
39
2
10
57.100649
20
95.887989
11
57.186329
21
93.088029
0
LINE
8
boundary
62
5
39
2
10
57.186329
20
93.088029
11
57.238267
21
91.390792
0
LINE
8
boundary
62
5
39
2
10
57.238267
20
91.390792
11
57.152346
21
88.583015
0
LINE
8
boundary
62
5
39
2
10
57.152346
20
88.583015
11
57.100649
21
86.893609
0
LINE
8
boundary
62
5
39
2
10
57.100649
20
86.893609
11
56.834378
21
84.000700
0
LINE
8
boundary
62
5
39
2
10
56.834378
20
84.000700
11
56.687219
21
82.401884
0
LINE
8
boundary
62
5
39
2
10
56.687219
20
82.401884
11
56.215596
21
79.343366
0
LINE
8
boundary
62
5
39
2
10
56.215596
20
79.343366
11
55.996307
21
77.921255
0
LINE
8
boundary
62
5
39
2
10
55.996307
20
77.921255
11
55.276839
21
74.614548
0
LINE
8
boundary
62
5
39
2
10
55.276839
20
74.614548
11
55.025129
21
73.457679
0
LINE
8
boundary
62
5
39
2
10
55.025129
20
73.457679
11
53.996483
21
69.819369
0
LINE
8
boundary
62
5
39
2
10
53.996483
20
69.819369
11
53.769806
21
69.017619
0
LINE
8
boundary
62
5
39
2
10
53.769806
20
69.017619
11
53.535400
21
68.348380
0
LINE
8
boundary
62
5
39
2
10
53.535400
20
68.348380
11
60.124416
21
68.123335
0
LINE
8
boundary
62
5
39
2
10
60.124416
20
68.123335
11
60.124415
21
63.876456
0
LINE
8
boundary
62
5
39
2
10
60.124415
20
63.876456
11
51.917410
21
63.876456
0
LINE
8
boundary
62
5
39
2
10
51.917410
20
63.876456
11
50.994693
21
61.684019
0
LINE
8
boundary
62
5
39
2
10
50.994693
20
61.684019
11
50.363677
21
60.251012
0
LINE
8
boundary
62
5
39
2
10
50.363677
20
60.251012
11
48.148320
21
55.983911
0
LINE
8
boundary
62
5
39
2
10
48.148320
20
55.983911
11
47.613299
21
55.097555
0
LINE
8
boundary
62
5
39
2
10
47.613299
20
55.097555
11
45.620697
21
51.796461
0
LINE
8
boundary
62
5
39
2
10
45.620697
20
51.796461
11
44.476252
21
50.150120
0
LINE
8
boundary
62
5
39
2
10
44.476252
20
50.150120
11
42.775243
21
47.703134
0
LINE
8
boundary
62
5
39
2
10
42.775243
20
47.703134
11
40.816250
21
45.240910
0
LINE
8
boundary
62
5
39
2
10
40.816250
20
45.240910
11
39.606246
21
43.720075
0
LINE
8
boundary
62
5
39
2
10
39.606246
20
43.720075
11
36.600089
21
40.407481
0
LINE
8
boundary
62
5
39
2
10
36.600089
20
40.407481
11
36.108073
21
39.865309
0
LINE
8
boundary
62
5
39
2
10
36.108073
20
39.865309
11
34.078638
21
37.902729
0
LINE
8
boundary
62
5
39
2
10
34.078638
20
37.902729
11
32.238785
21
36.219939
0
LINE
8
boundary
62
5
39
2
10
32.238785
20
36.219939
11
31.647761
21
35.748620
0
LINE
8
boundary
62
5
39
2
10
31.647761
20
35.748620
11
27.997782
21
32.837895
0
LINE
8
boundary
62
5
39
2
10
27.997782
20
32.837895
11
25.894541
21
31.383179
0
LINE
8
boundary
62
5
39
2
10
25.894541
20
31.383179
11
23.432798
21
29.680504
0
LINE
8
boundary
62
5
39
2
10
23.432798
20
29.680504
11
19.498705
21
27.341038
0
LINE
8
boundary
62
5
39
2
10
19.498705
20
27.341038
11
18.547369
21
26.775312
0
LINE
8
boundary
62
5
39
2
10
18.547369
20
26.775312
11
15.778963
21
25.378648
0
LINE
8
boundary
62
5
39
2
10
15.778963
20
25.378648
11
13.328973
21
24.239268
0
LINE
8
boundary
62
5
39
2
10
13.328973
20
24.239268
11
12.315243
21
23.853277
0
LINE
8
boundary
62
5
39
2
10
12.315243
20
23.853277
11
7.805189
21
22.136014
0
LINE
8
boundary
62
5
39
2
10
7.805189
20
22.136014
11
6.667500
21
21.794593
0
LINE
8
boundary
62
5
39
2
10
6.667500
20
21.794593
11
6.667500
21
17.548382
0
LINE
8
boundary
62
5
39
2
10
6.667500
20
17.548382
11
18.067370
21
17.323338
0
LINE
8
boundary
62
5
39
2
10
18.067370
20
17.323338
11
18.067370
21
13.076458
0
LINE
8
boundary
62
5
39
2
10
18.067370
20
13.076458
11
6.752844
21
13.076459
0
LINE
8
boundary
62
5
39
2
10
6.752844
20
13.076459
11
6.667500
21
6.667500
0
LINE
8
boundary
62
5
39
2
10
6.667500
20
6.667500
11
7.404969
21
6.836330
0
LINE
8
boundary
62
5
39
2
10
7.404969
20
6.836330
11
8.131923
21
7.056972
0
LINE
8
boundary
62
5
39
2
10
8.131923
20
7.056972
11
10.556685
21
7.792923
0
LINE
8
boundary
62
5
39
2
10
10.556685
20
7.792923
11
13.114279
21
8.647055
0
LINE
8
boundary
62
5
39
2
10
13.114279
20
8.647055
11
13.830483
21
8.886238
0
LINE
8
boundary
62
5
39
2
10
13.830483
20
8.886238
11
17.957559
21
10.584469
0
LINE
8
boundary
62
5
39
2
10
17.957559
20
10.584469
11
19.972523
21
11.413591
0
LINE
8
boundary
62
5
39
2
10
19.972523
20
11.413591
11
22.641073
21
12.728518
0
LINE
8
boundary
62
5
39
2
10
22.641073
20
12.728518
11
25.822373
21
14.296108
0
LINE
8
boundary
62
5
39
2
10
25.822373
20
14.296108
11
27.162184
21
15.071791
0
LINE
8
boundary
62
5
39
2
10
27.162184
20
15.071791
11
31.365275
21
17.505170
0
LINE
8
boundary
62
5
39
2
10
31.365275
20
17.505170
11
32.109129
21
18.004661
0
LINE
8
boundary
62
5
39
2
10
32.109129
20
18.004661
11
35.677878
21
20.533290
0
LINE
8
boundary
62
5
39
2
10
35.677878
20
20.533290
11
36.525006
21
21.133525
0
LINE
8
boundary
62
5
39
2
10
36.525006
20
21.133525
11
39.638675
21
23.657689
0
LINE
8
boundary
62
5
39
2
10
39.638675
20
23.657689
11
41.333083
21
25.031298
0
LINE
8
boundary
62
5
39
2
10
41.333083
20
25.031298
11
43.402040
21
26.941978
0
LINE
8
boundary
62
5
39
2
10
43.402040
20
26.941978
11
45.795167
21
29.152026
0
LINE
8
boundary
62
5
39
2
10
45.795167
20
29.152026
11
46.966185
21
30.381635
0
LINE
8
boundary
62
5
39
2
10
46.966185
20
30.381635
11
49.909242
21
33.471946
0
LINE
8
boundary
62
5
39
2
10
49.909242
20
33.471946
11
50.328655
21
33.972861
0
LINE
8
boundary
62
5
39
2
10
50.328655
20
33.972861
11
52.448871
21
36.505081
0
LINE
8
boundary
62
5
39
2
10
52.448871
20
36.505081
11
53.464822
21
37.770756
0
LINE
8
boundary
62
5
39
2
10
53.464822
20
37.770756
11
56.340247
21
41.815380
0
LINE
8
annotation
62
1
39
211
10
22.810028
20
13.504290
11
22.810028
21
16.895507
0
LINE
8
annotation
62
1
39
211
10
22.810028
20
16.895507
11
22.056117
21
16.141383
0
LINE
8
annotation
62
1
39
211
10
66.495381
20
63.878858
11
64.611404
21
63.878858
0
LINE
8
annotation
62
1
39
211
10
64.611404
20
63.878858
11
66.352260
21
66.681413
0
LINE
8
annotation
62
1
39
211
10
66.352260
20
66.681413
11
66.352260
21
66.681413
0
LINE
8
annotation
62
1
39
211
10
66.352260
20
66.681413
11
66.354341
21
66.683988
0
LINE
8
annotation
62
1
39
211
10
66.354341
20
66.683988
11
66.356337
21
66.686585
0
LINE
8
annotation
62
1
39
211
10
66.356337
20
66.686585
11
66.358260
21
66.689226
0
LINE
8
annotation
62
1
39
211
10
66.358260
20
66.689226
11
66.360125
21
66.691932
0
LINE
8
annotation
62
1
39
211
10
66.360125
20
66.691932
11
66.361943
21
66.694727
0
LINE
8
annotation
62
1
39
211
10
66.361943
20
66.694727
11
66.363729
21
66.697630
0
LINE
8
annotation
62
1
39
211
10
66.363729
20
66.697630
11
66.365494
21
66.700665
0
LINE
8
annotation
62
1
39
211
10
66.365494
20
66.700665
11
66.367254
21
66.703853
0
LINE
8
annotation
62
1
39
211
10
66.367254
20
66.703853
11
66.369020
21
66.707217
0
LINE
8
annotation
62
1
39
211
10
66.369020
20
66.707217
11
66.369020
21
66.707217
0
LINE
8
annotation
62
1
39
211
10
66.369020
20
66.707217
11
66.440899
21
66.861548
0
LINE
8
annotation
62
1
39
211
10
66.440899
20
66.861548
11
66.482890
21
67.021527
0
LINE
8
annotation
62
1
39
211
10
66.482890
20
67.021527
11
66.496021
21
67.183536
0
LINE
8
annotation
62
1
39
211
10
66.496021
20
67.183536
11
66.481321
21
67.343963
0
LINE
8
annotation
62
1
39
211
10
66.481321
20
67.343963
11
66.439820
21
67.499193
0
LINE
8
annotation
62
1
39
211
10
66.439820
20
67.499193
11
66.372547
21
67.645609
0
LINE
8
annotation
62
1
39
211
10
66.372547
20
67.645609
11
66.280530
21
67.779598
0
LINE
8
annotation
62
1
39
211
10
66.280530
20
67.779598
11
66.164798
21
67.897544
0
LINE
8
annotation
62
1
39
211
10
66.164798
20
67.897544
11
66.026382
21
67.995834
0
LINE
8
annotation
62
1
39
211
10
66.026382
20
67.995834
11
66.026382
21
67.995834
0
LINE
8
annotation
62
1
39
211
10
66.026382
20
67.995834
11
65.871621
21
68.066692
0
LINE
8
annotation
62
1
39
211
10
65.871621
20
68.066692
11
65.711398
21
68.108036
0
LINE
8
annotation
62
1
39
211
10
65.711398
20
68.108036
11
65.549293
21
68.120796
0
LINE
8
annotation
62
1
39
211
10
65.549293
20
68.120796
11
65.388891
21
68.105902
0
LINE
8
annotation
62
1
39
211
10
65.388891
20
68.105902
11
65.233771
21
68.064286
0
LINE
8
annotation
62
1
39
211
10
65.233771
20
68.064286
11
65.087517
21
67.996878
0
LINE
8
annotation
62
1
39
211
10
65.087517
20
67.996878
11
64.953709
21
67.904608
0
LINE
8
annotation
62
1
39
211
10
64.953709
20
67.904608
11
64.835931
21
67.788407
0
LINE
8
annotation
62
1
39
211
10
64.835931
20
67.788407
11
64.737765
21
67.649205
0
LINE
8
annotation
62
1
39
211
10
64.737765
20
67.649205
11
64.614064
21
67.411913
0
LINE
8
annotation
62
1
39
211
10
64.605736
20
114.678810
11
65.547818
21
114.678810
0
LINE
8
annotation
62
1
39
211
10
65.547818
20
114.678810
11
65.547818
21
114.678810
0
LINE
8
annotation
62
1
39
211
10
65.547818
20
114.678810
11
65.717254
21
114.694010
0
LINE
8
annotation
62
1
39
211
10
65.717254
20
114.694010
11
65.876687
21
114.737816
0
LINE
8
annotation
62
1
39
211
10
65.876687
20
114.737816
11
66.023466
21
114.807539
0
LINE
8
annotation
62
1
39
211
10
66.023466
20
114.807539
11
66.154939
21
114.900491
0
LINE
8
annotation
62
1
39
211
10
66.154939
20
114.900491
11
66.268453
21
115.013982
0
LINE
8
annotation
62
1
39
211
10
66.268453
20
115.013982
11
66.361359
21
115.145324
0
LINE
8
annotation
62
1
39
211
10
66.361359
20
115.145324
11
66.431003
21
115.291827
0
LINE
8
annotation
62
1
39
211
10
66.431003
20
115.291827
11
66.474734
21
115.450803
0
LINE
8
annotation
62
1
39
211
10
66.474734
20
115.450803
11
66.489900
21
115.619563
0
LINE
8
annotation
62
1
39
211
10
66.489900
20
115.619563
11
66.489900
21
116.091269
0
LINE
8
annotation
62
1
39
211
10
66.489900
20
116.091269
11
66.489900
21
116.091269
0
LINE
8
annotation
62
1
39
211
10
66.489900
20
116.091269
11
66.474734
21
116.259958
0
LINE
8
annotation
62
1
39
211
10
66.474734
20
116.259958
11
66.431003
21
116.418897
0
LINE
8
annotation
62
1
39
211
10
66.431003
20
116.418897
11
66.361359
21
116.565389
0
LINE
8
annotation
62
1
39
211
10
66.361359
20
116.565389
11
66.268453
21
116.696740
0
LINE
8
annotation
62
1
39
211
10
66.268453
20
116.696740
11
66.154939
21
116.810253
0
LINE
8
annotation
62
1
39
211
10
66.154939
20
116.810253
11
66.023466
21
116.903233
0
LINE
8
annotation
62
1
39
211
10
66.023466
20
116.903233
11
65.876687
21
116.972985
0
LINE
8
annotation
62
1
39
211
10
65.876687
20
116.972985
11
65.717254
21
117.016813
0
LINE
8
annotation
62
1
39
211
10
65.717254
20
117.016813
11
65.547818
21
117.032021
0
LINE
8
annotation
62
1
39
211
10
65.547818
20
117.032021
11
65.076112
21
117.032021
0
LINE
8
annotation
62
1
39
211
10
65.076112
20
117.032021
11
65.547818
21
117.032021
0
LINE
8
annotation
62
1
39
211
10
65.547818
20
117.032021
11
65.547818
21
117.032021
0
LINE
8
annotation
62
1
39
211
10
65.547818
20
117.032021
11
65.717254
21
117.047233
0
LINE
8
annotation
62
1
39
211
10
65.717254
20
117.047233
11
65.876687
21
117.091086
0
LINE
8
annotation
62
1
39
211
10
65.876687
20
117.091086
11
66.023466
21
117.160907
0
LINE
8
annotation
62
1
39
211
10
66.023466
20
117.160907
11
66.154939
21
117.254023
0
LINE
8
annotation
62
1
39
211
10
66.154939
20
117.254023
11
66.268453
21
117.367758
0
LINE
8
annotation
62
1
39
211
10
66.268453
20
117.367758
11
66.361359
21
117.499441
0
LINE
8
annotation
62
1
39
211
10
66.361359
20
117.499441
11
66.431003
21
117.646397
0
LINE
8
annotation
62
1
39
211
10
66.431003
20
117.646397
11
66.474734
21
117.805952
0
LINE
8
annotation
62
1
39
211
10
66.474734
20
117.805952
11
66.489900
21
117.975434
0
LINE
8
annotation
62
1
39
211
10
66.489900
20
117.975434
11
66.489900
21
117.975434
0
LINE
8
annotation
62
1
39
211
10
66.489900
20
117.975434
11
66.474734
21
118.144123
0
LINE
8
annotation
62
1
39
211
10
66.474734
20
118.144123
11
66.431003
21
118.303062
0
LINE
8
annotation
62
1
39
211
10
66.431003
20
118.303062
11
66.361359
21
118.449554
0
LINE
8
annotation
62
1
39
211
10
66.361359
20
118.449554
11
66.268453
21
118.580905
0
LINE
8
annotation
62
1
39
211
10
66.268453
20
118.580905
11
66.154939
21
118.694418
0
LINE
8
annotation
62
1
39
211
10
66.154939
20
118.694418
11
66.023466
21
118.787398
0
LINE
8
annotation
62
1
39
211
10
66.023466
20
118.787398
11
65.876687
21
118.857150
0
LINE
8
annotation
62
1
39
211
10
65.876687
20
118.857150
11
65.717254
21
118.900977
0
LINE
8
annotation
62
1
39
211
10
65.717254
20
118.900977
11
65.547818
21
118.916186
0
LINE
8
annotation
62
1
39
211
10
65.547818
20
118.916186
11
64.605736
21
118.916186
0
LINE
8
annotation
62
1
39
211
10
24.778745
20
164.599694
11
22.379600
21
164.599694
0
LINE
8
annotation
62
1
39
211
10
22.379600
20
164.599694
11
23.337741
21
167.959960
0
LINE
8
annotation
62
1
39
211
10
24.059598
20
163.639115
11
24.059598
21
165.558106
0
LINE
8
annotation
62
1
39
211
10
61.392687
20
94.239994
11
60.375396
21
92.768576
0
LINE
8
annotation
62
1
39
211
10
60.375396
20
92.768576
11
59.357914
21
94.239994
0
LINE
8
annotation
62
1
39
211
10
60.375396
20
92.886985
11
60.375396
21
91.189460
0
LINE
8
annotation
62
1
39
211
10
64.204825
20
92.714727
11
62.536949
21
92.714727
0
LINE
8
annotation
62
1
39
211
10
66.026643
20
91.189555
11
66.704773
21
94.239899
0
LINE
8
annotation
62
1
39
211
10
66.704773
20
94.239899
11
65.348321
21
94.239899
0
LINE
8
annotation
62
1
39
211
10
66.704773
20
92.881534
11
66.026643
21
92.881534
0
LINE
8
boundary
62
5
39
2
10
6.667500
20
194.634858
11
6.667500
21
188.887781
0
LINE
8
boundary
62
5
39
2
10
6.667500
20
188.887781
11
14.139186
21
188.662737
0
LINE
8
boundary
62
5
39
2
10
14.139186
20
188.662737
11
14.139185
21
184.415857
0
LINE
8
boundary
62
5
39
2
10
14.139185
20
184.415857
11
6.752844
21
184.415857
0
LINE
8
boundary
62
5
39
2
10
6.752844
20
184.415857
11
6.667500
21
179.289086
0
LINE
8
boundary
62
5
39
2
10
6.667500
20
179.289086
11
11.792769
21
181.716623
0
LINE
8
boundary
62
5
39
2
10
11.792769
20
181.716623
11
16.254986
21
184.137306
0
LINE
8
boundary
62
5
39
2
10
16.254986
20
184.137306
11
18.371495
21
185.423957
0
LINE
8
boundary
62
5
39
2
10
18.371495
20
185.423957
11
21.023278
21
187.232321
0
LINE
8
boundary
62
5
39
2
10
21.023278
20
187.232321
11
24.355568
21
189.504752
0
LINE
8
boundary
62
5
39
2
10
24.355568
20
189.504752
11
26.854199
21
191.407724
0
LINE
8
boundary
62
5
39
2
10
26.854199
20
191.407724
11
29.747055
21
193.833788
0
LINE
8
boundary
62
5
39
2
10
29.747055
20
193.833788
11
32.405185
21
196.299196
0
LINE
8
boundary
62
5
39
2
10
32.405185
20
196.299196
11
34.571177
21
198.308147
0
LINE
8
boundary
62
5
39
2
10
34.571177
20
198.308147
11
36.763675
21
200.556784
0
LINE
8
boundary
62
5
39
2
10
36.763675
20
200.556784
11
38.842572
21
202.886282
0
LINE
8
boundary
62
5
39
2
10
38.842572
20
202.886282
11
40.207939
21
204.571488
0
LINE
8
boundary
62
5
39
2
10
40.207939
20
204.571488
11
42.592009
21
207.514032
0
LINE
8
boundary
62
5
39
2
10
42.592009
20
207.514032
11
45.929397
21
212.064081
0
LINE
8
boundary
62
5
39
2
10
45.929397
20
212.064081
11
48.743362
21
216.686664
0
LINE
8
boundary
62
5
39
2
10
48.743362
20
216.686664
11
49.861574
21
218.728527
0
LINE
8
boundary
62
5
39
2
10
49.861574
20
218.728527
11
51.214289
21
221.198597
0
LINE
8
boundary
62
5
39
2
10
51.214289
20
221.198597
11
53.023319
21
224.897832
0
LINE
8
boundary
62
5
39
2
10
53.023319
20
224.897832
11
53.373540
21
225.613988
0
LINE
8
boundary
62
5
39
2
10
53.373540
20
225.613988
11
54.301400
21
227.759258
0
LINE
8
boundary
62
5
39
2
10
54.301400
20
227.759258
11
55.184509
21
229.980219
0
LINE
8
boundary
62
5
39
2
10
55.184509
20
229.980219
11
55.383166
21
230.551032
0
LINE
8
boundary
62
5
39
2
10
55.383166
20
230.551032
11
56.682523
21
234.284525
0
LINE
8
boundary
62
5
39
2
10
56.682523
20
234.284525
11
57.128754
21
235.774332
0
LINE
8
boundary
62
5
39
2
10
57.128754
20
235.774332
11
57.945775
21
238.502079
0
LINE
8
boundary
62
5
39
2
10
57.945775
20
238.502079
11
58.502751
21
240.712781
0
LINE
8
boundary
62
5
39
2
10
58.502751
20
240.712781
11
58.990091
21
242.647108
0
LINE
8
boundary
62
5
39
2
10
58.990091
20
242.647108
11
59.556517
21
245.408443
0
LINE
8
boundary
62
5
39
2
10
59.556517
20
245.408443
11
59.828212
21
246.732973
0
LINE
8
boundary
62
5
39
2
10
59.828212
20
246.732973
11
60.331021
21
249.896865
0
LINE
8
boundary
62
5
39
2
10
60.331021
20
249.896865
11
60.470148
21
250.772311
0
LINE
8
boundary
62
5
39
2
10
60.470148
20
250.772311
11
60.859070
21
254.208467
0
LINE
8
boundary
62
5
39
2
10
60.859070
20
254.208467
11
60.923443
21
254.777198
0
LINE
8
boundary
62
5
39
2
10
60.923443
20
254.777198
11
61.166943
21
258.369637
0
LINE
8
boundary
62
5
39
2
10
61.166943
20
258.369637
11
61.275615
21
262.403488
0
LINE
8
boundary
62
5
39
2
10
61.275615
20
262.403488
11
61.201720
21
266.330577
0
LINE
8
boundary
62
5
39
2
10
61.201720
20
266.330577
11
60.958270
21
270.169377
0
LINE
8
boundary
62
5
39
2
10
60.958270
20
270.169377
11
60.923443
21
270.683195
0
LINE
8
boundary
62
5
39
2
10
60.923443
20
270.683195
11
60.555192
21
273.936732
0
LINE
8
boundary
62
5
39
2
10
60.555192
20
273.936732
11
60.470148
21
274.688087
0
LINE
8
boundary
62
5
39
2
10
60.470148
20
274.688087
11
59.999722
21
277.648202
0
LINE
8
boundary
62
5
39
2
10
59.999722
20
277.648202
11
59.828213
21
278.727414
0
LINE
8
boundary
62
5
39
2
10
59.828213
20
278.727414
11
59.296733
21
281.318388
0
LINE
8
boundary
62
5
39
2
10
59.296733
20
281.318388
11
58.990092
21
282.813282
0
LINE
8
boundary
62
5
39
2
10
58.990092
20
282.813282
11
58.448946
21
284.961153
0
LINE
8
boundary
62
5
39
2
10
58.448946
20
284.961153
11
57.945776
21
286.958317
0
LINE
8
boundary
62
5
39
2
10
57.945776
20
286.958317
11
57.457076
21
288.589910
0
LINE
8
boundary
62
5
39
2
10
57.457076
20
288.589910
11
56.682522
21
291.175874
0
LINE
8
boundary
62
5
39
2
10
56.682522
20
291.175874
11
56.319913
21
292.217775
0
LINE
8
boundary
62
5
39
2
10
56.319913
20
292.217775
11
55.184509
21
295.480168
0
LINE
8
boundary
62
5
39
2
10
55.184509
20
295.480168
11
54.301400
21
297.701142
0
LINE
8
boundary
62
5
39
2
10
54.301400
20
297.701142
11
53.558855
21
299.417961
0
LINE
8
boundary
62
5
39
2
10
53.558855
20
299.417961
11
51.891846
21
302.876281
0
LINE
8
boundary
62
5
39
2
10
51.891846
20
302.876281
11
51.214288
21
304.261794
0
LINE
8
boundary
62
5
39
2
10
51.214288
20
304.261794
11
50.070166
21
306.350979
0
LINE
8
boundary
62
5
39
2
10
50.070166
20
306.350979
11
48.743362
21
308.773735
0
LINE
8
boundary
62
5
39
2
10
48.743362
20
308.773735
11
48.086245
21
309.853243
0
LINE
8
boundary
62
5
39
2
10
48.086245
20
309.853243
11
45.930857
21
313.394153
0
LINE
8
boundary
62
5
39
2
10
45.930857
20
313.394153
11
43.539103
21
316.655125
0
LINE
8
boundary
62
5
39
2
10
43.539103
20
316.655125
11
42.592009
21
317.946353
0
LINE
8
boundary
62
5
39
2
10
42.592009
20
317.946353
11
40.977629
21
319.938909
0
LINE
8
boundary
62
5
39
2
10
40.977629
20
319.938909
11
38.842572
21
322.574113
0
LINE
8
boundary
62
5
39
2
10
38.842572
20
322.574113
11
38.234301
21
323.255712
0
LINE
8
boundary
62
5
39
2
10
38.234301
20
323.255712
11
36.763675
21
324.903612
0
LINE
8
boundary
62
5
39
2
10
36.763675
20
324.903612
11
35.282018
21
326.423203
0
LINE
8
boundary
62
5
39
2
10
35.282018
20
326.423203
11
34.571177
21
327.152246
0
LINE
8
boundary
62
5
39
2
10
34.571177
20
327.152246
11
32.131761
21
329.414802
0
LINE
8
boundary
62
5
39
2
10
32.131761
20
329.414802
11
29.747055
21
331.626607
0
LINE
8
boundary
62
5
39
2
10
29.747055
20
331.626607
11
28.792216
21
332.427368
0
LINE
8
boundary
62
5
39
2
10
28.792216
20
332.427368
11
26.854199
21
334.052672
0
LINE
8
boundary
62
5
39
2
10
26.854199
20
334.052672
11
25.251483
21
335.273312
0
LINE
8
boundary
62
5
39
2
10
25.251483
20
335.273312
11
24.355568
21
335.955649
0
LINE
8
boundary
62
5
39
2
10
24.355568
20
335.955649
11
21.525758
21
337.885408
0
LINE
8
boundary
62
5
39
2
10
21.525758
20
337.885408
11
18.371495
21
340.036444
0
LINE
8
boundary
62
5
39
2
10
18.371495
20
340.036444
11
17.607305
21
340.501005
0
LINE
8
boundary
62
5
39
2
10
17.607305
20
340.501005
11
16.254986
21
341.323092
0
LINE
8
boundary
62
5
39
2
10
16.254986
20
341.323092
11
13.513243
21
342.810431
0
LINE
8
boundary
62
5
39
2
10
13.513243
20
342.810431
11
11.792769
21
343.743758
0
LINE
8
boundary
62
5
39
2
10
11.792769
20
343.743758
11
9.252355
21
344.947008
0
LINE
8
boundary
62
5
39
2
10
9.252355
20
344.947008
11
6.667500
21
346.171297
0
LINE
8
boundary
62
5
39
2
10
6.667500
20
346.171297
11
6.667500
21
341.287772
0
LINE
8
boundary
62
5
39
2
10
6.667500
20
341.287772
11
14.125852
21
341.062728
0
LINE
8
boundary
62
5
39
2
10
14.125852
20
341.062728
11
14.125852
21
336.815848
0
LINE
8
boundary
62
5
39
2
10
14.125852
20
336.815848
11
6.752844
21
336.815848
0
LINE
8
boundary
62
5
39
2
10
6.752844
20
336.815848
11
6.667500
21
330.825544
0
LINE
8
boundary
62
5
39
2
10
6.667500
20
330.825544
11
7.745196
21
330.291913
0
LINE
8
boundary
62
5
39
2
10
7.745196
20
330.291913
11
8.638116
21
329.783934
0
LINE
8
boundary
62
5
39
2
10
8.638116
20
329.783934
11
9.894842
21
328.976325
0
LINE
8
boundary
62
5
39
2
10
9.894842
20
328.976325
11
14.342619
21
326.118051
0
LINE
8
boundary
62
5
39
2
10
14.342619
20
326.118051
11
17.281313
21
323.997346
0
LINE
8
boundary
62
5
39
2
10
17.281313
20
323.997346
11
19.450552
21
322.241949
0
LINE
8
boundary
62
5
39
2
10
19.450552
20
322.241949
11
21.630442
21
320.286708
0
LINE
8
boundary
62
5
39
2
10
21.630442
20
320.286708
11
23.963797
21
318.193813
0
LINE
8
boundary
62
5
39
2
10
23.963797
20
318.193813
11
26.096414
21
316.074751
0
LINE
8
boundary
62
5
39
2
10
26.096414
20
316.074751
11
27.916264
21
314.066959
0
LINE
8
boundary
62
5
39
2
10
27.916264
20
314.066959
11
29.184130
21
312.525983
0
LINE
8
boundary
62
5
39
2
10
29.184130
20
312.525983
11
31.338031
21
309.908103
0
LINE
8
boundary
62
5
39
2
10
31.338031
20
309.908103
11
34.136129
21
306.150987
0
LINE
8
boundary
62
5
39
2
10
34.136129
20
306.150987
11
34.434688
21
305.691749
0
LINE
8
boundary
62
5
39
2
10
34.434688
20
305.691749
11
36.832104
21
301.751710
0
LINE
8
boundary
62
5
39
2
10
36.832104
20
301.751710
11
37.925290
21
299.756219
0
LINE
8
boundary
62
5
39
2
10
37.925290
20
299.756219
11
38.998399
21
297.797381
0
LINE
8
boundary
62
5
39
2
10
38.998399
20
297.797381
11
40.686498
21
294.348713
0
LINE
8
boundary
62
5
39
2
10
40.686498
20
294.348713
11
41.350913
21
292.864393
0
LINE
8
boundary
62
5
39
2
10
41.350913
20
292.864393
11
42.280906
21
290.487768
0
LINE
8
boundary
62
5
39
2
10
42.280906
20
290.487768
11
50.149094
21
290.262731
0
LINE
8
boundary
62
5
39
2
10
50.149094
20
290.262731
11
50.149094
21
286.015851
0
LINE
8
boundary
62
5
39
2
10
50.149094
20
286.015851
11
43.956848
21
286.015851
0
LINE
8
boundary
62
5
39
2
10
43.956848
20
286.015851
11
44.084221
21
285.070484
0
LINE
8
boundary
62
5
39
2
10
44.084221
20
285.070484
11
44.715612
21
282.932419
0
LINE
8
boundary
62
5
39
2
10
44.715612
20
282.932419
11
45.219360
21
280.905840
0
LINE
8
boundary
62
5
39
2
10
45.219360
20
280.905840
11
45.583429
21
279.441199
0
LINE
8
boundary
62
5
39
2
10
45.583429
20
279.441199
11
46.083366
21
276.972329
0
LINE
8
boundary
62
5
39
2
10
46.083366
20
276.972329
11
46.276388
21
276.019099
0
LINE
8
boundary
62
5
39
2
10
46.276388
20
276.019099
11
46.713909
21
273.231442
0
LINE
8
boundary
62
5
39
2
10
46.713909
20
273.231442
11
46.805026
21
272.650892
0
LINE
8
boundary
62
5
39
2
10
46.805026
20
272.650892
11
47.140479
21
269.650910
0
LINE
8
boundary
62
5
39
2
10
47.140479
20
269.650910
11
47.386126
21
266.203324
0
LINE
8
boundary
62
5
39
2
10
47.386126
20
266.203324
11
47.468787
21
262.864982
0
LINE
8
boundary
62
5
39
2
10
47.468787
20
262.864982
11
47.402310
21
259.615073
0
LINE
8
boundary
62
5
39
2
10
47.402310
20
259.615073
11
47.197107
21
256.434986
0
LINE
8
boundary
62
5
39
2
10
47.197107
20
256.434986
11
46.860744
21
253.307794
0
LINE
8
boundary
62
5
39
2
10
46.860744
20
253.307794
11
46.398265
21
250.217825
0
LINE
8
boundary
62
5
39
2
10
46.398265
20
250.217825
11
46.276388
21
249.441298
0
LINE
8
boundary
62
5
39
2
10
46.276388
20
249.441298
11
45.812464
21
247.150277
0
LINE
8
boundary
62
5
39
2
10
45.812464
20
247.150277
11
45.583430
21
246.019198
0
LINE
8
boundary
62
5
39
2
10
45.583430
20
246.019198
11
45.104109
21
244.090885
0
LINE
8
boundary
62
5
39
2
10
45.104109
20
244.090885
11
44.715612
21
242.527978
0
LINE
8
boundary
62
5
39
2
10
44.715612
20
242.527978
11
44.271962
21
241.025648
0
LINE
8
boundary
62
5
39
2
10
44.271962
20
241.025648
11
43.876878
21
239.687778
0
LINE
8
boundary
62
5
39
2
10
43.876878
20
239.687778
11
50.154945
21
239.462734
0
LINE
8
boundary
62
5
39
2
10
50.154945
20
239.462734
11
50.154945
21
235.215854
0
LINE
8
boundary
62
5
39
2
10
50.154945
20
235.215854
11
42.376081
21
235.215854
0
LINE
8
boundary
62
5
39
2
10
42.376081
20
235.215854
11
41.350913
21
232.596002
0
LINE
8
boundary
62
5
39
2
10
41.350913
20
232.596002
11
40.970626
21
231.718048
0
LINE
8
boundary
62
5
39
2
10
40.970626
20
231.718048
11
39.527135
21
228.743181
0
LINE
8
boundary
62
5
39
2
10
39.527135
20
228.743181
11
38.998399
21
227.663012
0
LINE
8
boundary
62
5
39
2
10
38.998399
20
227.663012
11
37.939338
21
225.729810
0
LINE
8
boundary
62
5
39
2
10
37.939338
20
225.729810
11
36.832105
21
223.708676
0
LINE
8
boundary
62
5
39
2
10
36.832105
20
223.708676
11
36.197062
21
222.665011
0
LINE
8
boundary
62
5
39
2
10
36.197062
20
222.665011
11
34.339008
21
219.611393
0
LINE
8
boundary
62
5
39
2
10
34.339008
20
219.611393
11
32.158922
21
216.654534
0
LINE
8
boundary
62
5
39
2
10
32.158922
20
216.654534
11
31.338031
21
215.552296
0
LINE
8
boundary
62
5
39
2
10
31.338031
20
215.552296
11
29.857461
21
213.752791
0
LINE
8
boundary
62
5
39
2
10
29.857461
20
213.752791
11
27.916264
21
211.393433
0
LINE
8
boundary
62
5
39
2
10
27.916264
20
211.393433
11
27.372046
21
210.793012
0
LINE
8
boundary
62
5
39
2
10
27.372046
20
210.793012
11
26.096414
21
209.385645
0
LINE
8
boundary
62
5
39
2
10
26.096414
20
209.385645
11
24.681033
21
207.979263
0
LINE
8
boundary
62
5
39
2
10
24.681033
20
207.979263
11
23.963797
21
207.266588
0
LINE
8
boundary
62
5
39
2
10
23.963797
20
207.266588
11
21.796899
21
205.322998
0
LINE
8
boundary
62
5
39
2
10
21.796899
20
205.322998
11
19.450552
21
203.218451
0
LINE
8
boundary
62
5
39
2
10
19.450552
20
203.218451
11
18.714985
21
202.623210
0
LINE
8
boundary
62
5
39
2
10
18.714985
20
202.623210
11
17.281314
21
201.463046
0
LINE
8
boundary
62
5
39
2
10
17.281314
20
201.463046
11
15.435776
21
200.131209
0
LINE
8
boundary
62
5
39
2
10
15.435776
20
200.131209
11
14.342619
21
199.342330
0
LINE
8
boundary
62
5
39
2
10
14.342619
20
199.342330
11
11.974462
21
197.820487
0
LINE
8
boundary
62
5
39
2
10
11.974462
20
197.820487
11
8.638116
21
195.676469
0
LINE
8
boundary
62
5
39
2
10
8.638116
20
195.676469
11
7.745196
21
195.168491
0
LINE
8
boundary
62
5
39
2
10
7.745196
20
195.168491
11
6.667500
21
194.634858
0
LINE
8
annotation
62
1
39
211
10
17.451775
20
185.369038
11
17.451775
21
187.709555
0
LINE
8
annotation
62
1
39
211
10
17.451775
20
187.709555
11
16.931448
21
187.189082
0
LINE
8
annotation
62
1
39
211
10
56.262131
20
235.307860
11
54.457744
21
235.307860
0
LINE
8
annotation
62
1
39
211
10
54.457744
20
235.307860
11
56.125057
21
237.992020
0
LINE
8
annotation
62
1
39
211
10
56.125057
20
237.992020
11
56.125057
21
237.992020
0
LINE
8
annotation
62
1
39
211
10
56.125057
20
237.992020
11
56.127050
21
237.994487
0
LINE
8
annotation
62
1
39
211
10
56.127050
20
237.994487
11
56.128961
21
237.996974
0
LINE
8
annotation
62
1
39
211
10
56.128961
20
237.996974
11
56.130804
21
237.999503
0
LINE
8
annotation
62
1
39
211
10
56.130804
20
237.999503
11
56.132589
21
238.002095
0
LINE
8
annotation
62
1
39
211
10
56.132589
20
238.002095
11
56.134331
21
238.004772
0
LINE
8
annotation
62
1
39
211
10
56.134331
20
238.004772
11
56.136041
21
238.007553
0
LINE
8
annotation
62
1
39
211
10
56.136041
20
238.007553
11
56.137732
21
238.010459
0
LINE
8
annotation
62
1
39
211
10
56.137732
20
238.010459
11
56.139417
21
238.013513
0
LINE
8
annotation
62
1
39
211
10
56.139417
20
238.013513
11
56.141108
21
238.016734
0
LINE
8
annotation
62
1
39
211
10
56.141108
20
238.016734
11
56.141108
21
238.016734
0
LINE
8
annotation
62
1
39
211
10
56.141108
20
238.016734
11
56.209951
21
238.164546
0
LINE
8
annotation
62
1
39
211
10
56.209951
20
238.164546
11
56.250168
21
238.317766
0
LINE
8
annotation
62
1
39
211
10
56.250168
20
238.317766
11
56.262744
21
238.472932
0
LINE
8
annotation
62
1
39
211
10
56.262744
20
238.472932
11
56.248666
21
238.626581
0
LINE
8
annotation
62
1
39
211
10
56.248666
20
238.626581
11
56.208918
21
238.775253
0
LINE
8
annotation
62
1
39
211
10
56.208918
20
238.775253
11
56.144486
21
238.915484
0
LINE
8
annotation
62
1
39
211
10
56.144486
20
238.915484
11
56.056357
21
239.043812
0
LINE
8
annotation
62
1
39
211
10
56.056357
20
239.043812
11
55.945514
21
239.156776
0
LINE
8
annotation
62
1
39
211
10
55.945514
20
239.156776
11
55.812945
21
239.250913
0
LINE
8
annotation
62
1
39
211
10
55.812945
20
239.250913
11
55.812945
21
239.250913
0
LINE
8
annotation
62
1
39
211
10
55.812945
20
239.250913
11
55.664722
21
239.318778
0
LINE
8
annotation
62
1
39
211
10
55.664722
20
239.318778
11
55.511268
21
239.358375
0
LINE
8
annotation
62
1
39
211
10
55.511268
20
239.358375
11
55.356012
21
239.370596
0
LINE
8
annotation
62
1
39
211
10
55.356012
20
239.370596
11
55.202385
21
239.356332
0
LINE
8
annotation
62
1
39
211
10
55.202385
20
239.356332
11
55.053819
21
239.316474
0
LINE
8
annotation
62
1
39
211
10
55.053819
20
239.316474
11
54.913743
21
239.251913
0
LINE
8
annotation
62
1
39
211
10
54.913743
20
239.251913
11
54.785588
21
239.163541
0
LINE
8
annotation
62
1
39
211
10
54.785588
20
239.163541
11
54.672786
21
239.052249
0
LINE
8
annotation
62
1
39
211
10
54.672786
20
239.052249
11
54.578766
21
238.918928
0
LINE
8
annotation
62
1
39
211
10
54.578766
20
238.918928
11
54.460291
21
238.691660
0
LINE
8
annotation
62
1
39
211
10
54.452353
20
286.107794
11
55.354646
21
286.107794
0
LINE
8
annotation
62
1
39
211
10
55.354646
20
286.107794
11
55.354646
21
286.107794
0
LINE
8
annotation
62
1
39
211
10
55.354646
20
286.107794
11
55.516926
21
286.122351
0
LINE
8
annotation
62
1
39
211
10
55.516926
20
286.122351
11
55.669625
21
286.164307
0
LINE
8
annotation
62
1
39
211
10
55.669625
20
286.164307
11
55.810205
21
286.231085
0
LINE
8
annotation
62
1
39
211
10
55.810205
20
286.231085
11
55.936125
21
286.320111
0
LINE
8
annotation
62
1
39
211
10
55.936125
20
286.320111
11
56.044845
21
286.428809
0
LINE
8
annotation
62
1
39
211
10
56.044845
20
286.428809
11
56.133827
21
286.554604
0
LINE
8
annotation
62
1
39
211
10
56.133827
20
286.554604
11
56.200529
21
286.694919
0
LINE
8
annotation
62
1
39
211
10
56.200529
20
286.694919
11
56.242413
21
286.847181
0
LINE
8
annotation
62
1
39
211
10
56.242413
20
286.847181
11
56.256939
21
287.008813
0
LINE
8
annotation
62
1
39
211
10
56.256939
20
287.008813
11
56.256939
21
287.460596
0
LINE
8
annotation
62
1
39
211
10
56.256939
20
287.460596
11
56.256939
21
287.460596
0
LINE
8
annotation
62
1
39
211
10
56.256939
20
287.460596
11
56.242413
21
287.622161
0
LINE
8
annotation
62
1
39
211
10
56.242413
20
287.622161
11
56.200529
21
287.774387
0
LINE
8
annotation
62
1
39
211
10
56.200529
20
287.774387
11
56.133827
21
287.914692
0
LINE
8
annotation
62
1
39
211
10
56.133827
20
287.914692
11
56.044845
21
288.040495
0
LINE
8
annotation
62
1
39
211
10
56.044845
20
288.040495
11
55.936125
21
288.149214
0
LINE
8
annotation
62
1
39
211
10
55.936125
20
288.149214
11
55.810205
21
288.238267
0
LINE
8
annotation
62
1
39
211
10
55.810205
20
288.238267
11
55.669625
21
288.305073
0
LINE
8
annotation
62
1
39
211
10
55.669625
20
288.305073
11
55.516926
21
288.347049
0
LINE
8
annotation
62
1
39
211
10
55.516926
20
288.347049
11
55.354646
21
288.361615
0
LINE
8
annotation
62
1
39
211
10
55.354646
20
288.361615
11
54.902862
21
288.361615
0
LINE
8
annotation
62
1
39
211
10
54.902862
20
288.361615
11
55.354646
21
288.361615
0
LINE
8
annotation
62
1
39
211
10
55.354646
20
288.361615
11
55.354646
21
288.361615
0
LINE
8
annotation
62
1
39
211
10
55.354646
20
288.361615
11
55.516926
21
288.376185
0
LINE
8
annotation
62
1
39
211
10
55.516926
20
288.376185
11
55.669625
21
288.418186
0
LINE
8
annotation
62
1
39
211
10
55.669625
20
288.418186
11
55.810205
21
288.485058
0
LINE
8
annotation
62
1
39
211
10
55.810205
20
288.485058
11
55.936125
21
288.574241
0
LINE
8
annotation
62
1
39
211
10
55.936125
20
288.574241
11
56.044845
21
288.683173
0
LINE
8
annotation
62
1
39
211
10
56.044845
20
288.683173
11
56.133827
21
288.809294
0
LINE
8
annotation
62
1
39
211
10
56.133827
20
288.809294
11
56.200529
21
288.950043
0
LINE
8
annotation
62
1
39
211
10
56.200529
20
288.950043
11
56.242413
21
289.102859
0
LINE
8
annotation
62
1
39
211
10
56.242413
20
289.102859
11
56.256939
21
289.265182
0
LINE
8
annotation
62
1
39
211
10
56.256939
20
289.265182
11
56.256939
21
289.265182
0
LINE
8
annotation
62
1
39
211
10
56.256939
20
289.265182
11
56.242413
21
289.426747
0
LINE
8
annotation
62
1
39
211
10
56.242413
20
289.426747
11
56.200529
21
289.578973
0
LINE
8
annotation
62
1
39
211
10
56.200529
20
289.578973
11
56.133827
21
289.719278
0
LINE
8
annotation
62
1
39
211
10
56.133827
20
289.719278
11
56.044845
21
289.845081
0
LINE
8
annotation
62
1
39
211
10
56.044845
20
289.845081
11
55.936125
21
289.953800
0
LINE
8
annotation
62
1
39
211
10
55.936125
20
289.953800
11
55.810205
21
290.042853
0
LINE
8
annotation
62
1
39
211
10
55.810205
20
290.042853
11
55.669625
21
290.109659
0
LINE
8
annotation
62
1
39
211
10
55.669625
20
290.109659
11
55.516926
21
290.151636
0
LINE
8
annotation
62
1
39
211
10
55.516926
20
290.151636
11
55.354646
21
290.166202
0
LINE
8
annotation
62
1
39
211
10
55.354646
20
290.166202
11
54.452353
21
290.166202
0
LINE
8
annotation
62
1
39
211
10
19.095751
20
336.258535
11
17.335347
21
336.258535
0
LINE
8
annotation
62
1
39
211
10
17.335347
20
336.258535
11
18.038395
21
338.724174
0
LINE
8
annotation
62
1
39
211
10
18.568067
20
335.553698
11
18.568067
21
336.961782
0
LINE
8
annotation
62
1
39
211
10
52.660090
20
265.536274
11
51.658194
21
264.087123
0
LINE
8
annotation
62
1
39
211
10
51.658194
20
264.087123
11
50.656110
21
265.536274
0
LINE
8
annotation
62
1
39
211
10
51.658194
20
264.203741
11
51.658194
21
262.531905
0
LINE
8
annotation
62
1
39
211
10
55.429668
20
264.034089
11
53.787034
21
264.034089
0
LINE
8
annotation
62
1
39
211
10
57.223915
20
262.531999
11
57.223915
21
265.536180
0
LINE
8
annotation
62
1
39
211
10
57.223915
20
265.536180
11
56.556048
21
264.868123
0
LINE
8
annotation
62
1
39
211
10
59.018351
20
262.531999
11
59.018351
21
265.536180
0
LINE
8
annotation
62
1
39
211
10
59.018351
20
265.536180
11
58.350483
21
264.868123
0
LINE
8
boundary
62
5
39
2
10
6.667500
20
363.210399
11
6.667500
21
351.543540
0
LINE
8
boundary
62
5
39
2
10
6.667500
20
351.543540
11
7.064373
21
349.535655
0
LINE
8
boundary
62
5
39
2
10
7.064373
20
349.535655
11
10.986834
21
351.407156
0
LINE
8
boundary
62
5
39
2
10
10.986834
20
351.407156
11
13.020691
21
352.377567
0
LINE
8
boundary
62
5
39
2
10
13.020691
20
352.377567
11
15.876536
21
353.482291
0
LINE
8
boundary
62
5
39
2
10
15.876536
20
353.482291
11
20.030123
21
355.089020
0
LINE
8
boundary
62
5
39
2
10
20.030123
20
355.089020
11
20.930374
21
355.361675
0
LINE
8
boundary
62
5
39
2
10
20.930374
20
355.361675
11
23.193621
21
356.047135
0
LINE
8
boundary
62
5
39
2
10
23.193621
20
356.047135
11
26.078551
21
356.832411
0
LINE
8
boundary
62
5
39
2
10
26.078551
20
356.832411
11
27.271462
21
357.157115
0
LINE
8
boundary
62
5
39
2
10
27.271462
20
357.157115
11
31.312314
21
357.933703
0
LINE
8
boundary
62
5
39
2
10
31.312314
20
357.933703
11
34.700080
21
358.584791
0
LINE
8
boundary
62
5
39
2
10
34.700080
20
358.584791
11
36.633327
21
358.808374
0
LINE
8
boundary
62
5
39
2
10
36.633327
20
358.808374
11
41.360856
21
359.355108
0
LINE
8
boundary
62
5
39
2
10
41.360856
20
359.355108
11
42.000201
21
359.408692
0
LINE
8
boundary
62
5
39
2
10
42.000201
20
359.408692
11
47.337104
21
359.473913
0
LINE
8
boundary
62
5
39
2
10
47.337104
20
359.473913
11
49.935094
21
359.495747
0
LINE
8
boundary
62
5
39
2
10
49.935094
20
359.495747
11
52.683670
21
359.315401
0
LINE
8
boundary
62
5
39
2
10
52.683670
20
359.315401
11
57.647554
21
358.989711
0
LINE
8
boundary
62
5
39
2
10
57.647554
20
358.989711
11
57.647553
21
360.543189
0
LINE
8
boundary
62
5
39
2
10
57.647553
20
360.543189
11
57.647553
21
371.547987
0
LINE
8
boundary
62
5
39
2
10
57.647553
20
371.547987
11
49.468516
21
372.118041
0
LINE
8
boundary
62
5
39
2
10
49.468516
20
372.118041
11
41.208572
21
371.869596
0
LINE
8
boundary
62
5
39
2
10
41.208572
20
371.869596
11
35.184790
21
371.262384
0
LINE
8
boundary
62
5
39
2
10
35.184790
20
371.262384
11
33.101173
21
371.052353
0
LINE
8
boundary
62
5
39
2
10
33.101173
20
371.052353
11
30.213771
21
370.554541
0
LINE
8
boundary
62
5
39
2
10
30.213771
20
370.554541
11
25.127569
21
369.527227
0
LINE
8
boundary
62
5
39
2
10
25.127569
20
369.527227
11
21.526223
21
368.534331
0
LINE
8
boundary
62
5
39
2
10
21.526223
20
368.534331
11
17.331265
21
367.377775
0
LINE
8
boundary
62
5
39
2
10
17.331265
20
367.377775
11
11.550841
21
365.335655
0
LINE
8
boundary
62
5
39
2
10
11.550841
20
365.335655
11
9.754738
21
364.647464
0
LINE
8
boundary
62
5
39
2
10
9.754738
20
364.647464
11
8.409860
21
364.021443
0
LINE
8
boundary
62
5
39
2
10
8.409860
20
364.021443
11
6.667500
21
363.210399
0
LINE
8
annotation
62
1
39
211
10
8.125198
20
349.025295
11
7.785751
21
349.025295
0
LINE
8
annotation
62
1
39
211
10
7.785751
20
349.025295
11
7.921315
21
349.500728
0
LINE
8
annotation
62
1
39
211
10
8.023448
20
348.889385
11
8.023448
21
349.160897
0
LINE
8
annotation
62
1
39
211
10
38.939943
20
367.349803
11
37.715686
21
365.579027
0
LINE
8
annotation
62
1
39
211
10
37.715686
20
365.579027
11
36.491198
21
367.349803
0
LINE
8
annotation
62
1
39
211
10
37.715686
20
365.721527
11
37.715686
21
363.678642
0
LINE
8
annotation
62
1
39
211
10
42.324205
20
365.514222
11
40.317003
21
365.514222
0
LINE
8
annotation
62
1
39
211
10
43.700459
20
363.678872
11
44.515633
21
363.678872
0
LINE
8
annotation
62
1
39
211
10
44.515633
20
363.678872
11
44.515633
21
363.678872
0
LINE
8
annotation
62
1
39
211
10
44.515633
20
363.678872
11
44.662244
21
363.692024
0
LINE
8
annotation
62
1
39
211
10
44.662244
20
363.692024
11
44.800200
21
363.729929
0
LINE
8
annotation
62
1
39
211
10
44.800200
20
363.729929
11
44.927206
21
363.790260
0
LINE
8
annotation
62
1
39
211
10
44.927206
20
363.790260
11
45.040968
21
363.870690
0
LINE
8
annotation
62
1
39
211
10
45.040968
20
363.870690
11
45.139191
21
363.968893
0
LINE
8
annotation
62
1
39
211
10
45.139191
20
363.968893
11
45.219581
21
364.082541
0
LINE
8
annotation
62
1
39
211
10
45.219581
20
364.082541
11
45.279844
21
364.209309
0
LINE
8
annotation
62
1
39
211
10
45.279844
20
364.209309
11
45.317684
21
364.346869
0
LINE
8
annotation
62
1
39
211
10
45.317684
20
364.346869
11
45.330807
21
364.492895
0
LINE
8
annotation
62
1
39
211
10
45.330807
20
364.492895
11
45.330807
21
364.901058
0
LINE
8
annotation
62
1
39
211
10
45.330807
20
364.901058
11
45.330807
21
364.901058
0
LINE
8
annotation
62
1
39
211
10
45.330807
20
364.901058
11
45.317684
21
365.047023
0
LINE
8
annotation
62
1
39
211
10
45.317684
20
365.047023
11
45.279844
21
365.184551
0
LINE
8
annotation
62
1
39
211
10
45.279844
20
365.184551
11
45.219581
21
365.311309
0
LINE
8
annotation
62
1
39
211
10
45.219581
20
365.311309
11
45.139191
21
365.424965
0
LINE
8
annotation
62
1
39
211
10
45.139191
20
365.424965
11
45.040968
21
365.523187
0
LINE
8
annotation
62
1
39
211
10
45.040968
20
365.523187
11
44.927206
21
365.603642
0
LINE
8
annotation
62
1
39
211
10
44.927206
20
365.603642
11
44.800200
21
365.663997
0
LINE
8
annotation
62
1
39
211
10
44.800200
20
365.663997
11
44.662244
21
365.701921
0
LINE
8
annotation
62
1
39
211
10
44.662244
20
365.701921
11
44.515633
21
365.715081
0
LINE
8
annotation
62
1
39
211
10
44.515633
20
365.715081
11
44.107470
21
365.715081
0
LINE
8
annotation
62
1
39
211
10
44.107470
20
365.715081
11
44.515633
21
365.715081
0
LINE
8
annotation
62
1
39
211
10
44.515633
20
365.715081
11
44.515633
21
365.715081
0
LINE
8
annotation
62
1
39
211
10
44.515633
20
365.715081
11
44.662244
21
365.728243
0
LINE
8
annotation
62
1
39
211
10
44.662244
20
365.728243
11
44.800200
21
365.766189
0
LINE
8
annotation
62
1
39
211
10
44.800200
20
365.766189
11
44.927206
21
365.826605
0
LINE
8
annotation
62
1
39
211
10
44.927206
20
365.826605
11
45.040968
21
365.907176
0
LINE
8
annotation
62
1
39
211
10
45.040968
20
365.907176
11
45.139191
21
366.005591
0
LINE
8
annotation
62
1
39
211
10
45.139191
20
366.005591
11
45.219581
21
366.119534
0
LINE
8
annotation
62
1
39
211
10
45.219581
20
366.119534
11
45.279844
21
366.246694
0
LINE
8
annotation
62
1
39
211
10
45.279844
20
366.246694
11
45.317684
21
366.384755
0
LINE
8
annotation
62
1
39
211
10
45.317684
20
366.384755
11
45.330807
21
366.531406
0
LINE
8
annotation
62
1
39
211
10
45.330807
20
366.531406
11
45.330807
21
366.531406
0
LINE
8
annotation
62
1
39
211
10
45.330807
20
366.531406
11
45.317684
21
366.677371
0
LINE
8
annotation
62
1
39
211
10
45.317684
20
366.677371
11
45.279844
21
366.814899
0
LINE
8
annotation
62
1
39
211
10
45.279844
20
366.814899
11
45.219581
21
366.941657
0
LINE
8
annotation
62
1
39
211
10
45.219581
20
366.941657
11
45.139191
21
367.055314
0
LINE
8
annotation
62
1
39
211
10
45.139191
20
367.055314
11
45.040968
21
367.153535
0
LINE
8
annotation
62
1
39
211
10
45.040968
20
367.153535
11
44.927206
21
367.233990
0
LINE
8
annotation
62
1
39
211
10
44.927206
20
367.233990
11
44.800200
21
367.294346
0
LINE
8
annotation
62
1
39
211
10
44.800200
20
367.294346
11
44.662244
21
367.332269
0
LINE
8
annotation
62
1
39
211
10
44.662244
20
367.332269
11
44.515633
21
367.345429
0
LINE
8
annotation
62
1
39
211
10
44.515633
20
367.345429
11
43.700459
21
367.345429
0
LINE
8
annotation
62
1
39
211
10
48.714953
20
365.514222
11
46.707751
21
365.514222
0
LINE
8
annotation
62
1
39
211
10
51.721833
20
363.678727
11
50.091484
21
363.678727
0
LINE
8
annotation
62
1
39
211
10
50.091484
20
363.678727
11
51.597980
21
366.103991
0
LINE
8
annotation
62
1
39
211
10
51.597980
20
366.103991
11
51.597980
21
366.103991
0
LINE
8
annotation
62
1
39
211
10
51.597980
20
366.103991
11
51.599780
21
366.106219
0
LINE
8
annotation
62
1
39
211
10
51.599780
20
366.106219
11
51.601507
21
366.108467
0
LINE
8
annotation
62
1
39
211
10
51.601507
20
366.108467
11
51.603172
21
366.110752
0
LINE
8
annotation
62
1
39
211
10
51.603172
20
366.110752
11
51.604785
21
366.113094
0
LINE
8
annotation
62
1
39
211
10
51.604785
20
366.113094
11
51.606359
21
366.115512
0
LINE
8
annotation
62
1
39
211
10
51.606359
20
366.115512
11
51.607904
21
366.118025
0
LINE
8
annotation
62
1
39
211
10
51.607904
20
366.118025
11
51.609432
21
366.120652
0
LINE
8
annotation
62
1
39
211
10
51.609432
20
366.120652
11
51.610955
21
366.123411
0
LINE
8
annotation
62
1
39
211
10
51.610955
20
366.123411
11
51.612483
21
366.126321
0
LINE
8
annotation
62
1
39
211
10
51.612483
20
366.126321
11
51.612483
21
366.126321
0
LINE
8
annotation
62
1
39
211
10
51.612483
20
366.126321
11
51.674686
21
366.259876
0
LINE
8
annotation
62
1
39
211
10
51.674686
20
366.259876
11
51.711023
21
366.398317
0
LINE
8
annotation
62
1
39
211
10
51.711023
20
366.398317
11
51.722387
21
366.538517
0
LINE
8
annotation
62
1
39
211
10
51.722387
20
366.538517
11
51.709666
21
366.677346
0
LINE
8
annotation
62
1
39
211
10
51.709666
20
366.677346
11
51.673752
21
366.811678
0
LINE
8
annotation
62
1
39
211
10
51.673752
20
366.811678
11
51.615535
21
366.938383
0
LINE
8
annotation
62
1
39
211
10
51.615535
20
366.938383
11
51.535906
21
367.054334
0
LINE
8
annotation
62
1
39
211
10
51.535906
20
367.054334
11
51.435755
21
367.156402
0
LINE
8
annotation
62
1
39
211
10
51.435755
20
367.156402
11
51.315972
21
367.241459
0
LINE
8
annotation
62
1
39
211
10
51.315972
20
367.241459
11
51.315972
21
367.241459
0
LINE
8
annotation
62
1
39
211
10
51.315972
20
367.241459
11
51.182046
21
367.302778
0
LINE
8
annotation
62
1
39
211
10
51.182046
20
367.302778
11
51.043393
21
367.338556
0
LINE
8
annotation
62
1
39
211
10
51.043393
20
367.338556
11
50.903112
21
367.349598
0
LINE
8
annotation
62
1
39
211
10
50.903112
20
367.349598
11
50.764303
21
367.336710
0
LINE
8
annotation
62
1
39
211
10
50.764303
20
367.336710
11
50.630066
21
367.300696
0
LINE
8
annotation
62
1
39
211
10
50.630066
20
367.300696
11
50.503501
21
367.242363
0
LINE
8
annotation
62
1
39
211
10
50.503501
20
367.242363
11
50.387707
21
367.162515
0
LINE
8
annotation
62
1
39
211
10
50.387707
20
367.162515
11
50.285785
21
367.061957
0
LINE
8
annotation
62
1
39
211
10
50.285785
20
367.061957
11
50.200834
21
366.941495
0
LINE
8
annotation
62
1
39
211
10
50.200834
20
366.941495
11
50.093786
21
366.736148
0
LINE
8
boundary
62
5
39
2
10
6.667500
20
395.894496
11
6.667500
21
384.209442
0
LINE
8
boundary
62
5
39
2
10
6.667500
20
384.209442
11
9.754738
21
382.772376
0
LINE
8
boundary
62
5
39
2
10
9.754738
20
382.772376
11
10.281943
21
382.570373
0
LINE
8
boundary
62
5
39
2
10
10.281943
20
382.570373
11
11.550841
21
382.084182
0
LINE
8
boundary
62
5
39
2
10
11.550841
20
382.084182
11
15.590980
21
380.656874
0
LINE
8
boundary
62
5
39
2
10
15.590980
20
380.656874
11
17.331266
21
380.042062
0
LINE
8
boundary
62
5
39
2
10
17.331266
20
380.042062
11
21.036760
21
379.020458
0
LINE
8
boundary
62
5
39
2
10
21.036760
20
379.020458
11
25.127569
21
377.892616
0
LINE
8
boundary
62
5
39
2
10
25.127569
20
377.892616
11
26.605489
21
377.594101
0
LINE
8
boundary
62
5
39
2
10
26.605489
20
377.594101
11
30.213771
21
376.865296
0
LINE
8
boundary
62
5
39
2
10
30.213771
20
376.865296
11
32.244423
21
376.515196
0
LINE
8
boundary
62
5
39
2
10
32.244423
20
376.515196
11
33.101173
21
376.367484
0
LINE
8
boundary
62
5
39
2
10
33.101173
20
376.367484
11
37.918153
21
375.881926
0
LINE
8
boundary
62
5
39
2
10
37.918153
20
375.881926
11
41.208572
21
375.550250
0
LINE
8
boundary
62
5
39
2
10
41.208572
20
375.550250
11
43.641054
21
375.474492
0
LINE
8
boundary
62
5
39
2
10
43.641054
20
375.474492
11
49.326407
21
375.297431
0
LINE
8
boundary
62
5
39
2
10
49.326407
20
375.297431
11
55.055660
21
375.691215
0
LINE
8
boundary
62
5
39
2
10
55.055660
20
375.691215
11
57.647553
21
375.871855
0
LINE
8
boundary
62
5
39
2
10
57.647553
20
375.871855
11
57.647554
21
380.706474
0
LINE
8
boundary
62
5
39
2
10
57.647554
20
380.706474
11
57.647553
21
388.430134
0
LINE
8
boundary
62
5
39
2
10
57.647553
20
388.430134
11
56.686289
21
388.367064
0
LINE
8
boundary
62
5
39
2
10
56.686289
20
388.367064
11
49.935095
21
387.924104
0
LINE
8
boundary
62
5
39
2
10
49.935095
20
387.924104
11
42.939157
21
387.982893
0
LINE
8
boundary
62
5
39
2
10
42.939157
20
387.982893
11
42.270176
21
387.988516
0
LINE
8
boundary
62
5
39
2
10
42.270176
20
387.988516
11
41.360856
21
388.064726
0
LINE
8
boundary
62
5
39
2
10
41.360856
20
388.064726
11
34.700080
21
388.835050
0
LINE
8
boundary
62
5
39
2
10
34.700080
20
388.835050
11
30.072649
21
389.724382
0
LINE
8
boundary
62
5
39
2
10
30.072649
20
389.724382
11
27.271461
21
390.262732
0
LINE
8
boundary
62
5
39
2
10
27.271461
20
390.262732
11
23.193620
21
391.372705
0
LINE
8
boundary
62
5
39
2
10
23.193620
20
391.372705
11
20.030123
21
392.330814
0
LINE
8
boundary
62
5
39
2
10
20.030123
20
392.330814
11
17.863539
21
393.168919
0
LINE
8
boundary
62
5
39
2
10
17.863539
20
393.168919
11
13.020691
21
395.042293
0
LINE
8
boundary
62
5
39
2
10
13.020691
20
395.042293
11
7.045320
21
397.893297
0
LINE
8
boundary
62
5
39
2
10
7.045320
20
397.893297
11
7.045320
21
396.119540
0
LINE
8
boundary
62
5
39
2
10
7.045320
20
396.119540
11
6.667500
21
395.894496
0
LINE
8
annotation
62
1
39
211
10
8.571622
20
395.928581
11
8.571622
21
396.956676
0
LINE
8
annotation
62
1
39
211
10
8.571622
20
396.956676
11
8.343063
21
396.728053
0
LINE
8
annotation
62
1
39
211
10
39.347347
20
383.741221
11
38.123089
21
381.970445
0
LINE
8
annotation
62
1
39
211
10
38.123089
20
381.970445
11
36.898602
21
383.741221
0
LINE
8
annotation
62
1
39
211
10
38.123089
20
382.112945
11
38.123089
21
380.070060
0
LINE
8
annotation
62
1
39
211
10
42.731609
20
381.905640
11
40.724406
21
381.905640
0
LINE
8
annotation
62
1
39
211
10
44.107862
20
380.070290
11
44.923036
21
380.070290
0
LINE
8
annotation
62
1
39
211
10
44.923036
20
380.070290
11
44.923036
21
380.070290
0
LINE
8
annotation
62
1
39
211
10
44.923036
20
380.070290
11
45.069647
21
380.083442
0
LINE
8
annotation
62
1
39
211
10
45.069647
20
380.083442
11
45.207603
21
380.121347
0
LINE
8
annotation
62
1
39
211
10
45.207603
20
380.121347
11
45.334610
21
380.181678
0
LINE
8
annotation
62
1
39
211
10
45.334610
20
380.181678
11
45.448372
21
380.262108
0
LINE
8
annotation
62
1
39
211
10
45.448372
20
380.262108
11
45.546595
21
380.360311
0
LINE
8
annotation
62
1
39
211
10
45.546595
20
380.360311
11
45.626985
21
380.473959
0
LINE
8
annotation
62
1
39
211
10
45.626985
20
380.473959
11
45.687247
21
380.600727
0
LINE
8
annotation
62
1
39
211
10
45.687247
20
380.600727
11
45.725087
21
380.738287
0
LINE
8
annotation
62
1
39
211
10
45.725087
20
380.738287
11
45.738211
21
380.884313
0
LINE
8
annotation
62
1
39
211
10
45.738211
20
380.884313
11
45.738211
21
381.292476
0
LINE
8
annotation
62
1
39
211
10
45.738211
20
381.292476
11
45.738211
21
381.292476
0
LINE
8
annotation
62
1
39
211
10
45.738211
20
381.292476
11
45.725087
21
381.438441
0
LINE
8
annotation
62
1
39
211
10
45.725087
20
381.438441
11
45.687247
21
381.575969
0
LINE
8
annotation
62
1
39
211
10
45.687247
20
381.575969
11
45.626985
21
381.702727
0
LINE
8
annotation
62
1
39
211
10
45.626985
20
381.702727
11
45.546595
21
381.816383
0
LINE
8
annotation
62
1
39
211
10
45.546595
20
381.816383
11
45.448372
21
381.914605
0
LINE
8
annotation
62
1
39
211
10
45.448372
20
381.914605
11
45.334610
21
381.995060
0
LINE
8
annotation
62
1
39
211
10
45.334610
20
381.995060
11
45.207603
21
382.055415
0
LINE
8
annotation
62
1
39
211
10
45.207603
20
382.055415
11
45.069647
21
382.093339
0
LINE
8
annotation
62
1
39
211
10
45.069647
20
382.093339
11
44.923036
21
382.106499
0
LINE
8
annotation
62
1
39
211
10
44.923036
20
382.106499
11
44.514874
21
382.106499
0
LINE
8
annotation
62
1
39
211
10
44.514874
20
382.106499
11
44.923036
21
382.106499
0
LINE
8
annotation
62
1
39
211
10
44.923036
20
382.106499
11
44.923036
21
382.106499
0
LINE
8
annotation
62
1
39
211
10
44.923036
20
382.106499
11
45.069647
21
382.119661
0
LINE
8
annotation
62
1
39
211
10
45.069647
20
382.119661
11
45.207603
21
382.157607
0
LINE
8
annotation
62
1
39
211
10
45.207603
20
382.157607
11
45.334610
21
382.218023
0
LINE
8
annotation
62
1
39
211
10
45.334610
20
382.218023
11
45.448372
21
382.298594
0
LINE
8
annotation
62
1
39
211
10
45.448372
20
382.298594
11
45.546595
21
382.397009
0
LINE
8
annotation
62
1
39
211
10
45.546595
20
382.397009
11
45.626985
21
382.510952
0
LINE
8
annotation
62
1
39
211
10
45.626985
20
382.510952
11
45.687247
21
382.638112
0
LINE
8
annotation
62
1
39
211
10
45.687247
20
382.638112
11
45.725087
21
382.776173
0
LINE
8
annotation
62
1
39
211
10
45.725087
20
382.776173
11
45.738211
21
382.922824
0
LINE
8
annotation
62
1
39
211
10
45.738211
20
382.922824
11
45.738211
21
382.922824
0
LINE
8
annotation
62
1
39
211
10
45.738211
20
382.922824
11
45.725087
21
383.068789
0
LINE
8
annotation
62
1
39
211
10
45.725087
20
383.068789
11
45.687247
21
383.206317
0
LINE
8
annotation
62
1
39
211
10
45.687247
20
383.206317
11
45.626985
21
383.333075
0
LINE
8
annotation
62
1
39
211
10
45.626985
20
383.333075
11
45.546595
21
383.446732
0
LINE
8
annotation
62
1
39
211
10
45.546595
20
383.446732
11
45.448372
21
383.544953
0
LINE
8
annotation
62
1
39
211
10
45.448372
20
383.544953
11
45.334610
21
383.625408
0
LINE
8
annotation
62
1
39
211
10
45.334610
20
383.625408
11
45.207603
21
383.685764
0
LINE
8
annotation
62
1
39
211
10
45.207603
20
383.685764
11
45.069647
21
383.723687
0
LINE
8
annotation
62
1
39
211
10
45.069647
20
383.723687
11
44.923036
21
383.736847
0
LINE
8
annotation
62
1
39
211
10
44.923036
20
383.736847
11
44.107862
21
383.736847
0
LINE
8
annotation
62
1
39
211
10
49.122357
20
381.905640
11
47.115155
21
381.905640
0
LINE
8
annotation
62
1
39
211
10
51.314821
20
380.070175
11
51.314821
21
383.741106
0
LINE
8
annotation
62
1
39
211
10
51.314821
20
383.741106
11
50.498726
21
382.924781
0
LINE
8
boundary
62
5
39
2
10
6.667500
20
425.799160
11
6.667500
21
411.889731
0
LINE
8
boundary
62
5
39
2
10
6.667500
20
411.889731
11
8.457325
21
410.963012
0
LINE
8
boundary
62
5
39
2
10
8.457325
20
410.963012
11
11.620261
21
409.570488
0
LINE
8
boundary
62
5
39
2
10
11.620261
20
409.570488
11
15.846435
21
407.803885
0
LINE
8
boundary
62
5
39
2
10
15.846435
20
407.803885
11
16.484439
21
407.590895
0
LINE
8
boundary
62
5
39
2
10
16.484439
20
407.590895
11
23.011128
21
405.412049
0
LINE
8
boundary
62
5
39
2
10
23.011128
20
405.412049
11
24.752449
21
404.970017
0
LINE
8
boundary
62
5
39
2
10
24.752449
20
404.970017
11
30.338758
21
403.551939
0
LINE
8
boundary
62
5
39
2
10
30.338758
20
403.551939
11
33.231915
21
403.040050
0
LINE
8
boundary
62
5
39
2
10
33.231915
20
403.040050
11
37.789344
21
402.233700
0
LINE
8
boundary
62
5
39
2
10
37.789344
20
402.233700
11
41.876893
21
401.816322
0
LINE
8
boundary
62
5
39
2
10
41.876893
20
401.816322
11
45.322292
21
401.464512
0
LINE
8
boundary
62
5
39
2
10
45.322292
20
401.464512
11
50.640758
21
401.312877
0
LINE
8
boundary
62
5
39
2
10
50.640758
20
401.312877
11
52.896538
21
401.248565
0
LINE
8
boundary
62
5
39
2
10
52.896538
20
401.248565
11
52.896537
21
409.195956
0
LINE
8
boundary
62
5
39
2
10
52.896537
20
409.195956
11
52.896537
21
413.496982
0
LINE
8
boundary
62
5
39
2
10
52.896537
20
413.496982
11
49.390494
21
413.593383
0
LINE
8
boundary
62
5
39
2
10
49.390494
20
413.593383
11
45.808896
21
413.691862
0
LINE
8
boundary
62
5
39
2
10
45.808896
20
413.691862
11
43.155568
21
413.972982
0
LINE
8
boundary
62
5
39
2
10
43.155568
20
413.972982
11
38.764944
21
414.438172
0
LINE
8
boundary
62
5
39
2
10
38.764944
20
414.438172
11
36.948659
21
414.775781
0
LINE
8
boundary
62
5
39
2
10
36.948659
20
414.775781
11
31.808131
21
415.731293
0
LINE
8
boundary
62
5
39
2
10
31.808131
20
415.731293
11
30.807853
21
415.999721
0
LINE
8
boundary
62
5
39
2
10
30.807853
20
415.999721
11
24.981335
21
417.563270
0
LINE
8
boundary
62
5
39
2
10
24.981335
20
417.563270
11
23.128247
21
418.220315
0
LINE
8
boundary
62
5
39
2
10
23.128247
20
418.220315
11
18.856365
21
419.778994
0
LINE
8
boundary
62
5
39
2
10
18.856365
20
419.778994
11
18.326648
21
419.972272
0
LINE
8
boundary
62
5
39
2
10
18.326648
20
419.972272
11
13.105000
21
422.353045
0
LINE
8
boundary
62
5
39
2
10
13.105000
20
422.353045
11
11.885078
21
422.909260
0
LINE
8
boundary
62
5
39
2
10
11.885078
20
422.909260
11
7.558283
21
425.305775
0
LINE
8
boundary
62
5
39
2
10
7.558283
20
425.305775
11
6.667500
21
425.799160
0
LINE
8
annotation
62
1
39
211
10
34.302597
20
410.853973
11
33.192433
21
409.248222
0
LINE
8
annotation
62
1
39
211
10
33.192433
20
409.248222
11
32.082060
21
410.853973
0
LINE
8
annotation
62
1
39
211
10
33.192433
20
409.377442
11
33.192433
21
407.524941
0
LINE
8
annotation
62
1
39
211
10
37.371467
20
409.189457
11
35.551324
21
409.189457
0
LINE
8
annotation
62
1
39
211
10
40.467789
20
408.265085
11
38.619463
21
408.265085
0
LINE
8
annotation
62
1
39
211
10
38.619463
20
408.265085
11
39.357624
21
410.853869
0
LINE
8
annotation
62
1
39
211
10
39.913751
20
407.525045
11
39.913751
21
409.003455
0
LINE
8
annotation
62
1
39
211
10
43.536555
20
409.189457
11
41.716411
21
409.189457
0
LINE
8
annotation
62
1
39
211
10
46.263212
20
407.525018
11
44.784802
21
407.525018
0
LINE
8
annotation
62
1
39
211
10
44.784802
20
407.525018
11
46.150901
21
409.724263
0
LINE
8
annotation
62
1
39
211
10
46.150901
20
409.724263
11
46.150901
21
409.724263
0
LINE
8
annotation
62
1
39
211
10
46.150901
20
409.724263
11
46.152534
21
409.726284
0
LINE
8
annotation
62
1
39
211
10
46.152534
20
409.726284
11
46.154100
21
409.728322
0
LINE
8
annotation
62
1
39
211
10
46.154100
20
409.728322
11
46.155610
21
409.730394
0
LINE
8
annotation
62
1
39
211
10
46.155610
20
409.730394
11
46.157073
21
409.732518
0
LINE
8
annotation
62
1
39
211
10
46.157073
20
409.732518
11
46.158500
21
409.734711
0
LINE
8
annotation
62
1
39
211
10
46.158500
20
409.734711
11
46.159901
21
409.736989
0
LINE
8
annotation
62
1
39
211
10
46.159901
20
409.736989
11
46.161287
21
409.739371
0
LINE
8
annotation
62
1
39
211
10
46.161287
20
409.739371
11
46.162667
21
409.741873
0
LINE
8
annotation
62
1
39
211
10
46.162667
20
409.741873
11
46.164053
21
409.744512
0
LINE
8
annotation
62
1
39
211
10
46.164053
20
409.744512
11
46.164053
21
409.744512
0
LINE
8
annotation
62
1
39
211
10
46.164053
20
409.744512
11
46.220459
21
409.865621
0
LINE
8
annotation
62
1
39
211
10
46.220459
20
409.865621
11
46.253410
21
409.991160
0
LINE
8
annotation
62
1
39
211
10
46.253410
20
409.991160
11
46.263714
21
410.118294
0
LINE
8
annotation
62
1
39
211
10
46.263714
20
410.118294
11
46.252179
21
410.244185
0
LINE
8
annotation
62
1
39
211
10
46.252179
20
410.244185
11
46.219612
21
410.365998
0
LINE
8
annotation
62
1
39
211
10
46.219612
20
410.365998
11
46.166821
21
410.480895
0
LINE
8
annotation
62
1
39
211
10
46.166821
20
410.480895
11
46.094612
21
410.586040
0
LINE
8
annotation
62
1
39
211
10
46.094612
20
410.586040
11
46.003795
21
410.678596
0
LINE
8
annotation
62
1
39
211
10
46.003795
20
410.678596
11
45.895175
21
410.755726
0
LINE
8
annotation
62
1
39
211
10
45.895175
20
410.755726
11
45.895175
21
410.755726
0
LINE
8
annotation
62
1
39
211
10
45.895175
20
410.755726
11
45.773730
21
410.811331
0
LINE
8
annotation
62
1
39
211
10
45.773730
20
410.811331
11
45.647998
21
410.843775
0
LINE
8
annotation
62
1
39
211
10
45.647998
20
410.843775
11
45.520790
21
410.853788
0
LINE
8
annotation
62
1
39
211
10
45.520790
20
410.853788
11
45.394918
21
410.842100
0
LINE
8
annotation
62
1
39
211
10
45.394918
20
410.842100
11
45.273191
21
410.809443
0
LINE
8
annotation
62
1
39
211
10
45.273191
20
410.809443
11
45.158421
21
410.756546
0
LINE
8
annotation
62
1
39
211
10
45.158421
20
410.756546
11
45.053419
21
410.684139
0
LINE
8
annotation
62
1
39
211
10
45.053419
20
410.684139
11
44.960995
21
410.592953
0
LINE
8
annotation
62
1
39
211
10
44.960995
20
410.592953
11
44.883961
21
410.483717
0
LINE
8
annotation
62
1
39
211
10
44.883961
20
410.483717
11
44.786889
21
410.297507
0
LINE
8
boundary
62
5
39
2
10
6.667500
20
442.883575
11
6.667500
21
428.974160
0
LINE
8
boundary
62
5
39
2
10
6.667500
20
428.974160
11
10.267006
21
430.967844
0
LINE
8
boundary
62
5
39
2
10
10.267006
20
430.967844
11
11.885078
21
431.864056
0
LINE
8
boundary
62
5
39
2
10
11.885078
20
431.864056
11
17.624042
21
434.480679
0
LINE
8
boundary
62
5
39
2
10
17.624042
20
434.480679
11
18.326648
21
434.801025
0
LINE
8
boundary
62
5
39
2
10
18.326648
20
434.801025
11
23.128246
21
436.552987
0
LINE
8
boundary
62
5
39
2
10
23.128246
20
436.552987
11
24.981335
21
437.210033
0
LINE
8
boundary
62
5
39
2
10
24.981335
20
437.210033
11
31.808132
21
439.042003
0
LINE
8
boundary
62
5
39
2
10
31.808132
20
439.042003
11
33.086970
21
439.279713
0
LINE
8
boundary
62
5
39
2
10
33.086970
20
439.279713
11
38.764943
21
440.335134
0
LINE
8
boundary
62
5
39
2
10
38.764943
20
440.335134
11
41.117669
21
440.584402
0
LINE
8
boundary
62
5
39
2
10
41.117669
20
440.584402
11
45.808896
21
441.081436
0
LINE
8
boundary
62
5
39
2
10
45.808896
20
441.081436
11
49.290189
21
441.177162
0
LINE
8
boundary
62
5
39
2
10
49.290189
20
441.177162
11
52.896538
21
441.276324
0
LINE
8
boundary
62
5
39
2
10
52.896538
20
441.276324
11
52.896537
21
449.540743
0
LINE
8
boundary
62
5
39
2
10
52.896537
20
449.540743
11
52.896537
21
453.524738
0
LINE
8
boundary
62
5
39
2
10
52.896537
20
453.524738
11
47.941665
21
453.383481
0
LINE
8
boundary
62
5
39
2
10
47.941665
20
453.383481
11
45.322292
21
453.308803
0
LINE
8
boundary
62
5
39
2
10
45.322292
20
453.308803
11
41.283549
21
452.896407
0
LINE
8
boundary
62
5
39
2
10
41.283549
20
452.896407
11
37.789345
21
452.539609
0
LINE
8
boundary
62
5
39
2
10
37.789345
20
452.539609
11
34.658943
21
451.985736
0
LINE
8
boundary
62
5
39
2
10
34.658943
20
451.985736
11
30.338759
21
451.221368
0
LINE
8
boundary
62
5
39
2
10
30.338759
20
451.221368
11
28.103827
21
450.654036
0
LINE
8
boundary
62
5
39
2
10
28.103827
20
450.654036
11
23.011128
21
449.361256
0
LINE
8
boundary
62
5
39
2
10
23.011128
20
449.361256
11
21.653928
21
448.908170
0
LINE
8
boundary
62
5
39
2
10
21.653928
20
448.908170
11
15.846435
21
446.969412
0
LINE
8
boundary
62
5
39
2
10
15.846435
20
446.969412
11
15.344512
21
446.759602
0
LINE
8
boundary
62
5
39
2
10
15.344512
20
446.759602
11
11.620261
21
445.202817
0
LINE
8
boundary
62
5
39
2
10
11.620261
20
445.202817
11
9.199327
21
444.166209
0
LINE
8
boundary
62
5
39
2
10
9.199327
20
444.166209
11
6.667500
21
442.883575
0
LINE
8
annotation
62
1
39
211
10
34.672034
20
447.248371
11
33.561869
21
445.642620
0
LINE
8
annotation
62
1
39
211
10
33.561869
20
445.642620
11
32.451496
21
447.248371
0
LINE
8
annotation
62
1
39
211
10
33.561869
20
445.771840
11
33.561869
21
443.919339
0
LINE
8
annotation
62
1
39
211
10
37.740904
20
445.583855
11
35.920760
21
445.583855
0
LINE
8
annotation
62
1
39
211
10
40.837225
20
444.659483
11
38.988899
21
444.659483
0
LINE
8
annotation
62
1
39
211
10
38.988899
20
444.659483
11
39.727061
21
447.248267
0
LINE
8
annotation
62
1
39
211
10
40.283187
20
443.919443
11
40.283187
21
445.397853
0
LINE
8
annotation
62
1
39
211
10
43.905991
20
445.583855
11
42.085847
21
445.583855
0
LINE
8
annotation
62
1
39
211
10
45.894131
20
443.919443
11
45.894131
21
447.248267
0
LINE
8
annotation
62
1
39
211
10
45.894131
20
447.248267
11
45.154091
21
446.508018
0
LINE
8
boundary
62
5
39
2
10
208.678906
20
65.785318
11
208.769242
21
66.309035
0
LINE
8
boundary
62
5
39
2
10
208.769242
20
66.309035
11
208.871583
21
68.095438
0
LINE
8
boundary
62
5
39
2
10
208.871583
20
68.095438
11
209.198759
21
73.806185
0
LINE
8
boundary
62
5
39
2
10
209.198759
20
73.806185
11
202.384634
21
73.806186
0
LINE
8
boundary
62
5
39
2
10
202.384634
20
73.806186
11
197.498169
21
73.806185
0
LINE
8
boundary
62
5
39
2
10
197.498169
20
73.806185
11
194.126600
21
73.806186
0
LINE
8
boundary
62
5
39
2
10
194.126600
20
73.806186
11
188.722595
21
73.806186
0
LINE
8
boundary
62
5
39
2
10
188.722595
20
73.806186
11
188.351026
21
68.747555
0
LINE
8
boundary
62
5
39
2
10
188.351026
20
68.747555
11
188.207286
21
66.790686
0
LINE
8
boundary
62
5
39
2
10
188.207286
20
66.790686
11
186.808955
21
60.471119
0
LINE
8
boundary
62
5
39
2
10
186.808955
20
60.471119
11
186.664536
21
59.818431
0
LINE
8
boundary
62
5
39
2
10
186.664536
20
59.818431
11
186.033617
21
58.121811
0
LINE
8
boundary
62
5
39
2
10
186.033617
20
58.121811
11
183.814239
21
52.932429
0
LINE
8
boundary
62
5
39
2
10
183.814239
20
52.932429
11
181.423566
21
48.989911
0
LINE
8
boundary
62
5
39
2
10
181.423566
20
48.989911
11
180.707653
21
47.809285
0
LINE
8
boundary
62
5
39
2
10
180.707653
20
47.809285
11
208.678906
21
65.785318
0
LINE
8
boundary
62
5
39
2
10
90.961259
20
30.241348
11
95.454044
21
25.460835
0
LINE
8
boundary
62
5
39
2
10
95.454044
20
25.460835
11
97.447614
21
23.586994
0
LINE
8
boundary
62
5
39
2
10
97.447614
20
23.586994
11
103.041769
21
19.160379
0
LINE
8
boundary
62
5
39
2
10
103.041769
20
19.160379
11
105.905628
21
17.206418
0
LINE
8
boundary
62
5
39
2
10
105.905628
20
17.206418
11
110.062301
21
14.789318
0
LINE
8
boundary
62
5
39
2
10
110.062301
20
14.789318
11
111.708056
21
13.990691
0
LINE
8
boundary
62
5
39
2
10
111.708056
20
13.990691
11
122.947277
21
17.056279
0
LINE
8
boundary
62
5
39
2
10
122.947277
20
17.056279
11
124.143762
21
12.981428
0
LINE
8
boundary
62
5
39
2
10
124.143762
20
12.981428
11
118.237835
21
11.247292
0
LINE
8
boundary
62
5
39
2
10
118.237835
20
11.247292
11
122.912053
21
9.450786
0
LINE
8
boundary
62
5
39
2
10
122.912053
20
9.450786
11
125.208007
21
8.888822
0
LINE
8
boundary
62
5
39
2
10
125.208007
20
8.888822
11
128.537584
21
8.073869
0
LINE
8
boundary
62
5
39
2
10
128.537584
20
8.073869
11
131.914289
21
11.970794
0
LINE
8
boundary
62
5
39
2
10
131.914289
20
11.970794
11
135.123867
21
9.189679
0
LINE
8
boundary
62
5
39
2
10
135.123867
20
9.189679
11
133.607128
21
7.439269
0
LINE
8
boundary
62
5
39
2
10
133.607128
20
7.439269
11
134.813517
21
7.056545
0
LINE
8
boundary
62
5
39
2
10
134.813517
20
7.056545
11
137.752801
21
6.859017
0
LINE
8
boundary
62
5
39
2
10
137.752801
20
6.859017
11
138.415214
21
9.884897
0
LINE
8
boundary
62
5
39
2
10
138.415214
20
9.884897
11
142.618867
21
9.280503
0
LINE
8
boundary
62
5
39
2
10
142.618867
20
9.280503
11
142.265963
21
6.825998
0
LINE
8
boundary
62
5
39
2
10
142.265963
20
6.825998
11
144.936713
21
6.764630
0
LINE
8
boundary
62
5
39
2
10
144.936713
20
6.764630
11
145.746192
21
6.782772
0
LINE
8
boundary
62
5
39
2
10
145.746192
20
6.782772
11
145.011862
21
8.932464
0
LINE
8
boundary
62
5
39
2
10
145.011862
20
8.932464
11
148.874960
21
10.696681
0
LINE
8
boundary
62
5
39
2
10
148.874960
20
10.696681
11
150.443042
21
7.263060
0
LINE
8
boundary
62
5
39
2
10
150.443042
20
7.263060
11
152.197771
21
7.448387
0
LINE
8
boundary
62
5
39
2
10
152.197771
20
7.448387
11
155.268603
21
8.064828
0
LINE
8
boundary
62
5
39
2
10
155.268603
20
8.064828
11
156.608274
21
8.333755
0
LINE
8
boundary
62
5
39
2
10
156.608274
20
8.333755
11
153.880020
21
10.354607
0
LINE
8
boundary
62
5
39
2
10
153.880020
20
10.354607
11
156.176057
21
13.927310
0
LINE
8
boundary
62
5
39
2
10
156.176057
20
13.927310
11
162.461639
21
9.887812
0
LINE
8
boundary
62
5
39
2
10
162.461639
20
9.887812
11
164.274122
21
10.410593
0
LINE
8
boundary
62
5
39
2
10
164.274122
20
10.410593
11
164.813250
21
10.612484
0
LINE
8
boundary
62
5
39
2
10
164.813250
20
10.612484
11
166.206958
21
11.134393
0
LINE
8
boundary
62
5
39
2
10
166.206958
20
11.134393
11
169.214235
21
12.445769
0
LINE
8
boundary
62
5
39
2
10
169.214235
20
12.445769
11
170.686718
21
13.087870
0
LINE
8
boundary
62
5
39
2
10
170.686718
20
13.087870
11
173.481949
21
14.579868
0
LINE
8
boundary
62
5
39
2
10
173.481949
20
14.579868
11
177.475696
21
16.711591
0
LINE
8
boundary
62
5
39
2
10
177.475696
20
16.711591
11
178.263134
21
17.206418
0
LINE
8
boundary
62
5
39
2
10
178.263134
20
17.206418
11
179.492607
21
18.112926
0
LINE
8
boundary
62
5
39
2
10
179.492607
20
18.112926
11
167.728200
21
18.337970
0
LINE
8
boundary
62
5
39
2
10
167.728200
20
18.337970
11
167.728200
21
22.584850
0
LINE
8
boundary
62
5
39
2
10
167.728200
20
22.584850
11
185.456943
21
22.584850
0
LINE
8
boundary
62
5
39
2
10
185.456943
20
22.584850
11
186.644130
21
23.586994
0
LINE
8
boundary
62
5
39
2
10
186.644130
20
23.586994
11
189.325431
21
26.275562
0
LINE
8
boundary
62
5
39
2
10
189.325431
20
26.275562
11
192.693609
21
29.652878
0
LINE
8
boundary
62
5
39
2
10
192.693609
20
29.652878
11
193.217227
21
30.241348
0
LINE
8
boundary
62
5
39
2
10
193.217227
20
30.241348
11
196.170326
21
34.258950
0
LINE
8
boundary
62
5
39
2
10
196.170326
20
34.258950
11
198.283012
21
37.133200
0
LINE
8
boundary
62
5
39
2
10
198.283012
20
37.133200
11
199.269565
21
38.805811
0
LINE
8
boundary
62
5
39
2
10
199.269565
20
38.805811
11
201.468499
21
42.533879
0
LINE
8
boundary
62
5
39
2
10
201.468499
20
42.533879
11
202.106952
21
43.726787
0
LINE
8
boundary
62
5
39
2
10
202.106952
20
43.726787
11
202.373579
21
44.224966
0
LINE
8
boundary
62
5
39
2
10
202.373579
20
44.224966
11
204.409323
21
49.190204
0
LINE
8
boundary
62
5
39
2
10
204.409323
20
49.190204
11
205.347333
21
51.478012
0
LINE
8
boundary
62
5
39
2
10
205.347333
20
51.478012
11
206.379805
21
55.043075
0
LINE
8
boundary
62
5
39
2
10
206.379805
20
55.043075
11
207.483112
21
58.852762
0
LINE
8
boundary
62
5
39
2
10
207.483112
20
58.852762
11
207.647673
21
59.806799
0
LINE
8
boundary
62
5
39
2
10
207.647673
20
59.806799
11
180.432709
21
42.584313
0
LINE
8
boundary
62
5
39
2
10
180.432709
20
42.584313
11
178.837438
21
45.066603
0
LINE
8
boundary
62
5
39
2
10
178.837438
20
45.066603
11
178.197816
21
44.260226
0
LINE
8
boundary
62
5
39
2
10
178.197816
20
44.260226
11
173.804000
21
39.588167
0
LINE
8
boundary
62
5
39
2
10
173.804000
20
39.588167
11
170.940166
21
37.151236
0
LINE
8
boundary
62
5
39
2
10
170.940166
20
37.151236
11
165.210330
21
33.212164
0
LINE
8
boundary
62
5
39
2
10
165.210330
20
33.212164
11
164.113742
21
32.591595
0
LINE
8
boundary
62
5
39
2
10
164.113742
20
32.591595
11
162.946006
21
32.092183
0
LINE
8
boundary
62
5
39
2
10
162.946006
20
32.092183
11
157.599260
21
29.805511
0
LINE
8
boundary
62
5
39
2
10
157.599260
20
29.805511
11
152.674079
21
28.393619
0
LINE
8
boundary
62
5
39
2
10
152.674079
20
28.393619
11
151.296028
21
27.998577
0
LINE
8
boundary
62
5
39
2
10
151.296028
20
27.998577
11
147.615995
21
27.469390
0
LINE
8
boundary
62
5
39
2
10
147.615995
20
27.469390
11
146.924295
21
27.369924
0
LINE
8
boundary
62
5
39
2
10
146.924295
20
27.369924
11
145.143926
21
27.113908
0
LINE
8
boundary
62
5
39
2
10
145.143926
20
27.113908
11
138.998813
21
27.109772
0
LINE
8
boundary
62
5
39
2
10
138.998813
20
27.109772
11
135.280954
21
27.640885
0
LINE
8
boundary
62
5
39
2
10
135.280954
20
27.640885
11
134.006956
21
26.536959
0
LINE
8
boundary
62
5
39
2
10
134.006956
20
26.536959
11
132.722917
21
28.018819
0
LINE
8
boundary
62
5
39
2
10
132.722917
20
28.018819
11
128.713771
21
29.168115
0
LINE
8
boundary
62
5
39
2
10
128.713771
20
29.168115
11
126.490291
21
29.805511
0
LINE
8
boundary
62
5
39
2
10
126.490291
20
29.805511
11
124.067391
21
30.841724
0
LINE
8
boundary
62
5
39
2
10
124.067391
20
30.841724
11
119.975806
21
32.591595
0
LINE
8
boundary
62
5
39
2
10
119.975806
20
32.591595
11
118.879219
21
33.212164
0
LINE
8
boundary
62
5
39
2
10
118.879219
20
33.212164
11
115.635660
21
35.441997
0
LINE
8
boundary
62
5
39
2
10
115.635660
20
35.441997
11
113.149376
21
37.151236
0
LINE
8
boundary
62
5
39
2
10
113.149376
20
37.151236
11
111.780991
21
38.315646
0
LINE
8
boundary
62
5
39
2
10
111.780991
20
38.315646
11
110.285538
21
39.588167
0
LINE
8
boundary
62
5
39
2
10
110.285538
20
39.588167
11
108.308745
21
41.690147
0
LINE
8
boundary
62
5
39
2
10
108.308745
20
41.690147
11
105.891743
21
44.260226
0
LINE
8
boundary
62
5
39
2
10
105.891743
20
44.260226
11
105.003555
21
45.379974
0
LINE
8
boundary
62
5
39
2
10
105.003555
20
45.379974
11
104.372844
21
46.175120
0
LINE
8
boundary
62
5
39
2
10
104.372844
20
46.175120
11
102.247062
21
49.680803
0
LINE
8
boundary
62
5
39
2
10
102.247062
20
49.680803
11
100.275319
21
52.932429
0
LINE
8
boundary
62
5
39
2
10
100.275319
20
52.932429
11
99.689168
21
54.302977
0
LINE
8
boundary
62
5
39
2
10
99.689168
20
54.302977
11
98.055938
21
58.121811
0
LINE
8
boundary
62
5
39
2
10
98.055938
20
58.121811
11
97.576870
21
59.410082
0
LINE
8
boundary
62
5
39
2
10
97.576870
20
59.410082
11
96.226259
21
65.236052
0
LINE
8
boundary
62
5
39
2
10
96.226259
20
65.236052
11
95.882267
21
66.790686
0
LINE
8
boundary
62
5
39
2
10
95.882267
20
66.790686
11
95.524457
21
71.661946
0
LINE
8
boundary
62
5
39
2
10
95.524457
20
71.661946
11
95.477426
21
72.302215
0
LINE
8
boundary
62
5
39
2
10
95.477426
20
72.302215
11
94.834137
21
71.744802
0
LINE
8
boundary
62
5
39
2
10
94.834137
20
71.744802
11
93.047938
21
73.806185
0
LINE
8
boundary
62
5
39
2
10
93.047938
20
73.806185
11
90.810607
21
73.806185
0
LINE
8
boundary
62
5
39
2
10
90.810607
20
73.806185
11
88.713187
21
73.806185
0
LINE
8
boundary
62
5
39
2
10
88.713187
20
73.806185
11
83.987953
21
73.806185
0
LINE
8
boundary
62
5
39
2
10
83.987953
20
73.806185
11
78.164168
21
73.806185
0
LINE
8
boundary
62
5
39
2
10
78.164168
20
73.806185
11
76.971923
21
73.806186
0
LINE
8
boundary
62
5
39
2
10
76.971923
20
73.806186
11
74.909525
21
73.806186
0
LINE
8
boundary
62
5
39
2
10
74.909525
20
73.806186
11
75.213361
21
68.268252
0
LINE
8
boundary
62
5
39
2
10
75.213361
20
68.268252
11
75.320851
21
66.309035
0
LINE
8
boundary
62
5
39
2
10
75.320851
20
66.309035
11
76.372228
21
59.944427
0
LINE
8
boundary
62
5
39
2
10
76.372228
20
59.944427
11
76.552562
21
58.852762
0
LINE
8
boundary
62
5
39
2
10
76.552562
20
58.852762
11
77.839522
21
54.212556
0
LINE
8
boundary
62
5
39
2
10
77.839522
20
54.212556
11
78.669318
21
51.478012
0
LINE
8
boundary
62
5
39
2
10
78.669318
20
51.478012
11
79.067219
21
50.551803
0
LINE
8
boundary
62
5
39
2
10
79.067219
20
50.551803
11
81.785246
21
44.224967
0
LINE
8
boundary
62
5
39
2
10
81.785246
20
44.224967
11
84.209732
21
39.901625
0
LINE
8
boundary
62
5
39
2
10
84.209732
20
39.901625
11
109.724524
21
32.175262
0
LINE
8
boundary
62
5
39
2
10
109.724524
20
32.175262
11
108.528039
21
28.100410
0
LINE
8
boundary
62
5
39
2
10
108.528039
20
28.100410
11
88.308416
21
34.037428
0
LINE
8
boundary
62
5
39
2
10
88.308416
20
34.037428
11
90.961259
21
30.241348
0
LINE
8
annotation
62
1
39
211
10
159.399246
20
16.860706
11
159.399246
21
24.062114
0
LINE
8
annotation
62
1
39
211
10
159.399246
20
24.062114
11
157.798280
21
22.460697
0
LINE
8
annotation
62
1
39
211
10
178.780569
20
43.649521
11
178.530908
21
43.489074
0
LINE
8
annotation
62
1
39
211
10
178.530908
20
43.489074
11
178.522925
21
44.008722
0
LINE
8
annotation
62
1
39
211
10
178.522925
20
44.008722
11
178.522925
21
44.008722
0
LINE
8
annotation
62
1
39
211
10
178.522925
20
44.008722
11
178.522982
21
44.009241
0
LINE
8
annotation
62
1
39
211
10
178.522982
20
44.009241
11
178.523025
21
44.009755
0
LINE
8
annotation
62
1
39
211
10
178.523025
20
44.009755
11
178.523055
21
44.010269
0
LINE
8
annotation
62
1
39
211
10
178.523055
20
44.010269
11
178.523072
21
44.010786
0
LINE
8
annotation
62
1
39
211
10
178.523072
20
44.010786
11
178.523075
21
44.011311
0
LINE
8
annotation
62
1
39
211
10
178.523075
20
44.011311
11
178.523064
21
44.011848
0
LINE
8
annotation
62
1
39
211
10
178.523064
20
44.011848
11
178.523040
21
44.012401
0
LINE
8
annotation
62
1
39
211
10
178.523040
20
44.012401
11
178.523001
21
44.012973
0
LINE
8
annotation
62
1
39
211
10
178.523001
20
44.012973
11
178.522949
21
44.013569
0
LINE
8
annotation
62
1
39
211
10
178.522949
20
44.013569
11
178.522949
21
44.013569
0
LINE
8
annotation
62
1
39
211
10
178.522949
20
44.013569
11
178.519331
21
44.040143
0
LINE
8
annotation
62
1
39
211
10
178.519331
20
44.040143
11
178.511271
21
44.064919
0
LINE
8
annotation
62
1
39
211
10
178.511271
20
44.064919
11
178.499213
21
44.087506
0
LINE
8
annotation
62
1
39
211
10
178.499213
20
44.087506
11
178.483603
21
44.107514
0
LINE
8
annotation
62
1
39
211
10
178.483603
20
44.107514
11
178.464883
21
44.124550
0
LINE
8
annotation
62
1
39
211
10
178.464883
20
44.124550
11
178.443499
21
44.138224
0
LINE
8
annotation
62
1
39
211
10
178.443499
20
44.138224
11
178.419894
21
44.148143
0
LINE
8
annotation
62
1
39
211
10
178.419894
20
44.148143
11
178.394512
21
44.153917
0
LINE
8
annotation
62
1
39
211
10
178.394512
20
44.153917
11
178.367799
21
44.155154
0
LINE
8
annotation
62
1
39
211
10
178.367799
20
44.155154
11
178.367799
21
44.155154
0
LINE
8
annotation
62
1
39
211
10
178.367799
20
44.155154
11
178.341256
21
44.151364
0
LINE
8
annotation
62
1
39
211
10
178.341256
20
44.151364
11
178.316502
21
44.143197
0
LINE
8
annotation
62
1
39
211
10
178.316502
20
44.143197
11
178.293934
21
44.131083
0
LINE
8
annotation
62
1
39
211
10
178.293934
20
44.131083
11
178.273946
21
44.115449
0
LINE
8
annotation
62
1
39
211
10
178.273946
20
44.115449
11
178.256934
21
44.096723
0
LINE
8
annotation
62
1
39
211
10
178.256934
20
44.096723
11
178.243293
21
44.075335
0
LINE
8
annotation
62
1
39
211
10
178.243293
20
44.075335
11
178.233419
21
44.051711
0
LINE
8
annotation
62
1
39
211
10
178.233419
20
44.051711
11
178.227708
21
44.026282
0
LINE
8
annotation
62
1
39
211
10
178.227708
20
44.026282
11
178.226554
21
43.999475
0
LINE
8
annotation
62
1
39
211
10
178.226554
20
43.999475
11
178.230370
21
43.957495
0
LINE
8
annotation
62
1
39
211
10
145.408185
20
27.235683
11
145.447343
21
27.321427
0
LINE
8
annotation
62
1
39
211
10
145.447343
20
27.321427
11
145.447343
21
27.321427
0
LINE
8
annotation
62
1
39
211
10
145.447343
20
27.321427
11
145.453002
21
27.337480
0
LINE
8
annotation
62
1
39
211
10
145.453002
20
27.337480
11
145.455642
21
27.353812
0
LINE
8
annotation
62
1
39
211
10
145.455642
20
27.353812
11
145.455397
21
27.370069
0
LINE
8
annotation
62
1
39
211
10
145.455397
20
27.370069
11
145.452402
21
27.385899
0
LINE
8
annotation
62
1
39
211
10
145.452402
20
27.385899
11
145.446791
21
27.400947
0
LINE
8
annotation
62
1
39
211
10
145.446791
20
27.400947
11
145.438698
21
27.414863
0
LINE
8
annotation
62
1
39
211
10
145.438698
20
27.414863
11
145.428259
21
27.427291
0
LINE
8
annotation
62
1
39
211
10
145.428259
20
27.427291
11
145.415607
21
27.437879
0
LINE
8
annotation
62
1
39
211
10
145.415607
20
27.437879
11
145.400878
21
27.446274
0
LINE
8
annotation
62
1
39
211
10
145.400878
20
27.446274
11
145.357945
21
27.465881
0
LINE
8
annotation
62
1
39
211
10
145.357945
20
27.465881
11
145.357945
21
27.465881
0
LINE
8
annotation
62
1
39
211
10
145.357945
20
27.465881
11
145.341961
21
27.471512
0
LINE
8
annotation
62
1
39
211
10
145.341961
20
27.471512
11
145.325678
21
27.474138
0
LINE
8
annotation
62
1
39
211
10
145.325678
20
27.474138
11
145.309450
21
27.473888
0
LINE
8
annotation
62
1
39
211
10
145.309450
20
27.473888
11
145.293633
21
27.470892
0
LINE
8
annotation
62
1
39
211
10
145.293633
20
27.470892
11
145.278583
21
27.465279
0
LINE
8
annotation
62
1
39
211
10
145.278583
20
27.465279
11
145.264656
21
27.457177
0
LINE
8
annotation
62
1
39
211
10
145.264656
20
27.457177
11
145.252207
21
27.446717
0
LINE
8
annotation
62
1
39
211
10
145.252207
20
27.446717
11
145.241591
21
27.434028
0
LINE
8
annotation
62
1
39
211
10
145.241591
20
27.434028
11
145.233164
21
27.419239
0
LINE
8
annotation
62
1
39
211
10
145.233164
20
27.419239
11
145.213557
21
27.376306
0
LINE
8
annotation
62
1
39
211
10
145.213557
20
27.376306
11
145.233164
21
27.419239
0
LINE
8
annotation
62
1
39
211
10
145.233164
20
27.419239
11
145.233164
21
27.419239
0
LINE
8
annotation
62
1
39
211
10
145.233164
20
27.419239
11
145.238822
21
27.435293
0
LINE
8
annotation
62
1
39
211
10
145.238822
20
27.435293
11
145.241458
21
27.451626
0
LINE
8
annotation
62
1
39
211
10
145.241458
20
27.451626
11
145.241204
21
27.467888
0
LINE
8
annotation
62
1
39
211
10
145.241204
20
27.467888
11
145.238193
21
27.483724
0
LINE
8
annotation
62
1
39
211
10
145.238193
20
27.483724
11
145.232560
21
27.498783
0
LINE
8
annotation
62
1
39
211
10
145.232560
20
27.498783
11
145.224436
21
27.512713
0
LINE
8
annotation
62
1
39
211
10
145.224436
20
27.512713
11
145.213956
21
27.525160
0
LINE
8
annotation
62
1
39
211
10
145.213956
20
27.525160
11
145.201252
21
27.535772
0
LINE
8
annotation
62
1
39
211
10
145.201252
20
27.535772
11
145.186457
21
27.544197
0
LINE
8
annotation
62
1
39
211
10
145.186457
20
27.544197
11
145.186457
21
27.544197
0
LINE
8
annotation
62
1
39
211
10
145.186457
20
27.544197
11
145.170473
21
27.549828
0
LINE
8
annotation
62
1
39
211
10
145.170473
20
27.549828
11
145.154189
21
27.552454
0
LINE
8
annotation
62
1
39
211
10
145.154189
20
27.552454
11
145.137961
21
27.552204
0
LINE
8
annotation
62
1
39
211
10
145.137961
20
27.552204
11
145.122145
21
27.549208
0
LINE
8
annotation
62
1
39
211
10
145.122145
20
27.549208
11
145.107095
21
27.543595
0
LINE
8
annotation
62
1
39
211
10
145.107095
20
27.543595
11
145.093168
21
27.535494
0
LINE
8
annotation
62
1
39
211
10
145.093168
20
27.535494
11
145.080718
21
27.525034
0
LINE
8
annotation
62
1
39
211
10
145.080718
20
27.525034
11
145.070102
21
27.512344
0
LINE
8
annotation
62
1
39
211
10
145.070102
20
27.512344
11
145.061675
21
27.497555
0
LINE
8
annotation
62
1
39
211
10
145.061675
20
27.497555
11
145.022517
21
27.411811
0
LINE
8
annotation
62
1
39
211
10
137.345780
20
24.890542
11
137.019443
21
25.267155
0
LINE
8
annotation
62
1
39
211
10
137.019443
20
25.267155
11
137.019443
21
25.267155
0
LINE
8
annotation
62
1
39
211
10
137.019443
20
25.267155
11
136.954794
21
25.329484
0
LINE
8
annotation
62
1
39
211
10
136.954794
20
25.329484
11
136.882110
21
25.377963
0
LINE
8
annotation
62
1
39
211
10
136.882110
20
25.377963
11
136.803387
21
25.412445
0
LINE
8
annotation
62
1
39
211
10
136.803387
20
25.412445
11
136.720622
21
25.432780
0
LINE
8
annotation
62
1
39
211
10
136.720622
20
25.432780
11
136.635812
21
25.438821
0
LINE
8
annotation
62
1
39
211
10
136.635812
20
25.438821
11
136.550955
21
25.430418
0
LINE
8
annotation
62
1
39
211
10
136.550955
20
25.430418
11
136.468047
21
25.407423
0
LINE
8
annotation
62
1
39
211
10
136.468047
20
25.407423
11
136.389085
21
25.369687
0
LINE
8
annotation
62
1
39
211
10
136.389085
20
25.369687
11
136.316067
21
25.317063
0
LINE
8
annotation
62
1
39
211
10
136.316067
20
25.317063
11
136.128452
21
25.154493
0
LINE
8
annotation
62
1
39
211
10
136.128452
20
25.154493
11
136.128452
21
25.154493
0
LINE
8
annotation
62
1
39
211
10
136.128452
20
25.154493
11
136.066001
21
25.089739
0
LINE
8
annotation
62
1
39
211
10
136.066001
20
25.089739
11
136.017493
21
25.017037
0
LINE
8
annotation
62
1
39
211
10
136.017493
20
25.017037
11
135.983051
21
24.938367
0
LINE
8
annotation
62
1
39
211
10
135.983051
20
24.938367
11
135.962798
21
24.855712
0
LINE
8
annotation
62
1
39
211
10
135.962798
20
24.855712
11
135.956859
21
24.771052
0
LINE
8
annotation
62
1
39
211
10
135.956859
20
24.771052
11
135.965356
21
24.686370
0
LINE
8
annotation
62
1
39
211
10
135.965356
20
24.686370
11
135.988415
21
24.603647
0
LINE
8
annotation
62
1
39
211
10
135.988415
20
24.603647
11
136.026157
21
24.524864
0
LINE
8
annotation
62
1
39
211
10
136.026157
20
24.524864
11
136.078708
21
24.452004
0
LINE
8
annotation
62
1
39
211
10
136.078708
20
24.452004
11
136.405045
21
24.075390
0
LINE
8
annotation
62
1
39
211
10
136.405045
20
24.075390
11
135.649798
21
23.420965
0
LINE
8
annotation
62
1
39
211
10
135.649798
20
23.420965
11
134.997124
21
24.174191
0
LINE
8
annotation
62
1
39
211
10
99.317315
20
71.403899
11
99.014413
21
71.753467
0
LINE
8
annotation
62
1
39
211
10
99.014413
20
71.753467
11
99.014413
21
71.753467
0
LINE
8
annotation
62
1
39
211
10
99.014413
20
71.753467
11
98.954407
21
71.811319
0
LINE
8
annotation
62
1
39
211
10
98.954407
20
71.811319
11
98.886942
21
71.856317
0
LINE
8
annotation
62
1
39
211
10
98.886942
20
71.856317
11
98.813872
21
71.888322
0
LINE
8
annotation
62
1
39
211
10
98.813872
20
71.888322
11
98.737051
21
71.907198
0
LINE
8
annotation
62
1
39
211
10
98.737051
20
71.907198
11
98.658331
21
71.912804
0
LINE
8
annotation
62
1
39
211
10
98.658331
20
71.912804
11
98.579568
21
71.905005
0
LINE
8
annotation
62
1
39
211
10
98.579568
20
71.905005
11
98.502614
21
71.883661
0
LINE
8
annotation
62
1
39
211
10
98.502614
20
71.883661
11
98.429323
21
71.848636
0
LINE
8
annotation
62
1
39
211
10
98.429323
20
71.848636
11
98.361548
21
71.799790
0
LINE
8
annotation
62
1
39
211
10
98.361548
20
71.799790
11
98.187406
21
71.648895
0
LINE
8
annotation
62
1
39
211
10
98.187406
20
71.648895
11
98.187406
21
71.648895
0
LINE
8
annotation
62
1
39
211
10
98.187406
20
71.648895
11
98.129440
21
71.588791
0
LINE
8
annotation
62
1
39
211
10
98.129440
20
71.588791
11
98.084415
21
71.521310
0
LINE
8
annotation
62
1
39
211
10
98.084415
20
71.521310
11
98.052446
21
71.448290
0
LINE
8
annotation
62
1
39
211
10
98.052446
20
71.448290
11
98.033648
21
71.371570
0
LINE
8
annotation
62
1
39
211
10
98.033648
20
71.371570
11
98.028135
21
71.292990
0
LINE
8
annotation
62
1
39
211
10
98.028135
20
71.292990
11
98.036023
21
71.214389
0
LINE
8
annotation
62
1
39
211
10
98.036023
20
71.214389
11
98.057425
21
71.137606
0
LINE
8
annotation
62
1
39
211
10
98.057425
20
71.137606
11
98.092457
21
71.064481
0
LINE
8
annotation
62
1
39
211
10
98.092457
20
71.064481
11
98.141234
21
70.996853
0
LINE
8
annotation
62
1
39
211
10
98.141234
20
70.996853
11
98.444136
21
70.647285
0
LINE
8
annotation
62
1
39
211
10
98.444136
20
70.647285
11
97.743125
21
70.039856
0
LINE
8
annotation
62
1
39
211
10
97.743125
20
70.039856
11
97.137321
21
70.738991
0
LINE
8
annotation
62
1
39
211
10
116.101253
20
24.337084
11
116.101253
21
24.337084
0
LINE
8
annotation
62
1
39
211
10
116.101253
20
24.337084
11
116.589207
21
24.372827
0
LINE
8
annotation
62
1
39
211
10
116.589207
20
24.372827
11
117.057765
21
24.476451
0
LINE
8
annotation
62
1
39
211
10
117.057765
20
24.476451
11
117.501154
21
24.643611
0
LINE
8
annotation
62
1
39
211
10
117.501154
20
24.643611
11
117.913599
21
24.869958
0
LINE
8
annotation
62
1
39
211
10
117.913599
20
24.869958
11
118.289325
21
25.151144
0
LINE
8
annotation
62
1
39
211
10
118.289325
20
25.151144
11
118.622559
21
25.482821
0
LINE
8
annotation
62
1
39
211
10
118.622559
20
25.482821
11
118.907526
21
25.860642
0
LINE
8
annotation
62
1
39
211
10
118.907526
20
25.860642
11
119.138452
21
26.280259
0
LINE
8
annotation
62
1
39
211
10
119.138452
20
26.280259
11
119.309563
21
26.737324
0
LINE
8
annotation
62
1
39
211
10
119.309563
20
26.737324
11
119.983902
21
29.033913
0
LINE
8
annotation
62
1
39
211
10
119.983902
20
29.033913
11
119.983902
21
29.033913
0
LINE
8
annotation
62
1
39
211
10
119.983902
20
29.033913
11
120.040177
21
29.317209
0
LINE
8
annotation
62
1
39
211
10
120.040177
20
29.317209
11
120.045066
21
29.598005
0
LINE
8
annotation
62
1
39
211
10
120.045066
20
29.598005
11
120.001666
21
29.870670
0
LINE
8
annotation
62
1
39
211
10
120.001666
20
29.870670
11
119.913073
21
30.129574
0
LINE
8
annotation
62
1
39
211
10
119.913073
20
30.129574
11
119.782383
21
30.369083
0
LINE
8
annotation
62
1
39
211
10
119.782383
20
30.369083
11
119.612691
21
30.583569
0
LINE
8
annotation
62
1
39
211
10
119.612691
20
30.583569
11
119.407093
21
30.767398
0
LINE
8
annotation
62
1
39
211
10
119.407093
20
30.767398
11
119.168686
21
30.914940
0
LINE
8
annotation
62
1
39
211
10
119.168686
20
30.914940
11
118.900565
21
31.020563
0
LINE
8
annotation
62
1
39
211
10
118.900565
20
31.020563
11
118.900565
21
31.020563
0
LINE
8
annotation
62
1
39
211
10
118.900565
20
31.020563
11
118.617332
21
31.076832
0
LINE
8
annotation
62
1
39
211
10
118.617332
20
31.076832
11
118.336701
21
31.081693
0
LINE
8
annotation
62
1
39
211
10
118.336701
20
31.081693
11
118.064266
21
31.038227
0
LINE
8
annotation
62
1
39
211
10
118.064266
20
31.038227
11
117.805624
21
30.949512
0
LINE
8
annotation
62
1
39
211
10
117.805624
20
30.949512
11
117.566370
21
30.818628
0
LINE
8
annotation
62
1
39
211
10
117.566370
20
30.818628
11
117.352099
21
30.648653
0
LINE
8
annotation
62
1
39
211
10
117.352099
20
30.648653
11
117.168406
21
30.442668
0
LINE
8
annotation
62
1
39
211
10
117.168406
20
30.442668
11
117.020888
21
30.203752
0
LINE
8
annotation
62
1
39
211
10
117.020888
20
30.203752
11
116.915139
21
29.934983
0
LINE
8
annotation
62
1
39
211
10
116.915139
20
29.934983
11
116.690699
21
29.170609
0
LINE
8
annotation
62
1
39
211
10
116.690699
20
29.170609
11
116.690699
21
29.170609
0
LINE
8
annotation
62
1
39
211
10
116.690699
20
29.170609
11
116.634392
21
28.887468
0
LINE
8
annotation
62
1
39
211
10
116.634392
20
28.887468
11
116.629430
21
28.607083
0
LINE
8
annotation
62
1
39
211
10
116.629430
20
28.607083
11
116.672750
21
28.335004
0
LINE
8
annotation
62
1
39
211
10
116.672750
20
28.335004
11
116.761292
21
28.076784
0
LINE
8
annotation
62
1
39
211
10
116.761292
20
28.076784
11
116.891994
21
27.837974
0
LINE
8
annotation
62
1
39
211
10
116.891994
20
27.837974
11
117.061795
21
27.624125
0
LINE
8
annotation
62
1
39
211
10
117.061795
20
27.624125
11
117.267635
21
27.440788
0
LINE
8
annotation
62
1
39
211
10
117.267635
20
27.440788
11
117.506450
21
27.293516
0
LINE
8
annotation
62
1
39
211
10
117.506450
20
27.293516
11
117.775181
21
27.187859
0
LINE
8
annotation
62
1
39
211
10
117.775181
20
27.187859
11
119.309563
21
26.737324
0
LINE
8
annotation
62
1
39
211
10
120.880732
20
31.377312
11
117.425882
21
32.391748
0
LINE
8
annotation
62
1
39
211
10
131.290932
20
21.045827
11
131.783688
21
13.685083
0
LINE
8
annotation
62
1
39
211
10
131.783688
20
13.685083
11
134.856351
21
14.587298
0
LINE
8
annotation
62
1
39
211
10
130.880200
20
16.762079
11
132.416315
21
17.213123
0
LINE
8
annotation
62
1
39
211
10
139.030418
20
20.000899
11
139.030418
21
20.000899
0
LINE
8
annotation
62
1
39
211
10
139.030418
20
20.000899
11
138.796206
21
20.169682
0
LINE
8
annotation
62
1
39
211
10
138.796206
20
20.169682
11
138.543098
21
20.290532
0
LINE
8
annotation
62
1
39
211
10
138.543098
20
20.290532
11
138.277453
21
20.363969
0
LINE
8
annotation
62
1
39
211
10
138.277453
20
20.363969
11
138.005628
21
20.390514
0
LINE
8
annotation
62
1
39
211
10
138.005628
20
20.390514
11
137.733981
21
20.370688
0
LINE
8
annotation
62
1
39
211
10
137.733981
20
20.370688
11
137.468870
21
20.305012
0
LINE
8
annotation
62
1
39
211
10
137.468870
20
20.305012
11
137.216654
21
20.194005
0
LINE
8
annotation
62
1
39
211
10
137.216654
20
20.194005
11
136.983689
21
20.038188
0
LINE
8
annotation
62
1
39
211
10
136.983689
20
20.038188
11
136.776335
21
19.838083
0
LINE
8
annotation
62
1
39
211
10
136.776335
20
19.838083
11
136.776335
21
19.838083
0
LINE
8
annotation
62
1
39
211
10
136.776335
20
19.838083
11
136.607776
21
19.604361
0
LINE
8
annotation
62
1
39
211
10
136.607776
20
19.604361
11
136.486700
21
19.351593
0
LINE
8
annotation
62
1
39
211
10
136.486700
20
19.351593
11
136.412717
21
19.086146
0
LINE
8
annotation
62
1
39
211
10
136.412717
20
19.086146
11
136.385438
21
18.814387
0
LINE
8
annotation
62
1
39
211
10
136.385438
20
18.814387
11
136.404473
21
18.542683
0
LINE
8
annotation
62
1
39
211
10
136.404473
20
18.542683
11
136.469433
21
18.277403
0
LINE
8
annotation
62
1
39
211
10
136.469433
20
18.277403
11
136.579928
21
18.024913
0
LINE
8
annotation
62
1
39
211
10
136.579928
20
18.024913
11
136.735569
21
17.791580
0
LINE
8
annotation
62
1
39
211
10
136.735569
20
17.791580
11
136.935965
21
17.583772
0
LINE
8
annotation
62
1
39
211
10
136.935965
20
17.583772
11
137.538029
21
17.062081
0
LINE
8
annotation
62
1
39
211
10
137.538029
20
17.062081
11
137.538029
21
17.062081
0
LINE
8
annotation
62
1
39
211
10
137.538029
20
17.062081
11
137.772337
21
16.893196
0
LINE
8
annotation
62
1
39
211
10
137.772337
20
16.893196
11
138.025702
21
16.772073
0
LINE
8
annotation
62
1
39
211
10
138.025702
20
16.772073
11
138.291725
21
16.698245
0
LINE
8
annotation
62
1
39
211
10
138.291725
20
16.698245
11
138.564003
21
16.671243
0
LINE
8
annotation
62
1
39
211
10
138.564003
20
16.671243
11
138.836135
21
16.690600
0
LINE
8
annotation
62
1
39
211
10
138.836135
20
16.690600
11
139.101720
21
16.755845
0
LINE
8
annotation
62
1
39
211
10
139.101720
20
16.755845
11
139.354358
21
16.866512
0
LINE
8
annotation
62
1
39
211
10
139.354358
20
16.866512
11
139.587646
21
17.022132
0
LINE
8
annotation
62
1
39
211
10
139.587646
20
17.022132
11
139.795184
21
17.222235
0
LINE
8
annotation
62
1
39
211
10
139.795184
20
17.222235
11
139.795184
21
17.222235
0
LINE
8
annotation
62
1
39
211
10
139.795184
20
17.222235
11
139.963704
21
17.456148
0
LINE
8
annotation
62
1
39
211
10
139.963704
20
17.456148
11
140.084511
21
17.709233
0
LINE
8
annotation
62
1
39
211
10
140.084511
20
17.709233
11
140.158061
21
17.975080
0
LINE
8
annotation
62
1
39
211
10
140.158061
20
17.975080
11
140.184809
21
18.247280
0
LINE
8
annotation
62
1
39
211
10
140.184809
20
18.247280
11
140.165212
21
18.519421
0
LINE
8
annotation
62
1
39
211
10
140.165212
20
18.519421
11
140.099724
21
18.785095
0
LINE
8
annotation
62
1
39
211
10
140.099724
20
18.785095
11
139.988803
21
19.037890
0
LINE
8
annotation
62
1
39
211
10
139.988803
20
19.037890
11
139.832903
21
19.271398
0
LINE
8
annotation
62
1
39
211
10
139.832903
20
19.271398
11
139.632481
21
19.479208
0
LINE
8
annotation
62
1
39
211
10
139.632481
20
19.479208
11
139.030418
21
20.000899
0
LINE
8
annotation
62
1
39
211
10
139.958228
20
14.964967
11
139.958228
21
14.964967
0
LINE
8
annotation
62
1
39
211
10
139.958228
20
14.964967
11
140.191531
21
14.796952
0
LINE
8
annotation
62
1
39
211
10
140.191531
20
14.796952
11
140.444137
21
14.676488
0
LINE
8
annotation
62
1
39
211
10
140.444137
20
14.676488
11
140.709610
21
14.603135
0
LINE
8
annotation
62
1
39
211
10
140.709610
20
14.603135
11
140.981516
21
14.576456
0
LINE
8
annotation
62
1
39
211
10
140.981516
20
14.576456
11
141.253419
21
14.596011
0
LINE
8
annotation
62
1
39
211
10
141.253419
20
14.596011
11
141.518886
21
14.661360
0
LINE
8
annotation
62
1
39
211
10
141.518886
20
14.661360
11
141.771479
21
14.772064
0
LINE
8
annotation
62
1
39
211
10
141.771479
20
14.772064
11
142.004766
21
14.927685
0
LINE
8
annotation
62
1
39
211
10
142.004766
20
14.927685
11
142.212311
21
15.127783
0
LINE
8
annotation
62
1
39
211
10
142.212311
20
15.127783
11
142.212311
21
15.127783
0
LINE
8
annotation
62
1
39
211
10
142.212311
20
15.127783
11
142.380835
21
15.361692
0
LINE
8
annotation
62
1
39
211
10
142.380835
20
15.361692
11
142.501672
21
15.614751
0
LINE
8
annotation
62
1
39
211
10
142.501672
20
15.614751
11
142.575302
21
15.880529
0
LINE
8
annotation
62
1
39
211
10
142.575302
20
15.880529
11
142.602206
21
16.152593
0
LINE
8
annotation
62
1
39
211
10
142.602206
20
16.152593
11
142.582866
21
16.424512
0
LINE
8
annotation
62
1
39
211
10
142.582866
20
16.424512
11
142.517762
21
16.689853
0
LINE
8
annotation
62
1
39
211
10
142.517762
20
16.689853
11
142.407375
21
16.942185
0
LINE
8
annotation
62
1
39
211
10
142.407375
20
16.942185
11
142.252188
21
17.175076
0
LINE
8
annotation
62
1
39
211
10
142.252188
20
17.175076
11
142.052680
21
17.382094
0
LINE
8
annotation
62
1
39
211
10
142.052680
20
17.382094
11
142.052680
21
17.382094
0
LINE
8
annotation
62
1
39
211
10
142.052680
20
17.382094
11
141.818351
21
17.550978
0
LINE
8
annotation
62
1
39
211
10
141.818351
20
17.550978
11
141.564929
21
17.672100
0
LINE
8
annotation
62
1
39
211
10
141.564929
20
17.672100
11
141.298830
21
17.745931
0
LINE
8
annotation
62
1
39
211
10
141.298830
20
17.745931
11
141.026466
21
17.772943
0
LINE
8
annotation
62
1
39
211
10
141.026466
20
17.772943
11
140.754253
21
17.753608
0
LINE
8
annotation
62
1
39
211
10
140.754253
20
17.753608
11
140.488604
21
17.688397
0
LINE
8
annotation
62
1
39
211
10
140.488604
20
17.688397
11
140.235933
21
17.577784
0
LINE
8
annotation
62
1
39
211
10
140.235933
20
17.577784
11
140.002655
21
17.422239
0
LINE
8
annotation
62
1
39
211
10
140.002655
20
17.422239
11
139.795184
21
17.222235
0
LINE
8
annotation
62
1
39
211
10
139.795184
20
17.222235
11
139.795184
21
17.222235
0
LINE
8
annotation
62
1
39
211
10
139.795184
20
17.222235
11
139.626742
21
16.988412
0
LINE
8
annotation
62
1
39
211
10
139.626742
20
16.988412
11
139.505979
21
16.735372
0
LINE
8
annotation
62
1
39
211
10
139.505979
20
16.735372
11
139.432451
21
16.469531
0
LINE
8
annotation
62
1
39
211
10
139.432451
20
16.469531
11
139.405710
21
16.197306
0
LINE
8
annotation
62
1
39
211
10
139.405710
20
16.197306
11
139.425312
21
15.925112
0
LINE
8
annotation
62
1
39
211
10
139.425312
20
15.925112
11
139.490810
21
15.659365
0
LINE
8
annotation
62
1
39
211
10
139.490810
20
15.659365
11
139.601759
21
15.406481
0
LINE
8
annotation
62
1
39
211
10
139.601759
20
15.406481
11
139.757714
21
15.172876
0
LINE
8
annotation
62
1
39
211
10
139.757714
20
15.172876
11
139.958228
21
14.964967
0
LINE
8
annotation
62
1
39
211
10
138.366226
20
19.924428
11
138.366226
21
19.924428
0
LINE
8
annotation
62
1
39
211
10
138.366226
20
19.924428
11
138.469826
21
19.447518
0
LINE
8
annotation
62
1
39
211
10
138.469826
20
19.447518
11
138.638094
21
18.999252
0
LINE
8
annotation
62
1
39
211
10
138.638094
20
18.999252
11
138.865836
21
18.584760
0
LINE
8
annotation
62
1
39
211
10
138.865836
20
18.584760
11
139.147862
21
18.209171
0
LINE
8
annotation
62
1
39
211
10
139.147862
20
18.209171
11
139.478979
21
17.877612
0
LINE
8
annotation
62
1
39
211
10
139.478979
20
17.877612
11
139.853995
21
17.595214
0
LINE
8
annotation
62
1
39
211
10
139.853995
20
17.595214
11
140.267718
21
17.367104
0
LINE
8
annotation
62
1
39
211
10
140.267718
20
17.367104
11
140.714956
21
17.198412
0
LINE
8
annotation
62
1
39
211
10
140.714956
20
17.198412
11
141.190517
21
17.094267
0
LINE
8
annotation
62
1
39
211
10
141.190517
20
17.094267
11
143.567745
21
16.752473
0
LINE
8
annotation
62
1
39
211
10
143.567745
20
16.752473
11
143.567745
21
16.752473
0
LINE
8
annotation
62
1
39
211
10
143.567745
20
16.752473
11
143.856171
21
16.737013
0
LINE
8
annotation
62
1
39
211
10
143.856171
20
16.737013
11
144.134819
21
16.771945
0
LINE
8
annotation
62
1
39
211
10
144.134819
20
16.771945
11
144.398558
21
16.853460
0
LINE
8
annotation
62
1
39
211
10
144.398558
20
16.853460
11
144.642254
21
16.977748
0
LINE
8
annotation
62
1
39
211
10
144.642254
20
16.977748
11
144.860774
21
17.140999
0
LINE
8
annotation
62
1
39
211
10
144.860774
20
17.140999
11
145.048987
21
17.339404
0
LINE
8
annotation
62
1
39
211
10
145.048987
20
17.339404
11
145.201758
21
17.569154
0
LINE
8
annotation
62
1
39
211
10
145.201758
20
17.569154
11
145.313955
21
17.826439
0
LINE
8
annotation
62
1
39
211
10
145.313955
20
17.826439
11
145.380446
21
18.107449
0
LINE
8
annotation
62
1
39
211
10
145.380446
20
18.107449
11
145.380446
21
18.107449
0
LINE
8
annotation
62
1
39
211
10
145.380446
20
18.107449
11
145.395734
21
18.395221
0
LINE
8
annotation
62
1
39
211
10
145.395734
20
18.395221
11
145.360522
21
18.673381
0
LINE
8
annotation
62
1
39
211
10
145.360522
20
18.673381
11
145.278654
21
18.936773
0
LINE
8
annotation
62
1
39
211
10
145.278654
20
18.936773
11
145.153973
21
19.180240
0
LINE
8
annotation
62
1
39
211
10
145.153973
20
19.180240
11
144.990324
21
19.398627
0
LINE
8
annotation
62
1
39
211
10
144.990324
20
19.398627
11
144.791549
21
19.586777
0
LINE
8
annotation
62
1
39
211
10
144.791549
20
19.586777
11
144.561494
21
19.739533
0
LINE
8
annotation
62
1
39
211
10
144.561494
20
19.739533
11
144.304000
21
19.851738
0
LINE
8
annotation
62
1
39
211
10
144.304000
20
19.851738
11
144.022913
21
19.918236
0
LINE
8
annotation
62
1
39
211
10
144.022913
20
19.918236
11
143.230355
21
20.032189
0
LINE
8
annotation
62
1
39
211
10
143.230355
20
20.032189
11
143.230355
21
20.032189
0
LINE
8
annotation
62
1
39
211
10
143.230355
20
20.032189
11
142.941934
21
20.047574
0
LINE
8
annotation
62
1
39
211
10
142.941934
20
20.047574
11
142.663300
21
20.012452
0
LINE
8
annotation
62
1
39
211
10
142.663300
20
20.012452
11
142.399586
21
19.930689
0
LINE
8
annotation
62
1
39
211
10
142.399586
20
19.930689
11
142.155927
21
19.806152
0
LINE
8
annotation
62
1
39
211
10
142.155927
20
19.806152
11
141.937454
21
19.642706
0
LINE
8
annotation
62
1
39
211
10
141.937454
20
19.642706
11
141.749301
21
19.444217
0
LINE
8
annotation
62
1
39
211
10
141.749301
20
19.444217
11
141.596603
21
19.214550
0
LINE
8
annotation
62
1
39
211
10
141.596603
20
19.214550
11
141.484492
21
18.957572
0
LINE
8
annotation
62
1
39
211
10
141.484492
20
18.957572
11
141.418101
21
18.677149
0
LINE
8
annotation
62
1
39
211
10
141.418101
20
18.677149
11
141.190517
21
17.094267
0
LINE
8
annotation
62
1
39
211
10
137.617348
20
21.041111
11
137.104915
21
17.477057
0
LINE
8
annotation
62
1
39
211
10
139.144004
20
18.554323
11
145.445874
21
21.432291
0
LINE
8
annotation
62
1
39
211
10
145.445874
20
21.432291
11
143.404683
21
22.193287
0
LINE
8
annotation
62
1
39
211
10
140.768553
20
15.217032
11
140.768553
21
15.217032
0
LINE
8
annotation
62
1
39
211
10
140.768553
20
15.217032
11
140.780689
21
15.045564
0
LINE
8
annotation
62
1
39
211
10
140.780689
20
15.045564
11
140.822086
21
14.882931
0
LINE
8
annotation
62
1
39
211
10
140.822086
20
14.882931
11
140.890085
21
14.732022
0
LINE
8
annotation
62
1
39
211
10
140.890085
20
14.732022
11
140.982025
21
14.595727
0
LINE
8
annotation
62
1
39
211
10
140.982025
20
14.595727
11
141.095247
21
14.476933
0
LINE
8
annotation
62
1
39
211
10
141.095247
20
14.476933
11
141.227090
21
14.378531
0
LINE
8
annotation
62
1
39
211
10
141.227090
20
14.378531
11
141.374895
21
14.303411
0
LINE
8
annotation
62
1
39
211
10
141.374895
20
14.303411
11
141.536001
21
14.254460
0
LINE
8
annotation
62
1
39
211
10
141.536001
20
14.254460
11
141.707749
21
14.234569
0
LINE
8
annotation
62
1
39
211
10
141.707749
20
14.234569
11
141.707749
21
14.234569
0
LINE
8
annotation
62
1
39
211
10
141.707749
20
14.234569
11
142.386800
21
14.251314
0
LINE
8
annotation
62
1
39
211
10
142.386800
20
14.251314
11
143.054583
21
14.336255
0
LINE
8
annotation
62
1
39
211
10
143.054583
20
14.336255
11
143.706436
21
14.487262
0
LINE
8
annotation
62
1
39
211
10
143.706436
20
14.487262
11
144.337699
21
14.702208
0
LINE
8
annotation
62
1
39
211
10
144.337699
20
14.702208
11
144.943710
21
14.978964
0
LINE
8
annotation
62
1
39
211
10
144.943710
20
14.978964
11
145.519807
21
15.315401
0
LINE
8
annotation
62
1
39
211
10
145.519807
20
15.315401
11
146.061331
21
15.709391
0
LINE
8
annotation
62
1
39
211
10
146.061331
20
15.709391
11
146.563620
21
16.158804
0
LINE
8
annotation
62
1
39
211
10
146.563620
20
16.158804
11
147.022013
21
16.661512
0
LINE
8
annotation
62
1
39
211
10
147.022013
20
16.661512
11
147.022013
21
16.661512
0
LINE
8
annotation
62
1
39
211
10
147.022013
20
16.661512
11
147.065365
21
16.718618
0
LINE
8
annotation
62
1
39
211
10
147.065365
20
16.718618
11
147.104308
21
16.778699
0
LINE
8
annotation
62
1
39
211
10
147.104308
20
16.778699
11
147.138691
21
16.841368
0
LINE
8
annotation
62
1
39
211
10
147.138691
20
16.841368
11
147.168367
21
16.906238
0
LINE
8
annotation
62
1
39
211
10
147.168367
20
16.906238
11
147.193184
21
16.972923
0
LINE
8
annotation
62
1
39
211
10
147.193184
20
16.972923
11
147.212994
21
17.041036
0
LINE
8
annotation
62
1
39
211
10
147.212994
20
17.041036
11
147.227646
21
17.110190
0
LINE
8
annotation
62
1
39
211
10
147.227646
20
17.110190
11
147.236991
21
17.179999
0
LINE
8
annotation
62
1
39
211
10
147.236991
20
17.179999
11
147.240880
21
17.250075
0
LINE
8
annotation
62
1
39
211
10
147.240880
20
17.250075
11
147.240880
21
17.250075
0
LINE
8
annotation
62
1
39
211
10
147.240880
20
17.250075
11
147.229400
21
17.423247
0
LINE
8
annotation
62
1
39
211
10
147.229400
20
17.423247
11
147.188531
21
17.587185
0
LINE
8
annotation
62
1
39
211
10
147.188531
20
17.587185
11
147.120921
21
17.739040
0
LINE
8
annotation
62
1
39
211
10
147.120921
20
17.739040
11
147.029219
21
17.875965
0
LINE
8
annotation
62
1
39
211
10
147.029219
20
17.875965
11
146.916074
21
17.995114
0
LINE
8
annotation
62
1
39
211
10
146.916074
20
17.995114
11
146.784135
21
18.093639
0
LINE
8
annotation
62
1
39
211
10
146.784135
20
18.093639
11
146.636050
21
18.168693
0
LINE
8
annotation
62
1
39
211
10
146.636050
20
18.168693
11
146.474467
21
18.217428
0
LINE
8
annotation
62
1
39
211
10
146.474467
20
18.217428
11
146.302036
21
18.236997
0
LINE
8
annotation
62
1
39
211
10
146.302036
20
18.236997
11
146.302036
21
18.236997
0
LINE
8
annotation
62
1
39
211
10
146.302036
20
18.236997
11
145.623636
21
18.219135
0
LINE
8
annotation
62
1
39
211
10
145.623636
20
18.219135
11
144.956343
21
18.133356
0
LINE
8
annotation
62
1
39
211
10
144.956343
20
18.133356
11
144.304815
21
17.981789
0
LINE
8
annotation
62
1
39
211
10
144.304815
20
17.981789
11
143.673716
21
17.766564
0
LINE
8
annotation
62
1
39
211
10
143.673716
20
17.766564
11
143.067705
21
17.489808
0
LINE
8
annotation
62
1
39
211
10
143.067705
20
17.489808
11
142.491444
21
17.153650
0
LINE
8
annotation
62
1
39
211
10
142.491444
20
17.153650
11
141.949594
21
16.760220
0
LINE
8
annotation
62
1
39
211
10
141.949594
20
16.760220
11
141.446816
21
16.311645
0
LINE
8
annotation
62
1
39
211
10
141.446816
20
16.311645
11
140.987772
21
15.810054
0
LINE
8
annotation
62
1
39
211
10
140.987772
20
15.810054
11
140.987772
21
15.810054
0
LINE
8
annotation
62
1
39
211
10
140.987772
20
15.810054
11
140.944483
21
15.753113
0
LINE
8
annotation
62
1
39
211
10
140.944483
20
15.753113
11
140.905696
21
15.693415
0
LINE
8
annotation
62
1
39
211
10
140.905696
20
15.693415
11
140.871510
21
15.631185
0
LINE
8
annotation
62
1
39
211
10
140.871510
20
15.631185
11
140.842024
21
15.566642
0
LINE
8
annotation
62
1
39
211
10
140.842024
20
15.566642
11
140.817336
21
15.500010
0
LINE
8
annotation
62
1
39
211
10
140.817336
20
15.500010
11
140.797546
21
15.431511
0
LINE
8
annotation
62
1
39
211
10
140.797546
20
15.431511
11
140.782753
21
15.361367
0
LINE
8
annotation
62
1
39
211
10
140.782753
20
15.361367
11
140.773056
21
15.289800
0
LINE
8
annotation
62
1
39
211
10
140.773056
20
15.289800
11
140.768553
21
15.217032
0
LINE
8
annotation
62
1
39
211
10
144.265265
20
14.777608
11
148.158640
21
20.835818
0
LINE
8
annotation
62
1
39
211
10
148.158640
20
20.835818
11
145.946031
21
20.354167
0
LINE
8
annotation
62
1
39
211
10
147.883911
20
12.452045
11
151.777287
21
18.510255
0
LINE
8
annotation
62
1
39
211
10
151.777287
20
18.510255
11
149.564678
21
18.028604
0
LINE
8
annotation
62
1
39
211
10
133.428049
20
18.933083
11
130.743478
21
18.933083
0
LINE
8
annotation
62
1
39
211
10
130.743478
20
18.933083
11
133.428049
21
23.767979
0
LINE
8
annotation
62
1
39
211
10
133.428049
20
23.767979
11
130.743478
21
23.767979
0
LINE
8
annotation
62
1
39
211
10
137.885228
20
21.350531
11
135.241590
21
21.350531
0
LINE
8
annotation
62
1
39
211
10
140.772870
20
18.933083
11
140.772870
21
23.767979
0
LINE
8
annotation
62
1
39
211
10
140.772870
20
23.767979
11
139.698011
21
22.692816
0
LINE
8
boundary
62
5
39
2
10
208.634632
20
136.061872
11
208.727659
21
136.601188
0
LINE
8
boundary
62
5
39
2
10
208.727659
20
136.601188
11
209.062625
21
142.447800
0
LINE
8
boundary
62
5
39
2
10
209.062625
20
142.447800
11
209.157183
21
144.098339
0
LINE
8
boundary
62
5
39
2
10
209.157183
20
144.098339
11
204.376884
21
144.098339
0
LINE
8
boundary
62
5
39
2
10
204.376884
20
144.098339
11
202.374583
21
144.098339
0
LINE
8
boundary
62
5
39
2
10
202.374583
20
144.098339
11
198.439908
21
144.098339
0
LINE
8
boundary
62
5
39
2
10
198.439908
20
144.098339
11
194.115596
21
144.098339
0
LINE
8
boundary
62
5
39
2
10
194.115596
20
144.098339
11
192.626518
21
144.098339
0
LINE
8
boundary
62
5
39
2
10
192.626518
20
144.098339
11
188.673833
21
144.098339
0
LINE
8
boundary
62
5
39
2
10
188.673833
20
144.098339
11
188.518625
21
141.985414
0
LINE
8
boundary
62
5
39
2
10
188.518625
20
141.985414
11
188.158519
21
137.082839
0
LINE
8
boundary
62
5
39
2
10
188.158519
20
137.082839
11
187.820739
21
135.556296
0
LINE
8
boundary
62
5
39
2
10
187.820739
20
135.556296
11
186.615749
21
130.110584
0
LINE
8
boundary
62
5
39
2
10
186.615749
20
130.110584
11
186.024127
21
128.519639
0
LINE
8
boundary
62
5
39
2
10
186.024127
20
128.519639
11
184.357647
21
124.623032
0
LINE
8
boundary
62
5
39
2
10
184.357647
20
124.623032
11
183.759561
21
123.224583
0
LINE
8
boundary
62
5
39
2
10
183.759561
20
123.224583
11
181.803029
21
119.998021
0
LINE
8
boundary
62
5
39
2
10
181.803029
20
119.998021
11
180.630843
21
118.064929
0
LINE
8
boundary
62
5
39
2
10
180.630843
20
118.064929
11
208.634632
21
136.061872
0
LINE
8
boundary
62
5
39
2
10
95.422923
20
95.793931
11
96.512304
21
94.769969
0
LINE
8
boundary
62
5
39
2
10
96.512304
20
94.769969
11
97.460051
21
93.879147
0
LINE
8
boundary
62
5
39
2
10
97.460051
20
93.879147
11
100.399180
21
91.553460
0
LINE
8
boundary
62
5
39
2
10
100.399180
20
91.553460
11
103.012459
21
89.485569
0
LINE
8
boundary
62
5
39
2
10
103.012459
20
89.485569
11
104.309046
21
88.600921
0
LINE
8
boundary
62
5
39
2
10
104.309046
20
88.600921
11
105.924732
21
87.498571
0
LINE
8
boundary
62
5
39
2
10
105.924732
20
87.498571
11
108.448903
21
86.030775
0
LINE
8
boundary
62
5
39
2
10
108.448903
20
86.030775
11
110.034664
21
85.108660
0
LINE
8
boundary
62
5
39
2
10
110.034664
20
85.108660
11
112.019333
21
84.145571
0
LINE
8
boundary
62
5
39
2
10
112.019333
20
84.145571
11
122.942353
21
87.352859
0
LINE
8
boundary
62
5
39
2
10
122.942353
20
87.352859
11
124.138837
21
83.278008
0
LINE
8
boundary
62
5
39
2
10
124.138837
20
83.278008
11
118.250901
21
81.549154
0
LINE
8
boundary
62
5
39
2
10
118.250901
20
81.549154
11
121.618991
21
80.185885
0
LINE
8
boundary
62
5
39
2
10
121.618991
20
80.185885
11
122.887485
21
79.765138
0
LINE
8
boundary
62
5
39
2
10
122.887485
20
79.765138
11
126.384353
21
78.909249
0
LINE
8
boundary
62
5
39
2
10
126.384353
20
78.909249
11
128.286990
21
78.443552
0
LINE
8
boundary
62
5
39
2
10
128.286990
20
78.443552
11
131.901827
21
82.271647
0
LINE
8
boundary
62
5
39
2
10
131.901827
20
82.271647
11
135.111405
21
79.490532
0
LINE
8
boundary
62
5
39
2
10
135.111405
20
79.490532
11
133.603422
21
77.750227
0
LINE
8
boundary
62
5
39
2
10
133.603422
20
77.750227
11
134.791790
21
77.370321
0
LINE
8
boundary
62
5
39
2
10
134.791790
20
77.370321
11
136.448815
21
77.258969
0
LINE
8
boundary
62
5
39
2
10
136.448815
20
77.258969
11
137.735864
21
77.172476
0
LINE
8
boundary
62
5
39
2
10
137.735864
20
77.172476
11
138.396746
21
80.187702
0
LINE
8
boundary
62
5
39
2
10
138.396746
20
80.187702
11
142.600399
21
79.583308
0
LINE
8
boundary
62
5
39
2
10
142.600399
20
79.583308
11
142.249070
21
77.139761
0
LINE
8
boundary
62
5
39
2
10
142.249070
20
77.139761
11
145.716452
21
77.096254
0
LINE
8
boundary
62
5
39
2
10
145.716452
20
77.096254
11
144.987201
21
79.234824
0
LINE
8
boundary
62
5
39
2
10
144.987201
20
79.234824
11
148.850298
21
80.999042
0
LINE
8
boundary
62
5
39
2
10
148.850298
20
80.999042
11
150.413719
21
77.575629
0
LINE
8
boundary
62
5
39
2
10
150.413719
20
77.575629
11
152.180197
21
77.762273
0
LINE
8
boundary
62
5
39
2
10
152.180197
20
77.762273
11
154.978520
21
78.323998
0
LINE
8
boundary
62
5
39
2
10
154.978520
20
78.323998
11
156.563099
21
78.642086
0
LINE
8
boundary
62
5
39
2
10
156.563099
20
78.642086
11
153.848803
21
80.653969
0
LINE
8
boundary
62
5
39
2
10
153.848803
20
80.653969
11
156.144840
21
84.226671
0
LINE
8
boundary
62
5
39
2
10
156.144840
20
84.226671
11
162.419205
21
80.194382
0
LINE
8
boundary
62
5
39
2
10
162.419205
20
80.194382
11
163.227416
21
80.427496
0
LINE
8
boundary
62
5
39
2
10
163.227416
20
80.427496
11
164.259426
21
80.725159
0
LINE
8
boundary
62
5
39
2
10
164.259426
20
80.725159
11
166.132399
21
81.426546
0
LINE
8
boundary
62
5
39
2
10
166.132399
20
81.426546
11
170.673558
21
83.406811
0
LINE
8
boundary
62
5
39
2
10
170.673558
20
83.406811
11
176.223229
21
86.369023
0
LINE
8
boundary
62
5
39
2
10
176.223229
20
86.369023
11
177.464153
21
87.031383
0
LINE
8
boundary
62
5
39
2
10
177.464153
20
87.031383
11
178.207607
21
87.498572
0
LINE
8
boundary
62
5
39
2
10
178.207607
20
87.498572
11
179.437080
21
88.405079
0
LINE
8
boundary
62
5
39
2
10
179.437080
20
88.405079
11
167.693334
21
88.630123
0
LINE
8
boundary
62
5
39
2
10
167.693334
20
88.630123
11
167.693334
21
92.877003
0
LINE
8
boundary
62
5
39
2
10
167.693334
20
92.877003
11
185.407209
21
92.877003
0
LINE
8
boundary
62
5
39
2
10
185.407209
20
92.877003
11
186.594395
21
93.879147
0
LINE
8
boundary
62
5
39
2
10
186.594395
20
93.879147
11
192.685702
21
99.986988
0
LINE
8
boundary
62
5
39
2
10
192.685702
20
99.986988
11
193.171989
21
100.533501
0
LINE
8
boundary
62
5
39
2
10
193.171989
20
100.533501
11
193.867902
21
101.480273
0
LINE
8
boundary
62
5
39
2
10
193.867902
20
101.480273
11
198.237779
21
107.425353
0
LINE
8
boundary
62
5
39
2
10
198.237779
20
107.425353
11
201.462684
21
112.892861
0
LINE
8
boundary
62
5
39
2
10
201.462684
20
112.892861
11
202.331997
21
114.517120
0
LINE
8
boundary
62
5
39
2
10
202.331997
20
114.517120
11
202.727672
21
115.482174
0
LINE
8
boundary
62
5
39
2
10
202.727672
20
115.482174
11
205.305746
21
121.770165
0
LINE
8
boundary
62
5
39
2
10
205.305746
20
121.770165
11
206.399629
21
125.547268
0
LINE
8
boundary
62
5
39
2
10
206.399629
20
125.547268
11
207.441535
21
129.144915
0
LINE
8
boundary
62
5
39
2
10
207.441535
20
129.144915
11
207.603405
21
130.083356
0
LINE
8
boundary
62
5
39
2
10
207.603405
20
130.083356
11
180.400572
21
112.868667
0
LINE
8
boundary
62
5
39
2
10
180.400572
20
112.868667
11
178.792452
21
115.370950
0
LINE
8
boundary
62
5
39
2
10
178.792452
20
115.370950
11
178.186450
21
114.606970
0
LINE
8
boundary
62
5
39
2
10
178.186450
20
114.606970
11
175.741186
21
112.006867
0
LINE
8
boundary
62
5
39
2
10
175.741186
20
112.006867
11
173.741273
21
109.880321
0
LINE
8
boundary
62
5
39
2
10
173.741273
20
109.880321
11
172.271743
21
108.629845
0
LINE
8
boundary
62
5
39
2
10
172.271743
20
108.629845
11
170.927068
21
107.485610
0
LINE
8
boundary
62
5
39
2
10
170.927068
20
107.485610
11
168.414153
21
105.758041
0
LINE
8
boundary
62
5
39
2
10
168.414153
20
105.758041
11
165.135824
21
103.504317
0
LINE
8
boundary
62
5
39
2
10
165.135824
20
103.504317
11
164.483756
21
103.135308
0
LINE
8
boundary
62
5
39
2
10
164.483756
20
103.135308
11
159.982284
21
101.156955
0
LINE
8
boundary
62
5
39
2
10
159.982284
20
101.156955
11
157.582974
21
100.130818
0
LINE
8
boundary
62
5
39
2
10
157.582974
20
100.130818
11
155.332394
21
99.485641
0
LINE
8
boundary
62
5
39
2
10
155.332394
20
99.485641
11
151.278236
21
98.323448
0
LINE
8
boundary
62
5
39
2
10
151.278236
20
98.323448
11
150.413282
21
98.199068
0
LINE
8
boundary
62
5
39
2
10
150.413282
20
98.199068
11
147.876616
21
97.834284
0
LINE
8
boundary
62
5
39
2
10
147.876616
20
97.834284
11
147.446958
21
97.435197
0
LINE
8
boundary
62
5
39
2
10
147.446958
20
97.435197
11
146.885250
21
97.691720
0
LINE
8
boundary
62
5
39
2
10
146.885250
20
97.691720
11
145.095897
21
97.434403
0
LINE
8
boundary
62
5
39
2
10
145.095897
20
97.434403
11
138.953651
21
97.434403
0
LINE
8
boundary
62
5
39
2
10
138.953651
20
97.434403
11
135.256025
21
97.966137
0
LINE
8
boundary
62
5
39
2
10
135.256025
20
97.966137
11
133.968461
21
96.850457
0
LINE
8
boundary
62
5
39
2
10
133.968461
20
96.850457
11
132.665928
21
98.353660
0
LINE
8
boundary
62
5
39
2
10
132.665928
20
98.353660
11
131.343828
21
98.732666
0
LINE
8
boundary
62
5
39
2
10
131.343828
20
98.732666
11
126.466577
21
100.130817
0
LINE
8
boundary
62
5
39
2
10
126.466577
20
100.130817
11
121.054617
21
102.445388
0
LINE
8
boundary
62
5
39
2
10
121.054617
20
102.445388
11
119.950534
21
102.917580
0
LINE
8
boundary
62
5
39
2
10
119.950534
20
102.917580
11
118.913725
21
103.504317
0
LINE
8
boundary
62
5
39
2
10
118.913725
20
103.504317
11
113.122474
21
107.485610
0
LINE
8
boundary
62
5
39
2
10
113.122474
20
107.485610
11
110.308264
21
109.880321
0
LINE
8
boundary
62
5
39
2
10
110.308264
20
109.880321
11
105.863109
21
114.606970
0
LINE
8
boundary
62
5
39
2
10
105.863109
20
114.606970
11
104.387505
21
116.467273
0
LINE
8
boundary
62
5
39
2
10
104.387505
20
116.467273
11
102.729332
21
119.201812
0
LINE
8
boundary
62
5
39
2
10
102.729332
20
119.201812
11
100.289997
21
123.224582
0
LINE
8
boundary
62
5
39
2
10
100.289997
20
123.224582
11
98.025428
21
128.519639
0
LINE
8
boundary
62
5
39
2
10
98.025428
20
128.519639
11
97.433805
21
130.110584
0
LINE
8
boundary
62
5
39
2
10
97.433805
20
130.110584
11
97.298378
21
130.722621
0
LINE
8
boundary
62
5
39
2
10
97.298378
20
130.722621
11
95.891035
21
137.082839
0
LINE
8
boundary
62
5
39
2
10
95.891035
20
137.082839
11
95.749885
21
139.004360
0
LINE
8
boundary
62
5
39
2
10
95.749885
20
139.004360
11
95.486658
21
142.587951
0
LINE
8
boundary
62
5
39
2
10
95.486658
20
142.587951
11
94.829849
21
142.018823
0
LINE
8
boundary
62
5
39
2
10
94.829849
20
142.018823
11
93.027938
21
144.098339
0
LINE
8
boundary
62
5
39
2
10
93.027938
20
144.098339
11
88.675460
21
144.098339
0
LINE
8
boundary
62
5
39
2
10
88.675460
20
144.098339
11
81.870646
21
144.098339
0
LINE
8
boundary
62
5
39
2
10
81.870646
20
144.098339
11
78.124924
21
144.098339
0
LINE
8
boundary
62
5
39
2
10
78.124924
20
144.098339
11
74.909525
21
144.098338
0
LINE
8
boundary
62
5
39
2
10
74.909525
20
144.098338
11
75.023642
21
142.018268
0
LINE
8
boundary
62
5
39
2
10
75.023642
20
142.018268
11
75.320838
21
136.601188
0
LINE
8
boundary
62
5
39
2
10
75.320838
20
136.601188
11
75.594643
21
134.943718
0
LINE
8
boundary
62
5
39
2
10
75.594643
20
134.943718
11
76.552552
21
129.144915
0
LINE
8
boundary
62
5
39
2
10
76.552552
20
129.144915
11
76.768611
21
128.365898
0
LINE
8
boundary
62
5
39
2
10
76.768611
20
128.365898
11
77.804196
21
124.632061
0
LINE
8
boundary
62
5
39
2
10
77.804196
20
124.632061
11
78.513050
21
122.296094
0
LINE
8
boundary
62
5
39
2
10
78.513050
20
122.296094
11
78.672642
21
121.770165
0
LINE
8
boundary
62
5
39
2
10
78.672642
20
121.770165
11
80.827618
21
116.753954
0
LINE
8
boundary
62
5
39
2
10
80.827618
20
116.753954
11
81.788570
21
114.517120
0
LINE
8
boundary
62
5
39
2
10
81.788570
20
114.517120
11
83.435899
21
111.579610
0
LINE
8
boundary
62
5
39
2
10
83.435899
20
111.579610
11
84.217651
21
110.185581
0
LINE
8
boundary
62
5
39
2
10
84.217651
20
110.185581
11
109.718482
21
102.463317
0
LINE
8
boundary
62
5
39
2
10
109.718482
20
102.463317
11
108.521998
21
98.388465
0
LINE
8
boundary
62
5
39
2
10
108.521998
20
98.388465
11
88.323839
21
104.319179
0
LINE
8
boundary
62
5
39
2
10
88.323839
20
104.319179
11
89.507526
21
102.415480
0
LINE
8
boundary
62
5
39
2
10
89.507526
20
102.415480
11
90.968623
21
100.533502
0
LINE
8
boundary
62
5
39
2
10
90.968623
20
100.533502
11
92.946471
21
98.428997
0
LINE
8
boundary
62
5
39
2
10
92.946471
20
98.428997
11
95.422923
21
95.793931
0
LINE
8
annotation
62
1
39
211
10
159.364379
20
87.152859
11
159.364379
21
94.354267
0
LINE
8
annotation
62
1
39
211
10
159.364379
20
94.354267
11
157.763413
21
92.752850
0
LINE
8
annotation
62
1
39
211
10
178.732425
20
113.907584
11
178.472704
21
113.740672
0
LINE
8
annotation
62
1
39
211
10
178.472704
20
113.740672
11
178.464400
21
114.281258
0
LINE
8
annotation
62
1
39
211
10
178.464400
20
114.281258
11
178.464400
21
114.281258
0
LINE
8
annotation
62
1
39
211
10
178.464400
20
114.281258
11
178.464459
21
114.281798
0
LINE
8
annotation
62
1
39
211
10
178.464459
20
114.281798
11
178.464504
21
114.282333
0
LINE
8
annotation
62
1
39
211
10
178.464504
20
114.282333
11
178.464535
21
114.282867
0
LINE
8
annotation
62
1
39
211
10
178.464535
20
114.282867
11
178.464552
21
114.283406
0
LINE
8
annotation
62
1
39
211
10
178.464552
20
114.283406
11
178.464555
21
114.283952
0
LINE
8
annotation
62
1
39
211
10
178.464555
20
114.283952
11
178.464544
21
114.284510
0
LINE
8
annotation
62
1
39
211
10
178.464544
20
114.284510
11
178.464519
21
114.285085
0
LINE
8
annotation
62
1
39
211
10
178.464519
20
114.285085
11
178.464479
21
114.285681
0
LINE
8
annotation
62
1
39
211
10
178.464479
20
114.285681
11
178.464424
21
114.286301
0
LINE
8
annotation
62
1
39
211
10
178.464424
20
114.286301
11
178.464424
21
114.286301
0
LINE
8
annotation
62
1
39
211
10
178.464424
20
114.286301
11
178.460660
21
114.313945
0
LINE
8
annotation
62
1
39
211
10
178.460660
20
114.313945
11
178.452276
21
114.339719
0
LINE
8
annotation
62
1
39
211
10
178.452276
20
114.339719
11
178.439732
21
114.363217
0
LINE
8
annotation
62
1
39
211
10
178.439732
20
114.363217
11
178.423493
21
114.384031
0
LINE
8
annotation
62
1
39
211
10
178.423493
20
114.384031
11
178.404019
21
114.401753
0
LINE
8
annotation
62
1
39
211
10
178.404019
20
114.401753
11
178.381773
21
114.415978
0
LINE
8
annotation
62
1
39
211
10
178.381773
20
114.415978
11
178.357217
21
114.426297
0
LINE
8
annotation
62
1
39
211
10
178.357217
20
114.426297
11
178.330813
21
114.432303
0
LINE
8
annotation
62
1
39
211
10
178.330813
20
114.432303
11
178.303023
21
114.433590
0
LINE
8
annotation
62
1
39
211
10
178.303023
20
114.433590
11
178.303023
21
114.433590
0
LINE
8
annotation
62
1
39
211
10
178.303023
20
114.433590
11
178.275410
21
114.429647
0
LINE
8
annotation
62
1
39
211
10
178.275410
20
114.429647
11
178.249659
21
114.421152
0
LINE
8
annotation
62
1
39
211
10
178.249659
20
114.421152
11
178.226182
21
114.408549
0
LINE
8
annotation
62
1
39
211
10
178.226182
20
114.408549
11
178.205388
21
114.392285
0
LINE
8
annotation
62
1
39
211
10
178.205388
20
114.392285
11
178.187691
21
114.372805
0
LINE
8
annotation
62
1
39
211
10
178.187691
20
114.372805
11
178.173501
21
114.350555
0
LINE
8
annotation
62
1
39
211
10
178.173501
20
114.350555
11
178.163229
21
114.325980
0
LINE
8
annotation
62
1
39
211
10
178.163229
20
114.325980
11
178.157287
21
114.299526
0
LINE
8
annotation
62
1
39
211
10
178.157287
20
114.299526
11
178.156087
21
114.271639
0
LINE
8
annotation
62
1
39
211
10
178.156087
20
114.271639
11
178.160057
21
114.227967
0
LINE
8
annotation
62
1
39
211
10
145.397573
20
97.559705
11
145.435864
21
97.643551
0
LINE
8
annotation
62
1
39
211
10
145.435864
20
97.643551
11
145.435864
21
97.643551
0
LINE
8
annotation
62
1
39
211
10
145.435864
20
97.643551
11
145.441398
21
97.659248
0
LINE
8
annotation
62
1
39
211
10
145.441398
20
97.659248
11
145.443980
21
97.675219
0
LINE
8
annotation
62
1
39
211
10
145.443980
20
97.675219
11
145.443740
21
97.691116
0
LINE
8
annotation
62
1
39
211
10
145.443740
20
97.691116
11
145.440811
21
97.706595
0
LINE
8
annotation
62
1
39
211
10
145.440811
20
97.706595
11
145.435324
21
97.721311
0
LINE
8
annotation
62
1
39
211
10
145.435324
20
97.721311
11
145.427411
21
97.734918
0
LINE
8
annotation
62
1
39
211
10
145.427411
20
97.734918
11
145.417203
21
97.747071
0
LINE
8
annotation
62
1
39
211
10
145.417203
20
97.747071
11
145.404831
21
97.757424
0
LINE
8
annotation
62
1
39
211
10
145.404831
20
97.757424
11
145.390428
21
97.765634
0
LINE
8
annotation
62
1
39
211
10
145.390428
20
97.765634
11
145.348446
21
97.784806
0
LINE
8
annotation
62
1
39
211
10
145.348446
20
97.784806
11
145.348446
21
97.784806
0
LINE
8
annotation
62
1
39
211
10
145.348446
20
97.784806
11
145.332816
21
97.790313
0
LINE
8
annotation
62
1
39
211
10
145.332816
20
97.790313
11
145.316893
21
97.792881
0
LINE
8
annotation
62
1
39
211
10
145.316893
20
97.792881
11
145.301024
21
97.792637
0
LINE
8
annotation
62
1
39
211
10
145.301024
20
97.792637
11
145.285558
21
97.789707
0
LINE
8
annotation
62
1
39
211
10
145.285558
20
97.789707
11
145.270841
21
97.784218
0
LINE
8
annotation
62
1
39
211
10
145.270841
20
97.784218
11
145.257222
21
97.776296
0
LINE
8
annotation
62
1
39
211
10
145.257222
20
97.776296
11
145.245049
21
97.766067
0
LINE
8
annotation
62
1
39
211
10
145.245049
20
97.766067
11
145.234668
21
97.753659
0
LINE
8
annotation
62
1
39
211
10
145.234668
20
97.753659
11
145.226427
21
97.739197
0
LINE
8
annotation
62
1
39
211
10
145.226427
20
97.739197
11
145.207255
21
97.697215
0
LINE
8
annotation
62
1
39
211
10
145.207255
20
97.697215
11
145.226427
21
97.739197
0
LINE
8
annotation
62
1
39
211
10
145.226427
20
97.739197
11
145.226427
21
97.739197
0
LINE
8
annotation
62
1
39
211
10
145.226427
20
97.739197
11
145.231960
21
97.754896
0
LINE
8
annotation
62
1
39
211
10
145.231960
20
97.754896
11
145.234538
21
97.770868
0
LINE
8
annotation
62
1
39
211
10
145.234538
20
97.770868
11
145.234289
21
97.786769
0
LINE
8
annotation
62
1
39
211
10
145.234289
20
97.786769
11
145.231346
21
97.802255
0
LINE
8
annotation
62
1
39
211
10
145.231346
20
97.802255
11
145.225837
21
97.816980
0
LINE
8
annotation
62
1
39
211
10
145.225837
20
97.816980
11
145.217893
21
97.830601
0
LINE
8
annotation
62
1
39
211
10
145.217893
20
97.830601
11
145.207645
21
97.842773
0
LINE
8
annotation
62
1
39
211
10
145.207645
20
97.842773
11
145.195222
21
97.853150
0
LINE
8
annotation
62
1
39
211
10
145.195222
20
97.853150
11
145.180754
21
97.861388
0
LINE
8
annotation
62
1
39
211
10
145.180754
20
97.861388
11
145.180754
21
97.861388
0
LINE
8
annotation
62
1
39
211
10
145.180754
20
97.861388
11
145.165124
21
97.866895
0
LINE
8
annotation
62
1
39
211
10
145.165124
20
97.866895
11
145.149201
21
97.869463
0
LINE
8
annotation
62
1
39
211
10
145.149201
20
97.869463
11
145.133333
21
97.869219
0
LINE
8
annotation
62
1
39
211
10
145.133333
20
97.869219
11
145.117866
21
97.866289
0
LINE
8
annotation
62
1
39
211
10
145.117866
20
97.866289
11
145.103150
21
97.860800
0
LINE
8
annotation
62
1
39
211
10
145.103150
20
97.860800
11
145.089531
21
97.852878
0
LINE
8
annotation
62
1
39
211
10
145.089531
20
97.852878
11
145.077357
21
97.842649
0
LINE
8
annotation
62
1
39
211
10
145.077357
20
97.842649
11
145.066976
21
97.830241
0
LINE
8
annotation
62
1
39
211
10
145.066976
20
97.830241
11
145.058736
21
97.815779
0
LINE
8
annotation
62
1
39
211
10
145.058736
20
97.815779
11
145.020445
21
97.731934
0
LINE
8
annotation
62
1
39
211
10
137.343988
20
95.182564
11
137.013674
21
95.563767
0
LINE
8
annotation
62
1
39
211
10
137.013674
20
95.563767
11
137.013674
21
95.563767
0
LINE
8
annotation
62
1
39
211
10
137.013674
20
95.563767
11
136.948237
21
95.626856
0
LINE
8
annotation
62
1
39
211
10
136.948237
20
95.626856
11
136.874667
21
95.675926
0
LINE
8
annotation
62
1
39
211
10
136.874667
20
95.675926
11
136.794984
21
95.710828
0
LINE
8
annotation
62
1
39
211
10
136.794984
20
95.710828
11
136.711211
21
95.731411
0
LINE
8
annotation
62
1
39
211
10
136.711211
20
95.731411
11
136.625368
21
95.737525
0
LINE
8
annotation
62
1
39
211
10
136.625368
20
95.737525
11
136.539476
21
95.729020
0
LINE
8
annotation
62
1
39
211
10
136.539476
20
95.729020
11
136.455558
21
95.705744
0
LINE
8
annotation
62
1
39
211
10
136.455558
20
95.705744
11
136.375634
21
95.667549
0
LINE
8
annotation
62
1
39
211
10
136.375634
20
95.667549
11
136.301726
21
95.614283
0
LINE
8
annotation
62
1
39
211
10
136.301726
20
95.614283
11
136.111824
21
95.449732
0
LINE
8
annotation
62
1
39
211
10
136.111824
20
95.449732
11
136.111824
21
95.449732
0
LINE
8
annotation
62
1
39
211
10
136.111824
20
95.449732
11
136.048612
21
95.384189
0
LINE
8
annotation
62
1
39
211
10
136.048612
20
95.384189
11
135.999513
21
95.310601
0
LINE
8
annotation
62
1
39
211
10
135.999513
20
95.310601
11
135.964650
21
95.230972
0
LINE
8
annotation
62
1
39
211
10
135.964650
20
95.230972
11
135.944151
21
95.147309
0
LINE
8
annotation
62
1
39
211
10
135.944151
20
95.147309
11
135.938139
21
95.061618
0
LINE
8
annotation
62
1
39
211
10
135.938139
20
95.061618
11
135.946740
21
94.975904
0
LINE
8
annotation
62
1
39
211
10
135.946740
20
94.975904
11
135.970080
21
94.892172
0
LINE
8
annotation
62
1
39
211
10
135.970080
20
94.892172
11
136.008283
21
94.812430
0
LINE
8
annotation
62
1
39
211
10
136.008283
20
94.812430
11
136.061474
21
94.738681
0
LINE
8
annotation
62
1
39
211
10
136.061474
20
94.738681
11
136.391788
21
94.357478
0
LINE
8
annotation
62
1
39
211
10
136.391788
20
94.357478
11
135.627336
21
93.695077
0
LINE
8
annotation
62
1
39
211
10
135.627336
20
93.695077
11
134.966708
21
94.457483
0
LINE
8
annotation
62
1
39
211
10
99.276446
20
141.699323
11
98.977508
21
142.044316
0
LINE
8
annotation
62
1
39
211
10
98.977508
20
142.044316
11
98.977508
21
142.044316
0
LINE
8
annotation
62
1
39
211
10
98.977508
20
142.044316
11
98.918287
21
142.101412
0
LINE
8
annotation
62
1
39
211
10
98.918287
20
142.101412
11
98.851705
21
142.145821
0
LINE
8
annotation
62
1
39
211
10
98.851705
20
142.145821
11
98.779592
21
142.177407
0
LINE
8
annotation
62
1
39
211
10
98.779592
20
142.177407
11
98.703776
21
142.196035
0
LINE
8
annotation
62
1
39
211
10
98.703776
20
142.196035
11
98.626087
21
142.201569
0
LINE
8
annotation
62
1
39
211
10
98.626087
20
142.201569
11
98.548354
21
142.193871
0
LINE
8
annotation
62
1
39
211
10
98.548354
20
142.193871
11
98.472407
21
142.172807
0
LINE
8
annotation
62
1
39
211
10
98.472407
20
142.172807
11
98.400075
21
142.138240
0
LINE
8
annotation
62
1
39
211
10
98.400075
20
142.138240
11
98.333187
21
142.090033
0
LINE
8
annotation
62
1
39
211
10
98.333187
20
142.090033
11
98.161324
21
141.941113
0
LINE
8
annotation
62
1
39
211
10
98.161324
20
141.941113
11
98.161324
21
141.941113
0
LINE
8
annotation
62
1
39
211
10
98.161324
20
141.941113
11
98.104117
21
141.881796
0
LINE
8
annotation
62
1
39
211
10
98.104117
20
141.881796
11
98.059681
21
141.815198
0
LINE
8
annotation
62
1
39
211
10
98.059681
20
141.815198
11
98.028130
21
141.743133
0
LINE
8
annotation
62
1
39
211
10
98.028130
20
141.743133
11
98.009578
21
141.667417
0
LINE
8
annotation
62
1
39
211
10
98.009578
20
141.667417
11
98.004138
21
141.589866
0
LINE
8
annotation
62
1
39
211
10
98.004138
20
141.589866
11
98.011922
21
141.512293
0
LINE
8
annotation
62
1
39
211
10
98.011922
20
141.512293
11
98.033044
21
141.436515
0
LINE
8
annotation
62
1
39
211
10
98.033044
20
141.436515
11
98.067618
21
141.364347
0
LINE
8
annotation
62
1
39
211
10
98.067618
20
141.364347
11
98.115757
21
141.297604
0
LINE
8
annotation
62
1
39
211
10
98.115757
20
141.297604
11
98.414695
21
140.952611
0
LINE
8
annotation
62
1
39
211
10
98.414695
20
140.952611
11
97.722858
21
140.353131
0
LINE
8
annotation
62
1
39
211
10
97.722858
20
140.353131
11
97.124982
21
141.043117
0
LINE
8
annotation
62
1
39
211
10
116.095212
20
94.625139
11
116.095212
21
94.625139
0
LINE
8
annotation
62
1
39
211
10
116.095212
20
94.625139
11
116.583166
21
94.660881
0
LINE
8
annotation
62
1
39
211
10
116.583166
20
94.660881
11
117.051724
21
94.764506
0
LINE
8
annotation
62
1
39
211
10
117.051724
20
94.764506
11
117.495113
21
94.931666
0
LINE
8
annotation
62
1
39
211
10
117.495113
20
94.931666
11
117.907557
21
95.158012
0
LINE
8
annotation
62
1
39
211
10
117.907557
20
95.158012
11
118.283284
21
95.439198
0
LINE
8
annotation
62
1
39
211
10
118.283284
20
95.439198
11
118.616517
21
95.770876
0
LINE
8
annotation
62
1
39
211
10
118.616517
20
95.770876
11
118.901484
21
96.148697
0
LINE
8
annotation
62
1
39
211
10
118.901484
20
96.148697
11
119.132411
21
96.568314
0
LINE
8
annotation
62
1
39
211
10
119.132411
20
96.568314
11
119.303521
21
97.025378
0
LINE
8
annotation
62
1
39
211
10
119.303521
20
97.025378
11
119.977861
21
99.321968
0
LINE
8
annotation
62
1
39
211
10
119.977861
20
99.321968
11
119.977861
21
99.321968
0
LINE
8
annotation
62
1
39
211
10
119.977861
20
99.321968
11
120.034135
21
99.605263
0
LINE
8
annotation
62
1
39
211
10
120.034135
20
99.605263
11
120.039025
21
99.886059
0
LINE
8
annotation
62
1
39
211
10
120.039025
20
99.886059
11
119.995625
21
100.158725
0
LINE
8
annotation
62
1
39
211
10
119.995625
20
100.158725
11
119.907032
21
100.417628
0
LINE
8
annotation
62
1
39
211
10
119.907032
20
100.417628
11
119.776341
21
100.657138
0
LINE
8
annotation
62
1
39
211
10
119.776341
20
100.657138
11
119.606649
21
100.871623
0
LINE
8
annotation
62
1
39
211
10
119.606649
20
100.871623
11
119.401052
21
101.055452
0
LINE
8
annotation
62
1
39
211
10
119.401052
20
101.055452
11
119.162644
21
101.202994
0
LINE
8
annotation
62
1
39
211
10
119.162644
20
101.202994
11
118.894523
21
101.308618
0
LINE
8
annotation
62
1
39
211
10
118.894523
20
101.308618
11
118.894523
21
101.308618
0
LINE
8
annotation
62
1
39
211
10
118.894523
20
101.308618
11
118.611291
21
101.364886
0
LINE
8
annotation
62
1
39
211
10
118.611291
20
101.364886
11
118.330659
21
101.369748
0
LINE
8
annotation
62
1
39
211
10
118.330659
20
101.369748
11
118.058225
21
101.326282
0
LINE
8
annotation
62
1
39
211
10
118.058225
20
101.326282
11
117.799583
21
101.237567
0
LINE
8
annotation
62
1
39
211
10
117.799583
20
101.237567
11
117.560329
21
101.106682
0
LINE
8
annotation
62
1
39
211
10
117.560329
20
101.106682
11
117.346057
21
100.936708
0
LINE
8
annotation
62
1
39
211
10
117.346057
20
100.936708
11
117.162365
21
100.730723
0
LINE
8
annotation
62
1
39
211
10
117.162365
20
100.730723
11
117.014847
21
100.491806
0
LINE
8
annotation
62
1
39
211
10
117.014847
20
100.491806
11
116.909098
21
100.223038
0
LINE
8
annotation
62
1
39
211
10
116.909098
20
100.223038
11
116.684657
21
99.458664
0
LINE
8
annotation
62
1
39
211
10
116.684657
20
99.458664
11
116.684657
21
99.458664
0
LINE
8
annotation
62
1
39
211
10
116.684657
20
99.458664
11
116.628351
21
99.175523
0
LINE
8
annotation
62
1
39
211
10
116.628351
20
99.175523
11
116.623388
21
98.895137
0
LINE
8
annotation
62
1
39
211
10
116.623388
20
98.895137
11
116.666709
21
98.623059
0
LINE
8
annotation
62
1
39
211
10
116.666709
20
98.623059
11
116.755251
21
98.364839
0
LINE
8
annotation
62
1
39
211
10
116.755251
20
98.364839
11
116.885953
21
98.126029
0
LINE
8
annotation
62
1
39
211
10
116.885953
20
98.126029
11
117.055754
21
97.912179
0
LINE
8
annotation
62
1
39
211
10
117.055754
20
97.912179
11
117.261593
21
97.728843
0
LINE
8
annotation
62
1
39
211
10
117.261593
20
97.728843
11
117.500409
21
97.581571
0
LINE
8
annotation
62
1
39
211
10
117.500409
20
97.581571
11
117.769140
21
97.475913
0
LINE
8
annotation
62
1
39
211
10
117.769140
20
97.475913
11
119.303521
21
97.025378
0
LINE
8
annotation
62
1
39
211
10
120.874691
20
101.665367
11
117.419841
21
102.679802
0
LINE
8
annotation
62
1
39
211
10
131.286007
20
91.342407
11
131.778763
21
83.981663
0
LINE
8
annotation
62
1
39
211
10
131.778763
20
83.981663
11
134.851426
21
84.883878
0
LINE
8
annotation
62
1
39
211
10
130.875276
20
87.058659
11
132.411391
21
87.509703
0
LINE
8
annotation
62
1
39
211
10
139.017956
20
90.301752
11
139.017956
21
90.301752
0
LINE
8
annotation
62
1
39
211
10
139.017956
20
90.301752
11
138.783744
21
90.470535
0
LINE
8
annotation
62
1
39
211
10
138.783744
20
90.470535
11
138.530637
21
90.591385
0
LINE
8
annotation
62
1
39
211
10
138.530637
20
90.591385
11
138.264991
21
90.664822
0
LINE
8
annotation
62
1
39
211
10
138.264991
20
90.664822
11
137.993166
21
90.691367
0
LINE
8
annotation
62
1
39
211
10
137.993166
20
90.691367
11
137.721519
21
90.671541
0
LINE
8
annotation
62
1
39
211
10
137.721519
20
90.671541
11
137.456409
21
90.605865
0
LINE
8
annotation
62
1
39
211
10
137.456409
20
90.605865
11
137.204192
21
90.494858
0
LINE
8
annotation
62
1
39
211
10
137.204192
20
90.494858
11
136.971228
21
90.339041
0
LINE
8
annotation
62
1
39
211
10
136.971228
20
90.339041
11
136.763873
21
90.138936
0
LINE
8
annotation
62
1
39
211
10
136.763873
20
90.138936
11
136.763873
21
90.138936
0
LINE
8
annotation
62
1
39
211
10
136.763873
20
90.138936
11
136.595314
21
89.905214
0
LINE
8
annotation
62
1
39
211
10
136.595314
20
89.905214
11
136.474238
21
89.652446
0
LINE
8
annotation
62
1
39
211
10
136.474238
20
89.652446
11
136.400255
21
89.386999
0
LINE
8
annotation
62
1
39
211
10
136.400255
20
89.386999
11
136.372976
21
89.115240
0
LINE
8
annotation
62
1
39
211
10
136.372976
20
89.115240
11
136.392011
21
88.843536
0
LINE
8
annotation
62
1
39
211
10
136.392011
20
88.843536
11
136.456971
21
88.578256
0
LINE
8
annotation
62
1
39
211
10
136.456971
20
88.578256
11
136.567466
21
88.325766
0
LINE
8
annotation
62
1
39
211
10
136.567466
20
88.325766
11
136.723107
21
88.092433
0
LINE
8
annotation
62
1
39
211
10
136.723107
20
88.092433
11
136.923504
21
87.884625
0
LINE
8
annotation
62
1
39
211
10
136.923504
20
87.884625
11
137.525567
21
87.362934
0
LINE
8
annotation
62
1
39
211
10
137.525567
20
87.362934
11
137.525567
21
87.362934
0
LINE
8
annotation
62
1
39
211
10
137.525567
20
87.362934
11
137.759875
21
87.194049
0
LINE
8
annotation
62
1
39
211
10
137.759875
20
87.194049
11
138.013241
21
87.072926
0
LINE
8
annotation
62
1
39
211
10
138.013241
20
87.072926
11
138.279263
21
86.999098
0
LINE
8
annotation
62
1
39
211
10
138.279263
20
86.999098
11
138.551541
21
86.972096
0
LINE
8
annotation
62
1
39
211
10
138.551541
20
86.972096
11
138.823673
21
86.991452
0
LINE
8
annotation
62
1
39
211
10
138.823673
20
86.991452
11
139.089259
21
87.056698
0
LINE
8
annotation
62
1
39
211
10
139.089259
20
87.056698
11
139.341896
21
87.167365
0
LINE
8
annotation
62
1
39
211
10
139.341896
20
87.167365
11
139.575185
21
87.322984
0
LINE
8
annotation
62
1
39
211
10
139.575185
20
87.322984
11
139.782722
21
87.523088
0
LINE
8
annotation
62
1
39
211
10
139.782722
20
87.523088
11
139.782722
21
87.523088
0
LINE
8
annotation
62
1
39
211
10
139.782722
20
87.523088
11
139.951242
21
87.757001
0
LINE
8
annotation
62
1
39
211
10
139.951242
20
87.757001
11
140.072050
21
88.010086
0
LINE
8
annotation
62
1
39
211
10
140.072050
20
88.010086
11
140.145599
21
88.275933
0
LINE
8
annotation
62
1
39
211
10
140.145599
20
88.275933
11
140.172348
21
88.548132
0
LINE
8
annotation
62
1
39
211
10
140.172348
20
88.548132
11
140.152750
21
88.820274
0
LINE
8
annotation
62
1
39
211
10
140.152750
20
88.820274
11
140.087263
21
89.085947
0
LINE
8
annotation
62
1
39
211
10
140.087263
20
89.085947
11
139.976341
21
89.338743
0
LINE
8
annotation
62
1
39
211
10
139.976341
20
89.338743
11
139.820442
21
89.572251
0
LINE
8
annotation
62
1
39
211
10
139.820442
20
89.572251
11
139.620020
21
89.780061
0
LINE
8
annotation
62
1
39
211
10
139.620020
20
89.780061
11
139.017956
21
90.301752
0
LINE
8
annotation
62
1
39
211
10
139.945766
20
85.265820
11
139.945766
21
85.265820
0
LINE
8
annotation
62
1
39
211
10
139.945766
20
85.265820
11
140.179070
21
85.097805
0
LINE
8
annotation
62
1
39
211
10
140.179070
20
85.097805
11
140.431675
21
84.977340
0
LINE
8
annotation
62
1
39
211
10
140.431675
20
84.977340
11
140.697149
21
84.903988
0
LINE
8
annotation
62
1
39
211
10
140.697149
20
84.903988
11
140.969055
21
84.877309
0
LINE
8
annotation
62
1
39
211
10
140.969055
20
84.877309
11
141.240958
21
84.896864
0
LINE
8
annotation
62
1
39
211
10
141.240958
20
84.896864
11
141.506424
21
84.962213
0
LINE
8
annotation
62
1
39
211
10
141.506424
20
84.962213
11
141.759018
21
85.072917
0
LINE
8
annotation
62
1
39
211
10
141.759018
20
85.072917
11
141.992305
21
85.228538
0
LINE
8
annotation
62
1
39
211
10
141.992305
20
85.228538
11
142.199849
21
85.428636
0
LINE
8
annotation
62
1
39
211
10
142.199849
20
85.428636
11
142.199849
21
85.428636
0
LINE
8
annotation
62
1
39
211
10
142.199849
20
85.428636
11
142.368374
21
85.662545
0
LINE
8
annotation
62
1
39
211
10
142.368374
20
85.662545
11
142.489210
21
85.915604
0
LINE
8
annotation
62
1
39
211
10
142.489210
20
85.915604
11
142.562840
21
86.181382
0
LINE
8
annotation
62
1
39
211
10
142.562840
20
86.181382
11
142.589744
21
86.453446
0
LINE
8
annotation
62
1
39
211
10
142.589744
20
86.453446
11
142.570404
21
86.725365
0
LINE
8
annotation
62
1
39
211
10
142.570404
20
86.725365
11
142.505300
21
86.990706
0
LINE
8
annotation
62
1
39
211
10
142.505300
20
86.990706
11
142.394914
21
87.243038
0
LINE
8
annotation
62
1
39
211
10
142.394914
20
87.243038
11
142.239726
21
87.475929
0
LINE
8
annotation
62
1
39
211
10
142.239726
20
87.475929
11
142.040219
21
87.682947
0
LINE
8
annotation
62
1
39
211
10
142.040219
20
87.682947
11
142.040219
21
87.682947
0
LINE
8
annotation
62
1
39
211
10
142.040219
20
87.682947
11
141.805889
21
87.851831
0
LINE
8
annotation
62
1
39
211
10
141.805889
20
87.851831
11
141.552468
21
87.972953
0
LINE
8
annotation
62
1
39
211
10
141.552468
20
87.972953
11
141.286368
21
88.046784
0
LINE
8
annotation
62
1
39
211
10
141.286368
20
88.046784
11
141.014005
21
88.073796
0
LINE
8
annotation
62
1
39
211
10
141.014005
20
88.073796
11
140.741792
21
88.054460
0
LINE
8
annotation
62
1
39
211
10
140.741792
20
88.054460
11
140.476143
21
87.989250
0
LINE
8
annotation
62
1
39
211
10
140.476143
20
87.989250
11
140.223472
21
87.878637
0
LINE
8
annotation
62
1
39
211
10
140.223472
20
87.878637
11
139.990194
21
87.723092
0
LINE
8
annotation
62
1
39
211
10
139.990194
20
87.723092
11
139.782722
21
87.523088
0
LINE
8
annotation
62
1
39
211
10
139.782722
20
87.523088
11
139.782722
21
87.523088
0
LINE
8
annotation
62
1
39
211
10
139.782722
20
87.523088
11
139.614280
21
87.289265
0
LINE
8
annotation
62
1
39
211
10
139.614280
20
87.289265
11
139.493518
21
87.036225
0
LINE
8
annotation
62
1
39
211
10
139.493518
20
87.036225
11
139.419989
21
86.770384
0
LINE
8
annotation
62
1
39
211
10
139.419989
20
86.770384
11
139.393249
21
86.498159
0
LINE
8
annotation
62
1
39
211
10
139.393249
20
86.498159
11
139.412850
21
86.225965
0
LINE
8
annotation
62
1
39
211
10
139.412850
20
86.225965
11
139.478349
21
85.960218
0
LINE
8
annotation
62
1
39
211
10
139.478349
20
85.960218
11
139.589298
21
85.707334
0
LINE
8
annotation
62
1
39
211
10
139.589298
20
85.707334
11
139.745252
21
85.473729
0
LINE
8
annotation
62
1
39
211
10
139.745252
20
85.473729
11
139.945766
21
85.265820
0
LINE
8
annotation
62
1
39
211
10
138.347758
20
90.227234
11
138.347758
21
90.227234
0
LINE
8
annotation
62
1
39
211
10
138.347758
20
90.227234
11
138.451358
21
89.750324
0
LINE
8
annotation
62
1
39
211
10
138.451358
20
89.750324
11
138.619625
21
89.302058
0
LINE
8
annotation
62
1
39
211
10
138.619625
20
89.302058
11
138.847368
21
88.887566
0
LINE
8
annotation
62
1
39
211
10
138.847368
20
88.887566
11
139.129394
21
88.511976
0
LINE
8
annotation
62
1
39
211
10
139.129394
20
88.511976
11
139.460511
21
88.180418
0
LINE
8
annotation
62
1
39
211
10
139.460511
20
88.180418
11
139.835527
21
87.898020
0
LINE
8
annotation
62
1
39
211
10
139.835527
20
87.898020
11
140.249250
21
87.669910
0
LINE
8
annotation
62
1
39
211
10
140.249250
20
87.669910
11
140.696488
21
87.501218
0
LINE
8
annotation
62
1
39
211
10
140.696488
20
87.501218
11
141.172049
21
87.397073
0
LINE
8
annotation
62
1
39
211
10
141.172049
20
87.397073
11
143.549277
21
87.055279
0
LINE
8
annotation
62
1
39
211
10
143.549277
20
87.055279
11
143.549277
21
87.055279
0
LINE
8
annotation
62
1
39
211
10
143.549277
20
87.055279
11
143.837702
21
87.039819
0
LINE
8
annotation
62
1
39
211
10
143.837702
20
87.039819
11
144.116351
21
87.074751
0
LINE
8
annotation
62
1
39
211
10
144.116351
20
87.074751
11
144.380089
21
87.156265
0
LINE
8
annotation
62
1
39
211
10
144.380089
20
87.156265
11
144.623786
21
87.280553
0
LINE
8
annotation
62
1
39
211
10
144.623786
20
87.280553
11
144.842306
21
87.443805
0
LINE
8
annotation
62
1
39
211
10
144.842306
20
87.443805
11
145.030518
21
87.642210
0
LINE
8
annotation
62
1
39
211
10
145.030518
20
87.642210
11
145.183290
21
87.871960
0
LINE
8
annotation
62
1
39
211
10
145.183290
20
87.871960
11
145.295487
21
88.129245
0
LINE
8
annotation
62
1
39
211
10
145.295487
20
88.129245
11
145.361977
21
88.410255
0
LINE
8
annotation
62
1
39
211
10
145.361977
20
88.410255
11
145.361977
21
88.410255
0
LINE
8
annotation
62
1
39
211
10
145.361977
20
88.410255
11
145.377265
21
88.698026
0
LINE
8
annotation
62
1
39
211
10
145.377265
20
88.698026
11
145.342053
21
88.976186
0
LINE
8
annotation
62
1
39
211
10
145.342053
20
88.976186
11
145.260185
21
89.239578
0
LINE
8
annotation
62
1
39
211
10
145.260185
20
89.239578
11
145.135505
21
89.483046
0
LINE
8
annotation
62
1
39
211
10
145.135505
20
89.483046
11
144.971856
21
89.701433
0
LINE
8
annotation
62
1
39
211
10
144.971856
20
89.701433
11
144.773081
21
89.889583
0
LINE
8
annotation
62
1
39
211
10
144.773081
20
89.889583
11
144.543025
21
90.042338
0
LINE
8
annotation
62
1
39
211
10
144.543025
20
90.042338
11
144.285532
21
90.154544
0
LINE
8
annotation
62
1
39
211
10
144.285532
20
90.154544
11
144.004445
21
90.221042
0
LINE
8
annotation
62
1
39
211
10
144.004445
20
90.221042
11
143.211886
21
90.334995
0
LINE
8
annotation
62
1
39
211
10
143.211886
20
90.334995
11
143.211886
21
90.334995
0
LINE
8
annotation
62
1
39
211
10
143.211886
20
90.334995
11
142.923466
21
90.350379
0
LINE
8
annotation
62
1
39
211
10
142.923466
20
90.350379
11
142.644832
21
90.315257
0
LINE
8
annotation
62
1
39
211
10
142.644832
20
90.315257
11
142.381118
21
90.233495
0
LINE
8
annotation
62
1
39
211
10
142.381118
20
90.233495
11
142.137458
21
90.108958
0
LINE
8
annotation
62
1
39
211
10
142.137458
20
90.108958
11
141.918985
21
89.945512
0
LINE
8
annotation
62
1
39
211
10
141.918985
20
89.945512
11
141.730833
21
89.747023
0
LINE
8
annotation
62
1
39
211
10
141.730833
20
89.747023
11
141.578134
21
89.517356
0
LINE
8
annotation
62
1
39
211
10
141.578134
20
89.517356
11
141.466023
21
89.260378
0
LINE
8
annotation
62
1
39
211
10
141.466023
20
89.260378
11
141.399633
21
88.979954
0
LINE
8
annotation
62
1
39
211
10
141.399633
20
88.979954
11
141.172049
21
87.397073
0
LINE
8
annotation
62
1
39
211
10
137.598880
20
91.343917
11
137.086446
21
87.779863
0
LINE
8
annotation
62
1
39
211
10
139.119342
20
88.856683
11
145.421213
21
91.734651
0
LINE
8
annotation
62
1
39
211
10
145.421213
20
91.734651
11
143.380022
21
92.495648
0
LINE
8
annotation
62
1
39
211
10
140.743892
20
85.519393
11
140.743892
21
85.519393
0
LINE
8
annotation
62
1
39
211
10
140.743892
20
85.519393
11
140.756028
21
85.347925
0
LINE
8
annotation
62
1
39
211
10
140.756028
20
85.347925
11
140.797425
21
85.185292
0
LINE
8
annotation
62
1
39
211
10
140.797425
20
85.185292
11
140.865423
21
85.034383
0
LINE
8
annotation
62
1
39
211
10
140.865423
20
85.034383
11
140.957364
21
84.898087
0
LINE
8
annotation
62
1
39
211
10
140.957364
20
84.898087
11
141.070585
21
84.779294
0
LINE
8
annotation
62
1
39
211
10
141.070585
20
84.779294
11
141.202428
21
84.680892
0
LINE
8
annotation
62
1
39
211
10
141.202428
20
84.680892
11
141.350233
21
84.605771
0
LINE
8
annotation
62
1
39
211
10
141.350233
20
84.605771
11
141.511340
21
84.556821
0
LINE
8
annotation
62
1
39
211
10
141.511340
20
84.556821
11
141.683088
21
84.536930
0
LINE
8
annotation
62
1
39
211
10
141.683088
20
84.536930
11
141.683088
21
84.536930
0
LINE
8
annotation
62
1
39
211
10
141.683088
20
84.536930
11
142.362139
21
84.553675
0
LINE
8
annotation
62
1
39
211
10
142.362139
20
84.553675
11
143.029922
21
84.638615
0
LINE
8
annotation
62
1
39
211
10
143.029922
20
84.638615
11
143.681775
21
84.789623
0
LINE
8
annotation
62
1
39
211
10
143.681775
20
84.789623
11
144.313037
21
85.004569
0
LINE
8
annotation
62
1
39
211
10
144.313037
20
85.004569
11
144.919048
21
85.281325
0
LINE
8
annotation
62
1
39
211
10
144.919048
20
85.281325
11
145.495146
21
85.617762
0
LINE
8
annotation
62
1
39
211
10
145.495146
20
85.617762
11
146.036670
21
86.011751
0
LINE
8
annotation
62
1
39
211
10
146.036670
20
86.011751
11
146.538959
21
86.461165
0
LINE
8
annotation
62
1
39
211
10
146.538959
20
86.461165
11
146.997352
21
86.963873
0
LINE
8
annotation
62
1
39
211
10
146.997352
20
86.963873
11
146.997352
21
86.963873
0
LINE
8
annotation
62
1
39
211
10
146.997352
20
86.963873
11
147.040703
21
87.020979
0
LINE
8
annotation
62
1
39
211
10
147.040703
20
87.020979
11
147.079646
21
87.081059
0
LINE
8
annotation
62
1
39
211
10
147.079646
20
87.081059
11
147.114030
21
87.143728
0
LINE
8
annotation
62
1
39
211
10
147.114030
20
87.143728
11
147.143705
21
87.208599
0
LINE
8
annotation
62
1
39
211
10
147.143705
20
87.208599
11
147.168523
21
87.275284
0
LINE
8
annotation
62
1
39
211
10
147.168523
20
87.275284
11
147.188332
21
87.343397
0
LINE
8
annotation
62
1
39
211
10
147.188332
20
87.343397
11
147.202985
21
87.412551
0
LINE
8
annotation
62
1
39
211
10
147.202985
20
87.412551
11
147.212330
21
87.482359
0
LINE
8
annotation
62
1
39
211
10
147.212330
20
87.482359
11
147.216218
21
87.552435
0
LINE
8
annotation
62
1
39
211
10
147.216218
20
87.552435
11
147.216218
21
87.552435
0
LINE
8
annotation
62
1
39
211
10
147.216218
20
87.552435
11
147.204738
21
87.725608
0
LINE
8
annotation
62
1
39
211
10
147.204738
20
87.725608
11
147.163869
21
87.889545
0
LINE
8
annotation
62
1
39
211
10
147.163869
20
87.889545
11
147.096259
21
88.041400
0
LINE
8
annotation
62
1
39
211
10
147.096259
20
88.041400
11
147.004558
21
88.178326
0
LINE
8
annotation
62
1
39
211
10
147.004558
20
88.178326
11
146.891413
21
88.297475
0
LINE
8
annotation
62
1
39
211
10
146.891413
20
88.297475
11
146.759473
21
88.396000
0
LINE
8
annotation
62
1
39
211
10
146.759473
20
88.396000
11
146.611388
21
88.471053
0
LINE
8
annotation
62
1
39
211
10
146.611388
20
88.471053
11
146.449805
21
88.519788
0
LINE
8
annotation
62
1
39
211
10
146.449805
20
88.519788
11
146.277374
21
88.539358
0
LINE
8
annotation
62
1
39
211
10
146.277374
20
88.539358
11
146.277374
21
88.539358
0
LINE
8
annotation
62
1
39
211
10
146.277374
20
88.539358
11
145.598975
21
88.521495
0
LINE
8
annotation
62
1
39
211
10
145.598975
20
88.521495
11
144.931681
21
88.435716
0
LINE
8
annotation
62
1
39
211
10
144.931681
20
88.435716
11
144.280154
21
88.284150
0
LINE
8
annotation
62
1
39
211
10
144.280154
20
88.284150
11
143.649054
21
88.068925
0
LINE
8
annotation
62
1
39
211
10
143.649054
20
88.068925
11
143.043044
21
87.792169
0
LINE
8
annotation
62
1
39
211
10
143.043044
20
87.792169
11
142.466783
21
87.456011
0
LINE
8
annotation
62
1
39
211
10
142.466783
20
87.456011
11
141.924933
21
87.062581
0
LINE
8
annotation
62
1
39
211
10
141.924933
20
87.062581
11
141.422155
21
86.614005
0
LINE
8
annotation
62
1
39
211
10
141.422155
20
86.614005
11
140.963110
21
86.112415
0
LINE
8
annotation
62
1
39
211
10
140.963110
20
86.112415
11
140.963110
21
86.112415
0
LINE
8
annotation
62
1
39
211
10
140.963110
20
86.112415
11
140.919822
21
86.055473
0
LINE
8
annotation
62
1
39
211
10
140.919822
20
86.055473
11
140.881035
21
85.995776
0
LINE
8
annotation
62
1
39
211
10
140.881035
20
85.995776
11
140.846848
21
85.933545
0
LINE
8
annotation
62
1
39
211
10
140.846848
20
85.933545
11
140.817362
21
85.869003
0
LINE
8
annotation
62
1
39
211
10
140.817362
20
85.869003
11
140.792674
21
85.802371
0
LINE
8
annotation
62
1
39
211
10
140.792674
20
85.802371
11
140.772884
21
85.733872
0
LINE
8
annotation
62
1
39
211
10
140.772884
20
85.733872
11
140.758091
21
85.663728
0
LINE
8
annotation
62
1
39
211
10
140.758091
20
85.663728
11
140.748394
21
85.592161
0
LINE
8
annotation
62
1
39
211
10
140.748394
20
85.592161
11
140.743892
21
85.519393
0
LINE
8
annotation
62
1
39
211
10
144.234048
20
85.076969
11
148.127424
21
91.135179
0
LINE
8
annotation
62
1
39
211
10
148.127424
20
91.135179
11
145.914815
21
90.653529
0
LINE
8
annotation
62
1
39
211
10
147.852695
20
82.751407
11
151.746070
21
88.809617
0
LINE
8
annotation
62
1
39
211
10
151.746070
20
88.809617
11
149.533461
21
88.327966
0
LINE
8
annotation
62
1
39
211
10
132.605325
20
89.242598
11
129.921585
21
89.242598
0
LINE
8
annotation
62
1
39
211
10
129.921585
20
89.242598
11
132.605325
21
94.075997
0
LINE
8
annotation
62
1
39
211
10
132.605325
20
94.075997
11
129.921585
21
94.075997
0
LINE
8
annotation
62
1
39
211
10
137.061124
20
91.659297
11
134.418304
21
91.659297
0
LINE
8
annotation
62
1
39
211
10
141.556934
20
90.317124
11
138.873194
21
90.317124
0
LINE
8
annotation
62
1
39
211
10
138.873194
20
90.317124
11
139.944993
21
94.075997
0
LINE
8
annotation
62
1
39
211
10
140.752479
20
89.242598
11
140.752479
21
91.389226
0
LINE
8
boundary
62
5
39
2
10
90.547905
20
158.640714
11
93.500856
21
161.283558
0
LINE
8
boundary
62
5
39
2
10
93.500856
20
161.283558
11
94.257950
21
162.012065
0
LINE
8
boundary
62
5
39
2
10
94.257950
20
162.012065
11
96.970888
21
164.956414
0
LINE
8
boundary
62
5
39
2
10
96.970888
20
164.956414
11
99.055579
21
167.218930
0
LINE
8
boundary
62
5
39
2
10
99.055579
20
167.218930
11
99.845524
21
168.137858
0
LINE
8
boundary
62
5
39
2
10
99.845524
20
168.137858
11
100.814835
21
169.265438
0
LINE
8
boundary
62
5
39
2
10
100.814835
20
169.265438
11
102.503015
21
171.481450
0
LINE
8
boundary
62
5
39
2
10
102.503015
20
171.481450
11
103.620196
21
172.947936
0
LINE
8
boundary
62
5
39
2
10
103.620196
20
172.947936
11
104.938691
21
174.801039
0
LINE
8
boundary
62
5
39
2
10
104.938691
20
174.801039
11
106.803918
21
177.422560
0
LINE
8
boundary
62
5
39
2
10
106.803918
20
177.422560
11
107.173126
21
178.010749
0
LINE
8
boundary
62
5
39
2
10
107.173126
20
178.010749
11
109.185984
21
181.422671
0
LINE
8
boundary
62
5
39
2
10
109.185984
20
181.422671
11
110.384989
21
183.468983
0
LINE
8
boundary
62
5
39
2
10
110.384989
20
183.468983
11
111.017915
21
184.632532
0
LINE
8
boundary
62
5
39
2
10
111.017915
20
184.632532
11
112.192553
21
186.791943
0
LINE
8
boundary
62
5
39
2
10
112.192553
20
186.791943
11
112.671566
21
187.795711
0
LINE
8
boundary
62
5
39
2
10
112.671566
20
187.795711
11
114.126090
21
191.055721
0
LINE
8
boundary
62
5
39
2
10
114.126090
20
191.055721
11
114.837717
21
192.666903
0
LINE
8
boundary
62
5
39
2
10
114.837717
20
192.666903
11
115.436604
21
194.142910
0
LINE
8
boundary
62
5
39
2
10
115.436604
20
194.142910
11
116.503279
21
196.771824
0
LINE
8
boundary
62
5
39
2
10
116.503279
20
196.771824
11
116.951351
21
197.984450
0
LINE
8
boundary
62
5
39
2
10
116.951351
20
197.984450
11
117.632209
21
200.105883
0
LINE
8
boundary
62
5
39
2
10
117.632209
20
200.105883
11
117.806527
21
200.649025
0
LINE
8
boundary
62
5
39
2
10
117.806527
20
200.649025
11
118.509843
21
203.075015
0
LINE
8
boundary
62
5
39
2
10
118.509843
20
203.075015
11
118.861154
21
204.286821
0
LINE
8
boundary
62
5
39
2
10
118.861154
20
204.286821
11
119.285436
21
205.928148
0
LINE
8
boundary
62
5
39
2
10
119.285436
20
205.928148
11
119.744433
21
207.703760
0
LINE
8
boundary
62
5
39
2
10
119.744433
20
207.703760
11
119.967777
21
208.688617
0
LINE
8
boundary
62
5
39
2
10
119.967777
20
208.688617
11
120.478653
21
210.941368
0
LINE
8
boundary
62
5
39
2
10
120.478653
20
210.941368
11
121.054378
21
213.896753
0
LINE
8
boundary
62
5
39
2
10
121.054378
20
213.896753
11
121.453159
21
216.743390
0
LINE
8
boundary
62
5
39
2
10
121.453159
20
216.743390
11
121.759255
21
219.423549
0
LINE
8
boundary
62
5
39
2
10
121.759255
20
219.423549
11
121.995259
21
222.081007
0
LINE
8
boundary
62
5
39
2
10
121.995259
20
222.081007
11
122.050423
21
222.740693
0
LINE
8
boundary
62
5
39
2
10
122.050423
20
222.740693
11
122.161778
21
224.735547
0
LINE
8
boundary
62
5
39
2
10
122.161778
20
224.735547
11
122.204891
21
225.507895
0
LINE
8
boundary
62
5
39
2
10
122.204891
20
225.507895
11
122.257946
21
227.407270
0
LINE
8
boundary
62
5
39
2
10
122.257946
20
227.407270
11
122.281341
21
228.244783
0
LINE
8
boundary
62
5
39
2
10
122.281341
20
228.244783
11
122.281341
21
230.117287
0
LINE
8
boundary
62
5
39
2
10
122.281341
20
230.117287
11
122.281341
21
230.971672
0
LINE
8
boundary
62
5
39
2
10
122.281341
20
230.971672
11
122.227799
21
232.888462
0
LINE
8
boundary
62
5
39
2
10
122.227799
20
232.888462
11
122.204891
21
233.708555
0
LINE
8
boundary
62
5
39
2
10
122.204891
20
233.708555
11
122.091139
21
235.746325
0
LINE
8
boundary
62
5
39
2
10
122.091139
20
235.746325
11
122.050423
21
236.475753
0
LINE
8
boundary
62
5
39
2
10
122.050423
20
236.475753
11
121.862738
21
238.720248
0
LINE
8
boundary
62
5
39
2
10
121.862738
20
238.720248
11
121.814714
21
239.294544
0
LINE
8
boundary
62
5
39
2
10
121.814714
20
239.294544
11
121.530900
21
241.844903
0
LINE
8
boundary
62
5
39
2
10
121.530900
20
241.844903
11
121.079983
21
245.162397
0
LINE
8
boundary
62
5
39
2
10
121.079983
20
245.162397
11
120.478653
21
248.275077
0
LINE
8
boundary
62
5
39
2
10
120.478653
20
248.275077
11
120.335283
21
248.907283
0
LINE
8
boundary
62
5
39
2
10
120.335283
20
248.907283
11
119.744432
21
251.512697
0
LINE
8
boundary
62
5
39
2
10
119.744432
20
251.512697
11
119.349845
21
253.039148
0
LINE
8
boundary
62
5
39
2
10
119.349845
20
253.039148
11
118.861154
21
254.929624
0
LINE
8
boundary
62
5
39
2
10
118.861154
20
254.929624
11
118.068930
21
257.662296
0
LINE
8
boundary
62
5
39
2
10
118.068930
20
257.662296
11
117.806527
21
258.567427
0
LINE
8
boundary
62
5
39
2
10
117.806527
20
258.567427
11
116.951350
21
261.231996
0
LINE
8
boundary
62
5
39
2
10
116.951350
20
261.231996
11
116.503278
21
262.444622
0
LINE
8
boundary
62
5
39
2
10
116.503278
20
262.444622
11
116.232697
21
263.111491
0
LINE
8
boundary
62
5
39
2
10
116.232697
20
263.111491
11
114.837717
21
266.549554
0
LINE
8
boundary
62
5
39
2
10
114.837717
20
266.549554
11
113.298100
21
270.035375
0
LINE
8
boundary
62
5
39
2
10
113.298100
20
270.035375
11
112.868259
21
271.008570
0
LINE
8
boundary
62
5
39
2
10
112.868259
20
271.008570
11
112.192553
21
272.424507
0
LINE
8
boundary
62
5
39
2
10
112.192553
20
272.424507
11
110.384989
21
275.747466
0
LINE
8
boundary
62
5
39
2
10
110.384989
20
275.747466
11
108.043203
21
279.744121
0
LINE
8
boundary
62
5
39
2
10
108.043203
20
279.744121
11
107.378870
21
280.877919
0
LINE
8
boundary
62
5
39
2
10
107.378870
20
280.877919
11
106.803918
21
281.793884
0
LINE
8
boundary
62
5
39
2
10
106.803918
20
281.793884
11
103.620196
21
286.268524
0
LINE
8
boundary
62
5
39
2
10
103.620196
20
286.268524
11
100.814835
21
289.951008
0
LINE
8
boundary
62
5
39
2
10
100.814835
20
289.951008
11
99.055578
21
291.997511
0
LINE
8
boundary
62
5
39
2
10
99.055578
20
291.997511
11
94.257950
21
297.204375
0
LINE
8
boundary
62
5
39
2
10
94.257950
20
297.204375
11
93.500856
21
297.932881
0
LINE
8
boundary
62
5
39
2
10
93.500856
20
297.932881
11
87.169005
21
303.599788
0
LINE
8
boundary
62
5
39
2
10
87.169005
20
303.599788
11
79.586642
21
309.164401
0
LINE
8
boundary
62
5
39
2
10
79.586642
20
309.164401
11
78.895125
21
309.607061
0
LINE
8
boundary
62
5
39
2
10
78.895125
20
309.607061
11
74.909525
21
311.943109
0
LINE
8
boundary
62
5
39
2
10
74.909525
20
311.943109
11
74.909525
21
308.165800
0
LINE
8
boundary
62
5
39
2
10
74.909525
20
308.165800
11
80.054385
21
307.940757
0
LINE
8
boundary
62
5
39
2
10
80.054385
20
307.940757
11
80.054385
21
303.693877
0
LINE
8
boundary
62
5
39
2
10
80.054385
20
303.693877
11
74.994869
21
303.693877
0
LINE
8
boundary
62
5
39
2
10
74.994869
20
303.693877
11
74.909525
21
296.376520
0
LINE
8
boundary
62
5
39
2
10
74.909525
20
296.376520
11
76.288285
21
295.338070
0
LINE
8
boundary
62
5
39
2
10
76.288285
20
295.338070
11
79.096072
21
293.223291
0
LINE
8
boundary
62
5
39
2
10
79.096072
20
293.223291
11
79.729729
21
292.707729
0
LINE
8
boundary
62
5
39
2
10
79.729729
20
292.707729
11
80.320846
21
292.226779
0
LINE
8
boundary
62
5
39
2
10
80.320846
20
292.226779
11
82.978653
21
289.744276
0
LINE
8
boundary
62
5
39
2
10
82.978653
20
289.744276
11
85.355874
21
287.523851
0
LINE
8
boundary
62
5
39
2
10
85.355874
20
287.523851
11
85.977740
21
286.900275
0
LINE
8
boundary
62
5
39
2
10
85.977740
20
286.900275
11
86.626908
21
286.249312
0
LINE
8
boundary
62
5
39
2
10
86.626908
20
286.249312
11
88.766412
21
283.793228
0
LINE
8
boundary
62
5
39
2
10
88.766412
20
283.793228
11
90.425251
21
281.888944
0
LINE
8
boundary
62
5
39
2
10
90.425251
20
281.888944
11
91.315065
21
280.795827
0
LINE
8
boundary
62
5
39
2
10
91.315065
20
280.795827
11
92.378281
21
279.489687
0
LINE
8
boundary
62
5
39
2
10
92.378281
20
279.489687
11
93.645793
21
277.702391
0
LINE
8
boundary
62
5
39
2
10
93.645793
20
277.702391
11
94.475802
21
276.532010
0
LINE
8
boundary
62
5
39
2
10
94.475802
20
276.532010
11
95.752549
21
274.607367
0
LINE
8
boundary
62
5
39
2
10
95.752549
20
274.607367
11
97.539523
21
271.913596
0
LINE
8
boundary
62
5
39
2
10
97.539523
20
271.913596
11
99.347958
21
268.560469
0
LINE
8
boundary
62
5
39
2
10
99.347958
20
268.560469
11
100.215293
21
266.941568
0
LINE
8
boundary
62
5
39
2
10
100.215293
20
266.941568
11
100.858341
21
265.649371
0
LINE
8
boundary
62
5
39
2
10
100.858341
20
265.649371
11
102.078824
21
263.196845
0
LINE
8
boundary
62
5
39
2
10
102.078824
20
263.196845
11
103.362545
21
259.968811
0
LINE
8
boundary
62
5
39
2
10
103.362545
20
259.968811
11
103.792369
21
258.876611
0
LINE
8
boundary
62
5
39
2
10
103.792369
20
258.876611
11
104.338080
21
257.365803
0
LINE
8
boundary
62
5
39
2
10
104.338080
20
257.365803
11
111.776381
21
257.140760
0
LINE
8
boundary
62
5
39
2
10
111.776381
20
257.140760
11
111.776381
21
252.893880
0
LINE
8
boundary
62
5
39
2
10
111.776381
20
252.893880
11
106.031489
21
252.893880
0
LINE
8
boundary
62
5
39
2
10
106.031489
20
252.893880
11
106.077186
21
252.205290
0
LINE
8
boundary
62
5
39
2
10
106.077186
20
252.205290
11
106.713017
21
249.647069
0
LINE
8
boundary
62
5
39
2
10
106.713017
20
249.647069
11
106.855216
21
249.072795
0
LINE
8
boundary
62
5
39
2
10
106.855216
20
249.072795
11
107.263054
21
247.216326
0
LINE
8
boundary
62
5
39
2
10
107.263054
20
247.216326
11
107.476376
21
246.245290
0
LINE
8
boundary
62
5
39
2
10
107.476376
20
246.245290
11
107.736271
21
244.886545
0
LINE
8
boundary
62
5
39
2
10
107.736271
20
244.886545
11
107.984086
21
243.590963
0
LINE
8
boundary
62
5
39
2
10
107.984086
20
243.590963
11
108.139469
21
242.634610
0
LINE
8
boundary
62
5
39
2
10
108.139469
20
242.634610
11
108.393127
21
241.073397
0
LINE
8
boundary
62
5
39
2
10
108.393127
20
241.073397
11
108.477612
21
240.439840
0
LINE
8
boundary
62
5
39
2
10
108.477612
20
240.439840
11
108.714648
21
238.662310
0
LINE
8
boundary
62
5
39
2
10
108.714648
20
238.662310
11
108.956944
21
236.331882
0
LINE
8
boundary
62
5
39
2
10
108.956944
20
236.331882
11
109.126012
21
234.059479
0
LINE
8
boundary
62
5
39
2
10
109.126012
20
234.059479
11
109.183599
21
232.771028
0
LINE
8
boundary
62
5
39
2
10
109.183599
20
232.771028
11
109.217087
21
231.846546
0
LINE
8
boundary
62
5
39
2
10
109.217087
20
231.846546
11
109.244186
21
229.648576
0
LINE
8
boundary
62
5
39
2
10
109.244186
20
229.648576
11
109.218175
21
227.415337
0
LINE
8
boundary
62
5
39
2
10
109.218175
20
227.415337
11
109.183599
21
226.445423
0
LINE
8
boundary
62
5
39
2
10
109.183599
20
226.445423
11
109.126013
21
225.156966
0
LINE
8
boundary
62
5
39
2
10
109.126013
20
225.156966
11
108.956944
21
222.884564
0
LINE
8
boundary
62
5
39
2
10
108.956944
20
222.884564
11
108.714648
21
220.554141
0
LINE
8
boundary
62
5
39
2
10
108.714648
20
220.554141
11
108.393127
21
218.143051
0
LINE
8
boundary
62
5
39
2
10
108.393127
20
218.143051
11
108.259425
21
217.320141
0
LINE
8
boundary
62
5
39
2
10
108.259425
20
217.320141
11
107.984086
21
215.625486
0
LINE
8
boundary
62
5
39
2
10
107.984086
20
215.625486
11
107.732161
21
214.308408
0
LINE
8
boundary
62
5
39
2
10
107.732161
20
214.308408
11
107.476376
21
212.971158
0
LINE
8
boundary
62
5
39
2
10
107.476376
20
212.971158
11
107.038805
21
210.979344
0
LINE
8
boundary
62
5
39
2
10
107.038805
20
210.979344
11
106.855216
21
210.143652
0
LINE
8
boundary
62
5
39
2
10
106.855216
20
210.143652
11
106.134298
21
207.232213
0
LINE
8
boundary
62
5
39
2
10
106.134298
20
207.232213
11
105.968168
21
206.614709
0
LINE
8
boundary
62
5
39
2
10
105.968168
20
206.614709
11
111.782016
21
206.340763
0
LINE
8
boundary
62
5
39
2
10
111.782016
20
206.340763
11
111.782016
21
202.093883
0
LINE
8
boundary
62
5
39
2
10
111.782016
20
202.093883
11
104.429992
21
202.093883
0
LINE
8
boundary
62
5
39
2
10
104.429992
20
202.093883
11
103.792369
21
200.339842
0
LINE
8
boundary
62
5
39
2
10
103.792369
20
200.339842
11
102.358581
21
196.696510
0
LINE
8
boundary
62
5
39
2
10
102.358581
20
196.696510
11
102.078823
21
196.019606
0
LINE
8
boundary
62
5
39
2
10
102.078823
20
196.019606
11
100.215293
21
192.274886
0
LINE
8
boundary
62
5
39
2
10
100.215293
20
192.274886
11
97.919347
21
187.989457
0
LINE
8
boundary
62
5
39
2
10
97.919347
20
187.989457
11
97.539523
21
187.302860
0
LINE
8
boundary
62
5
39
2
10
97.539523
20
187.302860
11
94.475801
21
182.684444
0
LINE
8
boundary
62
5
39
2
10
94.475801
20
182.684444
11
92.378281
21
179.726764
0
LINE
8
boundary
62
5
39
2
10
92.378281
20
179.726764
11
90.425252
21
177.327499
0
LINE
8
boundary
62
5
39
2
10
90.425252
20
177.327499
11
86.626908
21
172.967136
0
LINE
8
boundary
62
5
39
2
10
86.626908
20
172.967136
11
85.355874
21
171.692597
0
LINE
8
boundary
62
5
39
2
10
85.355874
20
171.692597
11
80.320847
21
166.989658
0
LINE
8
boundary
62
5
39
2
10
80.320847
20
166.989658
11
79.096072
21
165.993152
0
LINE
8
boundary
62
5
39
2
10
79.096072
20
165.993152
11
74.909525
21
162.839939
0
LINE
8
boundary
62
5
39
2
10
74.909525
20
162.839939
11
74.909525
21
155.765810
0
LINE
8
boundary
62
5
39
2
10
74.909525
20
155.765810
11
80.065896
21
155.540766
0
LINE
8
boundary
62
5
39
2
10
80.065896
20
155.540766
11
80.065896
21
151.293886
0
LINE
8
boundary
62
5
39
2
10
80.065896
20
151.293886
11
74.994869
21
151.293886
0
LINE
8
boundary
62
5
39
2
10
74.994869
20
151.293886
11
74.909525
21
147.273339
0
LINE
8
boundary
62
5
39
2
10
74.909525
20
147.273339
11
78.895125
21
149.609395
0
LINE
8
boundary
62
5
39
2
10
78.895125
20
149.609395
11
79.586642
21
150.052055
0
LINE
8
boundary
62
5
39
2
10
79.586642
20
150.052055
11
83.244982
21
152.726527
0
LINE
8
boundary
62
5
39
2
10
83.244982
20
152.726527
11
86.808862
21
155.331940
0
LINE
8
boundary
62
5
39
2
10
86.808862
20
155.331940
11
90.547905
21
158.640714
0
LINE
8
annotation
62
1
39
211
10
82.501913
20
152.569085
11
82.501913
21
154.265566
0
LINE
8
annotation
62
1
39
211
10
82.501913
20
154.265566
11
82.124763
21
153.888311
0
LINE
8
annotation
62
1
39
211
10
117.595583
20
202.285630
11
115.879788
21
202.285630
0
LINE
8
annotation
62
1
39
211
10
115.879788
20
202.285630
11
117.465239
21
204.838001
0
LINE
8
annotation
62
1
39
211
10
117.465239
20
204.838001
11
117.465239
21
204.838001
0
LINE
8
annotation
62
1
39
211
10
117.465239
20
204.838001
11
117.467134
21
204.840346
0
LINE
8
annotation
62
1
39
211
10
117.467134
20
204.840346
11
117.468951
21
204.842712
0
LINE
8
annotation
62
1
39
211
10
117.468951
20
204.842712
11
117.470703
21
204.845117
0
LINE
8
annotation
62
1
39
211
10
117.470703
20
204.845117
11
117.472401
21
204.847582
0
LINE
8
annotation
62
1
39
211
10
117.472401
20
204.847582
11
117.474057
21
204.850126
0
LINE
8
annotation
62
1
39
211
10
117.474057
20
204.850126
11
117.475683
21
204.852771
0
LINE
8
annotation
62
1
39
211
10
117.475683
20
204.852771
11
117.477291
21
204.855535
0
LINE
8
annotation
62
1
39
211
10
117.477291
20
204.855535
11
117.478894
21
204.858438
0
LINE
8
annotation
62
1
39
211
10
117.478894
20
204.858438
11
117.480502
21
204.861502
0
LINE
8
annotation
62
1
39
211
10
117.480502
20
204.861502
11
117.480502
21
204.861502
0
LINE
8
annotation
62
1
39
211
10
117.480502
20
204.861502
11
117.545965
21
205.002056
0
LINE
8
annotation
62
1
39
211
10
117.545965
20
205.002056
11
117.584207
21
205.147753
0
LINE
8
annotation
62
1
39
211
10
117.584207
20
205.147753
11
117.596166
21
205.295300
0
LINE
8
annotation
62
1
39
211
10
117.596166
20
205.295300
11
117.582779
21
205.441406
0
LINE
8
annotation
62
1
39
211
10
117.582779
20
205.441406
11
117.544982
21
205.582778
0
LINE
8
annotation
62
1
39
211
10
117.544982
20
205.582778
11
117.483714
21
205.716124
0
LINE
8
annotation
62
1
39
211
10
117.483714
20
205.716124
11
117.399912
21
205.838151
0
LINE
8
annotation
62
1
39
211
10
117.399912
20
205.838151
11
117.294511
21
205.945569
0
LINE
8
annotation
62
1
39
211
10
117.294511
20
205.945569
11
117.168451
21
206.035084
0
LINE
8
annotation
62
1
39
211
10
117.168451
20
206.035084
11
117.168451
21
206.035084
0
LINE
8
annotation
62
1
39
211
10
117.168451
20
206.035084
11
117.027506
21
206.099616
0
LINE
8
annotation
62
1
39
211
10
117.027506
20
206.099616
11
116.881586
21
206.137269
0
LINE
8
annotation
62
1
39
211
10
116.881586
20
206.137269
11
116.733953
21
206.148890
0
LINE
8
annotation
62
1
39
211
10
116.733953
20
206.148890
11
116.587869
21
206.135326
0
LINE
8
annotation
62
1
39
211
10
116.587869
20
206.135326
11
116.446597
21
206.097426
0
LINE
8
annotation
62
1
39
211
10
116.446597
20
206.097426
11
116.313399
21
206.036035
0
LINE
8
annotation
62
1
39
211
10
116.313399
20
206.036035
11
116.191536
21
205.952002
0
LINE
8
annotation
62
1
39
211
10
116.191536
20
205.952002
11
116.084272
21
205.846174
0
LINE
8
annotation
62
1
39
211
10
116.084272
20
205.846174
11
115.994869
21
205.719399
0
LINE
8
annotation
62
1
39
211
10
115.994869
20
205.719399
11
115.882211
21
205.503289
0
LINE
8
annotation
62
1
39
211
10
115.874579
20
253.085573
11
116.732567
21
253.085573
0
LINE
8
annotation
62
1
39
211
10
116.732567
20
253.085573
11
116.732567
21
253.085573
0
LINE
8
annotation
62
1
39
211
10
116.732567
20
253.085573
11
116.886879
21
253.099415
0
LINE
8
annotation
62
1
39
211
10
116.886879
20
253.099415
11
117.032080
21
253.139311
0
LINE
8
annotation
62
1
39
211
10
117.032080
20
253.139311
11
117.165757
21
253.202811
0
LINE
8
annotation
62
1
39
211
10
117.165757
20
253.202811
11
117.285494
21
253.287465
0
LINE
8
annotation
62
1
39
211
10
117.285494
20
253.287465
11
117.388877
21
253.390826
0
LINE
8
annotation
62
1
39
211
10
117.388877
20
253.390826
11
117.473489
21
253.510444
0
LINE
8
annotation
62
1
39
211
10
117.473489
20
253.510444
11
117.536916
21
253.643869
0
LINE
8
annotation
62
1
39
211
10
117.536916
20
253.643869
11
117.576744
21
253.788655
0
LINE
8
annotation
62
1
39
211
10
117.576744
20
253.788655
11
117.590556
21
253.942350
0
LINE
8
annotation
62
1
39
211
10
117.590556
20
253.942350
11
117.590556
21
254.371950
0
LINE
8
annotation
62
1
39
211
10
117.590556
20
254.371950
11
117.590556
21
254.371950
0
LINE
8
annotation
62
1
39
211
10
117.590556
20
254.371950
11
117.576744
21
254.525582
0
LINE
8
annotation
62
1
39
211
10
117.576744
20
254.525582
11
117.536916
21
254.670333
0
LINE
8
annotation
62
1
39
211
10
117.536916
20
254.670333
11
117.473489
21
254.803749
0
LINE
8
annotation
62
1
39
211
10
117.473489
20
254.803749
11
117.388877
21
254.923375
0
LINE
8
annotation
62
1
39
211
10
117.388877
20
254.923375
11
117.285494
21
255.026755
0
LINE
8
annotation
62
1
39
211
10
117.285494
20
255.026755
11
117.165757
21
255.111436
0
LINE
8
annotation
62
1
39
211
10
117.165757
20
255.111436
11
117.032080
21
255.174961
0
LINE
8
annotation
62
1
39
211
10
117.032080
20
255.174961
11
116.886879
21
255.214877
0
LINE
8
annotation
62
1
39
211
10
116.886879
20
255.214877
11
116.732567
21
255.228728
0
LINE
8
annotation
62
1
39
211
10
116.732567
20
255.228728
11
116.302967
21
255.228728
0
LINE
8
annotation
62
1
39
211
10
116.302967
20
255.228728
11
116.732567
21
255.228728
0
LINE
8
annotation
62
1
39
211
10
116.732567
20
255.228728
11
116.732567
21
255.228728
0
LINE
8
annotation
62
1
39
211
10
116.732567
20
255.228728
11
116.886879
21
255.242582
0
LINE
8
annotation
62
1
39
211
10
116.886879
20
255.242582
11
117.032080
21
255.282521
0
LINE
8
annotation
62
1
39
211
10
117.032080
20
255.282521
11
117.165757
21
255.346109
0
LINE
8
annotation
62
1
39
211
10
117.165757
20
255.346109
11
117.285494
21
255.430913
0
LINE
8
annotation
62
1
39
211
10
117.285494
20
255.430913
11
117.388877
21
255.534496
0
LINE
8
annotation
62
1
39
211
10
117.388877
20
255.534496
11
117.473489
21
255.654424
0
LINE
8
annotation
62
1
39
211
10
117.473489
20
255.654424
11
117.536916
21
255.788262
0
LINE
8
annotation
62
1
39
211
10
117.536916
20
255.788262
11
117.576744
21
255.933575
0
LINE
8
annotation
62
1
39
211
10
117.576744
20
255.933575
11
117.590556
21
256.087928
0
LINE
8
annotation
62
1
39
211
10
117.590556
20
256.087928
11
117.590556
21
256.087928
0
LINE
8
annotation
62
1
39
211
10
117.590556
20
256.087928
11
117.576744
21
256.241560
0
LINE
8
annotation
62
1
39
211
10
117.576744
20
256.241560
11
117.536916
21
256.386311
0
LINE
8
annotation
62
1
39
211
10
117.536916
20
256.386311
11
117.473489
21
256.519727
0
LINE
8
annotation
62
1
39
211
10
117.473489
20
256.519727
11
117.388877
21
256.639353
0
LINE
8
annotation
62
1
39
211
10
117.388877
20
256.639353
11
117.285494
21
256.742733
0
LINE
8
annotation
62
1
39
211
10
117.285494
20
256.742733
11
117.165757
21
256.827414
0
LINE
8
annotation
62
1
39
211
10
117.165757
20
256.827414
11
117.032080
21
256.890939
0
LINE
8
annotation
62
1
39
211
10
117.032080
20
256.890939
11
116.886879
21
256.930855
0
LINE
8
annotation
62
1
39
211
10
116.886879
20
256.930855
11
116.732567
21
256.944705
0
LINE
8
annotation
62
1
39
211
10
116.732567
20
256.944705
11
115.874579
21
256.944705
0
LINE
8
annotation
62
1
39
211
10
84.006018
20
303.321677
11
82.615756
21
303.321677
0
LINE
8
annotation
62
1
39
211
10
82.615756
20
303.321677
11
83.170981
21
305.268891
0
LINE
8
annotation
62
1
39
211
10
83.589285
20
302.765038
11
83.589285
21
303.877059
0
LINE
8
annotation
62
1
39
211
10
115.015901
20
232.377104
11
114.027288
21
230.947166
0
LINE
8
annotation
62
1
39
211
10
114.027288
20
230.947166
11
113.038489
21
232.377104
0
LINE
8
annotation
62
1
39
211
10
114.027288
20
231.062237
11
114.027288
21
229.412566
0
LINE
8
annotation
62
1
39
211
10
117.748762
20
230.894835
11
116.127905
21
230.894835
0
LINE
8
annotation
62
1
39
211
10
118.860115
20
230.069906
11
118.860115
21
230.069906
0
LINE
8
annotation
62
1
39
211
10
118.860115
20
230.069906
11
118.870743
21
229.951547
0
LINE
8
annotation
62
1
39
211
10
118.870743
20
229.951547
11
118.901376
21
229.840230
0
LINE
8
annotation
62
1
39
211
10
118.901376
20
229.840230
11
118.950139
21
229.737793
0
LINE
8
annotation
62
1
39
211
10
118.950139
20
229.737793
11
119.015155
21
229.646075
0
LINE
8
annotation
62
1
39
211
10
119.015155
20
229.646075
11
119.094549
21
229.566912
0
LINE
8
annotation
62
1
39
211
10
119.094549
20
229.566912
11
119.186445
21
229.502142
0
LINE
8
annotation
62
1
39
211
10
119.186445
20
229.502142
11
119.288967
21
229.453602
0
LINE
8
annotation
62
1
39
211
10
119.288967
20
229.453602
11
119.400239
21
229.423131
0
LINE
8
annotation
62
1
39
211
10
119.400239
20
229.423131
11
119.518385
21
229.412566
0
LINE
8
annotation
62
1
39
211
10
119.518385
20
229.412566
11
119.518385
21
229.412566
0
LINE
8
annotation
62
1
39
211
10
119.518385
20
229.412566
11
119.636532
21
229.423131
0
LINE
8
annotation
62
1
39
211
10
119.636532
20
229.423131
11
119.747804
21
229.453602
0
LINE
8
annotation
62
1
39
211
10
119.747804
20
229.453602
11
119.850326
21
229.502142
0
LINE
8
annotation
62
1
39
211
10
119.850326
20
229.502142
11
119.942222
21
229.566912
0
LINE
8
annotation
62
1
39
211
10
119.942222
20
229.566912
11
120.021616
21
229.646075
0
LINE
8
annotation
62
1
39
211
10
120.021616
20
229.646075
11
120.086632
21
229.737793
0
LINE
8
annotation
62
1
39
211
10
120.086632
20
229.737793
11
120.135394
21
229.840230
0
LINE
8
annotation
62
1
39
211
10
120.135394
20
229.840230
11
120.166027
21
229.951547
0
LINE
8
annotation
62
1
39
211
10
120.166027
20
229.951547
11
120.176655
21
230.069906
0
LINE
8
annotation
62
1
39
211
10
120.176655
20
230.069906
11
120.176655
21
230.397833
0
LINE
8
annotation
62
1
39
211
10
120.176655
20
230.397833
11
120.176655
21
230.397833
0
LINE
8
annotation
62
1
39
211
10
120.176655
20
230.397833
11
120.166033
21
230.516250
0
LINE
8
annotation
62
1
39
211
10
120.166033
20
230.516250
11
120.135416
21
230.627720
0
LINE
8
annotation
62
1
39
211
10
120.135416
20
230.627720
11
120.086673
21
230.730379
0
LINE
8
annotation
62
1
39
211
10
120.086673
20
230.730379
11
120.021677
21
230.822362
0
LINE
8
annotation
62
1
39
211
10
120.021677
20
230.822362
11
119.942298
21
230.901803
0
LINE
8
annotation
62
1
39
211
10
119.942298
20
230.901803
11
119.850409
21
230.966837
0
LINE
8
annotation
62
1
39
211
10
119.850409
20
230.966837
11
119.747879
21
231.015599
0
LINE
8
annotation
62
1
39
211
10
119.747879
20
231.015599
11
119.636581
21
231.046223
0
LINE
8
annotation
62
1
39
211
10
119.636581
20
231.046223
11
119.518385
21
231.056846
0
LINE
8
annotation
62
1
39
211
10
119.518385
20
231.056846
11
119.518385
21
231.056846
0
LINE
8
annotation
62
1
39
211
10
119.518385
20
231.056846
11
119.400190
21
231.046217
0
LINE
8
annotation
62
1
39
211
10
119.400190
20
231.046217
11
119.288892
21
231.015577
0
LINE
8
annotation
62
1
39
211
10
119.288892
20
231.015577
11
119.186362
21
230.966795
0
LINE
8
annotation
62
1
39
211
10
119.186362
20
230.966795
11
119.094472
21
230.901741
0
LINE
8
annotation
62
1
39
211
10
119.094472
20
230.901741
11
119.015094
21
230.822285
0
LINE
8
annotation
62
1
39
211
10
119.015094
20
230.822285
11
118.950098
21
230.730297
0
LINE
8
annotation
62
1
39
211
10
118.950098
20
230.730297
11
118.901355
21
230.627645
0
LINE
8
annotation
62
1
39
211
10
118.901355
20
230.627645
11
118.870737
21
230.516201
0
LINE
8
annotation
62
1
39
211
10
118.870737
20
230.516201
11
118.860115
21
230.397833
0
LINE
8
annotation
62
1
39
211
10
118.860115
20
230.397833
11
118.860115
21
230.069906
0
LINE
8
annotation
62
1
39
211
10
120.176655
20
231.716046
11
120.176655
21
231.716046
0
LINE
8
annotation
62
1
39
211
10
120.176655
20
231.716046
11
120.166033
21
231.833916
0
LINE
8
annotation
62
1
39
211
10
120.166033
20
231.833916
11
120.135416
21
231.944972
0
LINE
8
annotation
62
1
39
211
10
120.135416
20
231.944972
11
120.086673
21
232.047332
0
LINE
8
annotation
62
1
39
211
10
120.086673
20
232.047332
11
120.021677
21
232.139112
0
LINE
8
annotation
62
1
39
211
10
120.021677
20
232.139112
11
119.942298
21
232.218428
0
LINE
8
annotation
62
1
39
211
10
119.942298
20
232.218428
11
119.850409
21
232.283397
0
LINE
8
annotation
62
1
39
211
10
119.850409
20
232.283397
11
119.747879
21
232.332135
0
LINE
8
annotation
62
1
39
211
10
119.747879
20
232.332135
11
119.636581
21
232.362759
0
LINE
8
annotation
62
1
39
211
10
119.636581
20
232.362759
11
119.518385
21
232.373386
0
LINE
8
annotation
62
1
39
211
10
119.518385
20
232.373386
11
119.518385
21
232.373386
0
LINE
8
annotation
62
1
39
211
10
119.518385
20
232.373386
11
119.400190
21
232.362759
0
LINE
8
annotation
62
1
39
211
10
119.400190
20
232.362759
11
119.288892
21
232.332135
0
LINE
8
annotation
62
1
39
211
10
119.288892
20
232.332135
11
119.186362
21
232.283397
0
LINE
8
annotation
62
1
39
211
10
119.186362
20
232.283397
11
119.094472
21
232.218428
0
LINE
8
annotation
62
1
39
211
10
119.094472
20
232.218428
11
119.015094
21
232.139112
0
LINE
8
annotation
62
1
39
211
10
119.015094
20
232.139112
11
118.950098
21
232.047332
0
LINE
8
annotation
62
1
39
211
10
118.950098
20
232.047332
11
118.901355
21
231.944972
0
LINE
8
annotation
62
1
39
211
10
118.901355
20
231.944972
11
118.870737
21
231.833916
0
LINE
8
annotation
62
1
39
211
10
118.870737
20
231.833916
11
118.860115
21
231.716046
0
LINE
8
annotation
62
1
39
211
10
118.860115
20
231.716046
11
118.860115
21
231.716046
0
LINE
8
annotation
62
1
39
211
10
118.860115
20
231.716046
11
118.870743
21
231.597622
0
LINE
8
annotation
62
1
39
211
10
118.870743
20
231.597622
11
118.901376
21
231.486135
0
LINE
8
annotation
62
1
39
211
10
118.901376
20
231.486135
11
118.950139
21
231.383451
0
LINE
8
annotation
62
1
39
211
10
118.950139
20
231.383451
11
119.015155
21
231.291439
0
LINE
8
annotation
62
1
39
211
10
119.015155
20
231.291439
11
119.094549
21
231.211967
0
LINE
8
annotation
62
1
39
211
10
119.094549
20
231.211967
11
119.186445
21
231.146904
0
LINE
8
annotation
62
1
39
211
10
119.186445
20
231.146904
11
119.288967
21
231.098117
0
LINE
8
annotation
62
1
39
211
10
119.288967
20
231.098117
11
119.400239
21
231.067475
0
LINE
8
annotation
62
1
39
211
10
119.400239
20
231.067475
11
119.518385
21
231.056846
0
LINE
8
annotation
62
1
39
211
10
119.518385
20
231.056846
11
119.518385
21
231.056846
0
LINE
8
annotation
62
1
39
211
10
119.518385
20
231.056846
11
119.636532
21
231.067475
0
LINE
8
annotation
62
1
39
211
10
119.636532
20
231.067475
11
119.747804
21
231.098117
0
LINE
8
annotation
62
1
39
211
10
119.747804
20
231.098117
11
119.850326
21
231.146904
0
LINE
8
annotation
62
1
39
211
10
119.850326
20
231.146904
11
119.942222
21
231.211967
0
LINE
8
annotation
62
1
39
211
10
119.942222
20
231.211967
11
120.021616
21
231.291439
0
LINE
8
annotation
62
1
39
211
10
120.021616
20
231.291439
11
120.086632
21
231.383451
0
LINE
8
annotation
62
1
39
211
10
120.086632
20
231.383451
11
120.135394
21
231.486135
0
LINE
8
annotation
62
1
39
211
10
120.135394
20
231.486135
11
120.166027
21
231.597622
0
LINE
8
annotation
62
1
39
211
10
120.166027
20
231.597622
11
120.176655
21
231.716046
0
LINE
8
boundary
62
5
39
2
10
76.851369
20
316.528525
11
77.989126
21
317.476573
0
LINE
8
boundary
62
5
39
2
10
77.989126
20
317.476573
11
81.869582
21
320.756500
0
LINE
8
boundary
62
5
39
2
10
81.869582
20
320.756500
11
82.457453
21
321.253395
0
LINE
8
boundary
62
5
39
2
10
82.457453
20
321.253395
11
86.566859
21
325.277567
0
LINE
8
boundary
62
5
39
2
10
86.566859
20
325.277567
11
87.870012
21
326.553691
0
LINE
8
boundary
62
5
39
2
10
87.870012
20
326.553691
11
90.910313
21
330.002100
0
LINE
8
boundary
62
5
39
2
10
90.910313
20
330.002100
11
92.876332
21
332.232024
0
LINE
8
boundary
62
5
39
2
10
92.876332
20
332.232024
11
94.877979
21
334.869529
0
LINE
8
boundary
62
5
39
2
10
94.877979
20
334.869529
11
97.449124
21
338.257438
0
LINE
8
boundary
62
5
39
2
10
97.449124
20
338.257438
11
98.450795
21
339.800879
0
LINE
8
boundary
62
5
39
2
10
98.450795
20
339.800879
11
101.563461
21
344.597088
0
LINE
8
boundary
62
5
39
2
10
101.563461
20
344.597088
11
104.420477
21
349.865594
0
LINE
8
boundary
62
5
39
2
10
104.420477
20
349.865594
11
105.196903
21
351.298672
0
LINE
8
boundary
62
5
39
2
10
105.196903
20
351.298672
11
106.819141
21
354.895693
0
LINE
8
boundary
62
5
39
2
10
106.819141
20
354.895693
11
108.329651
21
358.244975
0
LINE
8
boundary
62
5
39
2
10
108.329651
20
358.244975
11
108.811691
21
359.562698
0
LINE
8
boundary
62
5
39
2
10
108.811691
20
359.562698
11
109.539482
21
361.552213
0
LINE
8
boundary
62
5
39
2
10
109.539482
20
361.552213
11
110.446925
21
364.075205
0
LINE
8
boundary
62
5
39
2
10
110.446925
20
364.075205
11
110.944618
21
365.458951
0
LINE
8
boundary
62
5
39
2
10
110.944618
20
365.458951
11
111.749163
21
368.355494
0
LINE
8
boundary
62
5
39
2
10
111.749163
20
368.355494
11
112.221066
21
370.004760
0
LINE
8
boundary
62
5
39
2
10
112.221066
20
370.004760
11
112.452269
21
370.856579
0
LINE
8
boundary
62
5
39
2
10
112.452269
20
370.856579
11
112.754992
21
371.964497
0
LINE
8
boundary
62
5
39
2
10
112.754992
20
371.964497
11
113.027561
21
372.976127
0
LINE
8
boundary
62
5
39
2
10
113.027561
20
372.976127
11
113.276136
21
373.563165
0
LINE
8
boundary
62
5
39
2
10
113.276136
20
373.563165
11
113.544388
21
374.196666
0
LINE
8
boundary
62
5
39
2
10
113.544388
20
374.196666
11
113.928233
21
374.840183
0
LINE
8
boundary
62
5
39
2
10
113.928233
20
374.840183
11
114.223084
21
375.334500
0
LINE
8
boundary
62
5
39
2
10
114.223084
20
375.334500
11
114.596866
21
375.800984
0
LINE
8
boundary
62
5
39
2
10
114.596866
20
375.800984
11
115.049371
21
376.365714
0
LINE
8
boundary
62
5
39
2
10
115.049371
20
376.365714
11
115.420686
21
376.716224
0
LINE
8
boundary
62
5
39
2
10
115.420686
20
376.716224
11
116.005869
21
377.268623
0
LINE
8
boundary
62
5
39
2
10
116.005869
20
377.268623
11
117.116261
21
377.311283
0
LINE
8
boundary
62
5
39
2
10
117.116261
20
377.311283
11
121.138562
21
377.558409
0
LINE
8
boundary
62
5
39
2
10
121.138562
20
377.558409
11
121.138562
21
379.181002
0
LINE
8
boundary
62
5
39
2
10
121.138562
20
379.181002
11
121.138562
21
380.563027
0
LINE
8
boundary
62
5
39
2
10
121.138562
20
380.563027
11
121.138562
21
381.985979
0
LINE
8
boundary
62
5
39
2
10
121.138562
20
381.985979
11
121.138562
21
383.473436
0
LINE
8
boundary
62
5
39
2
10
121.138562
20
383.473436
11
121.138562
21
385.053130
0
LINE
8
boundary
62
5
39
2
10
121.138562
20
385.053130
11
121.138562
21
386.759233
0
LINE
8
boundary
62
5
39
2
10
121.138562
20
386.759233
11
121.138563
21
388.635682
0
LINE
8
boundary
62
5
39
2
10
121.138563
20
388.635682
11
121.138562
21
390.741196
0
LINE
8
boundary
62
5
39
2
10
121.138562
20
390.741196
11
121.138562
21
393.157465
0
LINE
8
boundary
62
5
39
2
10
121.138562
20
393.157465
11
121.138562
21
396.002955
0
LINE
8
boundary
62
5
39
2
10
121.138562
20
396.002955
11
121.138562
21
399.457709
0
LINE
8
boundary
62
5
39
2
10
121.138562
20
399.457709
11
121.138562
21
403.811027
0
LINE
8
boundary
62
5
39
2
10
121.138562
20
403.811027
11
121.138562
21
409.560927
0
LINE
8
boundary
62
5
39
2
10
121.138562
20
409.560927
11
121.138562
21
415.107370
0
LINE
8
boundary
62
5
39
2
10
121.138562
20
415.107370
11
119.650233
21
415.222403
0
LINE
8
boundary
62
5
39
2
10
119.650233
20
415.222403
11
116.005870
21
415.400500
0
LINE
8
boundary
62
5
39
2
10
116.005870
20
415.400500
11
115.197455
21
416.193864
0
LINE
8
boundary
62
5
39
2
10
115.197455
20
416.193864
11
114.258003
21
417.363155
0
LINE
8
boundary
62
5
39
2
10
114.258003
20
417.363155
11
113.544387
21
418.512243
0
LINE
8
boundary
62
5
39
2
10
113.544387
20
418.512243
11
113.322721
21
419.022421
0
LINE
8
boundary
62
5
39
2
10
113.322721
20
419.022421
11
113.027561
21
419.701752
0
LINE
8
boundary
62
5
39
2
10
113.027561
20
419.701752
11
112.446867
21
421.805638
0
LINE
8
boundary
62
5
39
2
10
112.446867
20
421.805638
11
110.944618
21
427.214413
0
LINE
8
boundary
62
5
39
2
10
110.944618
20
427.214413
11
109.539482
21
431.121157
0
LINE
8
boundary
62
5
39
2
10
109.539482
20
431.121157
11
108.329651
21
434.428389
0
LINE
8
boundary
62
5
39
2
10
108.329651
20
434.428389
11
107.069546
21
437.222449
0
LINE
8
boundary
62
5
39
2
10
107.069546
20
437.222449
11
105.196902
21
441.374695
0
LINE
8
boundary
62
5
39
2
10
105.196902
20
441.374695
11
101.763273
21
447.712260
0
LINE
8
boundary
62
5
39
2
10
101.763273
20
447.712260
11
101.483465
21
448.199536
0
LINE
8
boundary
62
5
39
2
10
101.483465
20
448.199536
11
97.449124
21
454.415927
0
LINE
8
boundary
62
5
39
2
10
97.449124
20
454.415927
11
95.886481
21
456.474965
0
LINE
8
boundary
62
5
39
2
10
95.886481
20
456.474965
11
92.876332
21
460.441338
0
LINE
8
boundary
62
5
39
2
10
92.876332
20
460.441338
11
89.825340
21
463.901874
0
LINE
8
boundary
62
5
39
2
10
89.825340
20
463.901874
11
87.870012
21
466.119668
0
LINE
8
boundary
62
5
39
2
10
87.870012
20
466.119668
11
83.324549
21
470.570853
0
LINE
8
boundary
62
5
39
2
10
83.324549
20
470.570853
11
82.457452
21
471.419966
0
LINE
8
boundary
62
5
39
2
10
82.457452
20
471.419966
11
77.989126
21
475.196787
0
LINE
8
boundary
62
5
39
2
10
77.989126
20
475.196787
11
76.668159
21
476.297498
0
LINE
8
boundary
62
5
39
2
10
76.668159
20
476.297498
11
74.909525
21
477.555248
0
LINE
8
boundary
62
5
39
2
10
74.909525
20
477.555248
11
74.909525
21
474.894255
0
LINE
8
boundary
62
5
39
2
10
74.909525
20
474.894255
11
77.971047
21
474.669211
0
LINE
8
boundary
62
5
39
2
10
77.971047
20
474.669211
11
77.971047
21
470.422331
0
LINE
8
boundary
62
5
39
2
10
77.971047
20
470.422331
11
74.994869
21
470.422332
0
LINE
8
boundary
62
5
39
2
10
74.994869
20
470.422332
11
74.909525
21
461.632397
0
LINE
8
boundary
62
5
39
2
10
74.909525
20
461.632397
11
77.228739
21
459.512081
0
LINE
8
boundary
62
5
39
2
10
77.228739
20
459.512081
11
78.232844
21
458.437775
0
LINE
8
boundary
62
5
39
2
10
78.232844
20
458.437775
11
82.043550
21
454.360640
0
LINE
8
boundary
62
5
39
2
10
82.043550
20
454.360640
11
83.436456
21
452.613148
0
LINE
8
boundary
62
5
39
2
10
83.436456
20
452.613148
11
85.973816
21
449.390353
0
LINE
8
boundary
62
5
39
2
10
85.973816
20
449.390353
11
86.434845
21
448.804780
0
LINE
8
boundary
62
5
39
2
10
86.434845
20
448.804780
11
89.295686
21
444.523597
0
LINE
8
boundary
62
5
39
2
10
89.295686
20
444.523597
11
90.375563
21
442.907594
0
LINE
8
boundary
62
5
39
2
10
90.375563
20
442.907594
11
92.209586
21
439.637071
0
LINE
8
boundary
62
5
39
2
10
92.209586
20
439.637071
11
93.841415
21
436.727110
0
LINE
8
boundary
62
5
39
2
10
93.841415
20
436.727110
11
94.704438
21
434.859685
0
LINE
8
boundary
62
5
39
2
10
94.704438
20
434.859685
11
96.694512
21
430.553527
0
LINE
8
boundary
62
5
39
2
10
96.694512
20
430.553527
11
98.509785
21
425.644429
0
LINE
8
boundary
62
5
39
2
10
98.509785
20
425.644429
11
99.075716
21
424.094256
0
LINE
8
boundary
62
5
39
2
10
99.075716
20
424.094256
11
105.952925
21
423.869215
0
LINE
8
boundary
62
5
39
2
10
105.952925
20
423.869215
11
105.952925
21
419.622334
0
LINE
8
boundary
62
5
39
2
10
105.952925
20
419.622334
11
100.519094
21
419.622334
0
LINE
8
boundary
62
5
39
2
10
100.519094
20
419.622334
11
100.876450
21
417.784549
0
LINE
8
boundary
62
5
39
2
10
100.876450
20
417.784549
11
101.191416
21
416.635926
0
LINE
8
boundary
62
5
39
2
10
101.191416
20
416.635926
11
101.628496
21
414.382329
0
LINE
8
boundary
62
5
39
2
10
101.628496
20
414.382329
11
101.854766
21
413.215674
0
LINE
8
boundary
62
5
39
2
10
101.854766
20
413.215674
11
102.164632
21
411.576662
0
LINE
8
boundary
62
5
39
2
10
102.164632
20
411.576662
11
102.558708
21
409.492216
0
LINE
8
boundary
62
5
39
2
10
102.558708
20
409.492216
11
102.806161
21
407.290293
0
LINE
8
boundary
62
5
39
2
10
102.806161
20
407.290293
11
102.981860
21
405.633311
0
LINE
8
boundary
62
5
39
2
10
102.981860
20
405.633311
11
103.038294
21
405.096528
0
LINE
8
boundary
62
5
39
2
10
103.038294
20
405.096528
11
103.115729
21
404.323979
0
LINE
8
boundary
62
5
39
2
10
103.115729
20
404.323979
11
103.179002
21
403.692734
0
LINE
8
boundary
62
5
39
2
10
103.179002
20
403.692734
11
103.284949
21
402.573981
0
LINE
8
boundary
62
5
39
2
10
103.284949
20
402.573981
11
103.366724
21
401.650752
0
LINE
8
boundary
62
5
39
2
10
103.366724
20
401.650752
11
103.408917
21
401.135554
0
LINE
8
boundary
62
5
39
2
10
103.408917
20
401.135554
11
103.433482
21
400.179400
0
LINE
8
boundary
62
5
39
2
10
103.433482
20
400.179400
11
103.447134
21
399.571638
0
LINE
8
boundary
62
5
39
2
10
103.447134
20
399.571638
11
103.457990
21
399.022411
0
LINE
8
boundary
62
5
39
2
10
103.457990
20
399.022411
11
103.473156
21
398.045773
0
LINE
8
boundary
62
5
39
2
10
103.473156
20
398.045773
11
103.481468
21
397.168848
0
LINE
8
boundary
62
5
39
2
10
103.481468
20
397.168848
11
103.484119
21
396.336674
0
LINE
8
boundary
62
5
39
2
10
103.484119
20
396.336674
11
103.481468
21
395.504505
0
LINE
8
boundary
62
5
39
2
10
103.481468
20
395.504505
11
103.473156
21
394.627580
0
LINE
8
boundary
62
5
39
2
10
103.473156
20
394.627580
11
103.457990
21
393.650953
0
LINE
8
boundary
62
5
39
2
10
103.457990
20
393.650953
11
103.447134
21
393.101716
0
LINE
8
boundary
62
5
39
2
10
103.447134
20
393.101716
11
103.433482
21
392.493955
0
LINE
8
boundary
62
5
39
2
10
103.433482
20
392.493955
11
103.416335
21
391.808475
0
LINE
8
boundary
62
5
39
2
10
103.416335
20
391.808475
11
103.366724
21
391.022608
0
LINE
8
boundary
62
5
39
2
10
103.366724
20
391.022608
11
103.284949
21
390.099379
0
LINE
8
boundary
62
5
39
2
10
103.284949
20
390.099379
11
103.179001
21
388.980634
0
LINE
8
boundary
62
5
39
2
10
103.179001
20
388.980634
11
103.109005
21
388.282300
0
LINE
8
boundary
62
5
39
2
10
103.109005
20
388.282300
11
103.038293
21
387.576832
0
LINE
8
boundary
62
5
39
2
10
103.038293
20
387.576832
11
102.896512
21
386.228236
0
LINE
8
boundary
62
5
39
2
10
102.896512
20
386.228236
11
102.575209
21
383.271318
0
LINE
8
boundary
62
5
39
2
10
102.575209
20
383.271318
11
101.854766
21
379.457686
0
LINE
8
boundary
62
5
39
2
10
101.854766
20
379.457686
11
101.191416
21
376.037430
0
LINE
8
boundary
62
5
39
2
10
101.191416
20
376.037430
11
100.457856
21
373.362266
0
LINE
8
boundary
62
5
39
2
10
100.457856
20
373.362266
11
105.954137
21
373.069217
0
LINE
8
boundary
62
5
39
2
10
105.954137
20
373.069217
11
105.954137
21
368.822337
0
LINE
8
boundary
62
5
39
2
10
105.954137
20
368.822337
11
99.167700
21
368.822338
0
LINE
8
boundary
62
5
39
2
10
99.167700
20
368.822338
11
96.919960
21
362.674164
0
LINE
8
boundary
62
5
39
2
10
96.919960
20
362.674164
11
96.694512
21
362.119834
0
LINE
8
boundary
62
5
39
2
10
96.694512
20
362.119834
11
93.841414
21
355.946252
0
LINE
8
boundary
62
5
39
2
10
93.841414
20
355.946252
11
92.266574
21
353.137916
0
LINE
8
boundary
62
5
39
2
10
92.266574
20
353.137916
11
90.375563
21
349.765769
0
LINE
8
boundary
62
5
39
2
10
90.375563
20
349.765769
11
87.206231
21
345.022940
0
LINE
8
boundary
62
5
39
2
10
87.206231
20
345.022940
11
86.434845
21
343.868578
0
LINE
8
boundary
62
5
39
2
10
86.434845
20
343.868578
11
83.436456
21
340.060213
0
LINE
8
boundary
62
5
39
2
10
83.436456
20
340.060213
11
82.043551
21
338.312721
0
LINE
8
boundary
62
5
39
2
10
82.043551
20
338.312721
11
77.228739
21
333.161291
0
LINE
8
boundary
62
5
39
2
10
77.228739
20
333.161291
11
75.896922
21
331.943691
0
LINE
8
boundary
62
5
39
2
10
75.896922
20
331.943691
11
74.909525
21
331.040973
0
LINE
8
boundary
62
5
39
2
10
74.909525
20
331.040973
11
74.909525
21
322.494264
0
LINE
8
boundary
62
5
39
2
10
74.909525
20
322.494264
11
77.981809
21
322.269220
0
LINE
8
boundary
62
5
39
2
10
77.981809
20
322.269220
11
77.981809
21
318.022341
0
LINE
8
boundary
62
5
39
2
10
77.981809
20
318.022341
11
74.994869
21
318.022341
0
LINE
8
boundary
62
5
39
2
10
74.994869
20
318.022341
11
74.909525
21
315.118109
0
LINE
8
boundary
62
5
39
2
10
74.909525
20
315.118109
11
76.668159
21
316.375863
0
LINE
8
boundary
62
5
39
2
10
76.668159
20
316.375863
11
76.851369
21
316.528525
0
LINE
8
annotation
62
1
39
211
10
79.959191
20
319.466024
11
79.959191
21
320.825537
0
LINE
8
annotation
62
1
39
211
10
79.959191
20
320.825537
11
79.656954
21
320.523215
0
LINE
8
annotation
62
1
39
211
10
111.346101
20
369.157300
11
109.757516
21
369.157300
0
LINE
8
annotation
62
1
39
211
10
109.757516
20
369.157300
11
111.225421
21
371.520439
0
LINE
8
annotation
62
1
39
211
10
111.225421
20
371.520439
11
111.225421
21
371.520439
0
LINE
8
annotation
62
1
39
211
10
111.225421
20
371.520439
11
111.227176
21
371.522610
0
LINE
8
annotation
62
1
39
211
10
111.227176
20
371.522610
11
111.228859
21
371.524800
0
LINE
8
annotation
62
1
39
211
10
111.228859
20
371.524800
11
111.230480
21
371.527027
0
LINE
8
annotation
62
1
39
211
10
111.230480
20
371.527027
11
111.232052
21
371.529309
0
LINE
8
annotation
62
1
39
211
10
111.232052
20
371.529309
11
111.233586
21
371.531665
0
LINE
8
annotation
62
1
39
211
10
111.233586
20
371.531665
11
111.235091
21
371.534113
0
LINE
8
annotation
62
1
39
211
10
111.235091
20
371.534113
11
111.236580
21
371.536672
0
LINE
8
annotation
62
1
39
211
10
111.236580
20
371.536672
11
111.238064
21
371.539361
0
LINE
8
annotation
62
1
39
211
10
111.238064
20
371.539361
11
111.239553
21
371.542197
0
LINE
8
annotation
62
1
39
211
10
111.239553
20
371.542197
11
111.239553
21
371.542197
0
LINE
8
annotation
62
1
39
211
10
111.239553
20
371.542197
11
111.300162
21
371.672330
0
LINE
8
annotation
62
1
39
211
10
111.300162
20
371.672330
11
111.335569
21
371.807225
0
LINE
8
annotation
62
1
39
211
10
111.335569
20
371.807225
11
111.346641
21
371.943834
0
LINE
8
annotation
62
1
39
211
10
111.346641
20
371.943834
11
111.334247
21
372.079107
0
LINE
8
annotation
62
1
39
211
10
111.334247
20
372.079107
11
111.299253
21
372.209998
0
LINE
8
annotation
62
1
39
211
10
111.299253
20
372.209998
11
111.242527
21
372.333457
0
LINE
8
annotation
62
1
39
211
10
111.242527
20
372.333457
11
111.164937
21
372.446438
0
LINE
8
annotation
62
1
39
211
10
111.164937
20
372.446438
11
111.067352
21
372.545891
0
LINE
8
annotation
62
1
39
211
10
111.067352
20
372.545891
11
110.950637
21
372.628769
0
LINE
8
annotation
62
1
39
211
10
110.950637
20
372.628769
11
110.950637
21
372.628769
0
LINE
8
annotation
62
1
39
211
10
110.950637
20
372.628769
11
110.820142
21
372.688518
0
LINE
8
annotation
62
1
39
211
10
110.820142
20
372.688518
11
110.685040
21
372.723379
0
LINE
8
annotation
62
1
39
211
10
110.685040
20
372.723379
11
110.548353
21
372.734138
0
LINE
8
annotation
62
1
39
211
10
110.548353
20
372.734138
11
110.413100
21
372.721580
0
LINE
8
annotation
62
1
39
211
10
110.413100
20
372.721580
11
110.282301
21
372.686489
0
LINE
8
annotation
62
1
39
211
10
110.282301
20
372.686489
11
110.158978
21
372.629650
0
LINE
8
annotation
62
1
39
211
10
110.158978
20
372.629650
11
110.046151
21
372.551847
0
LINE
8
annotation
62
1
39
211
10
110.046151
20
372.551847
11
109.946840
21
372.453866
0
LINE
8
annotation
62
1
39
211
10
109.946840
20
372.453866
11
109.864065
21
372.336489
0
LINE
8
annotation
62
1
39
211
10
109.864065
20
372.336489
11
109.759759
21
372.136402
0
LINE
8
annotation
62
1
39
211
10
110.040823
20
418.018685
11
110.896586
21
418.018685
0
LINE
8
annotation
62
1
39
211
10
110.896586
20
418.018685
11
110.896586
21
418.018685
0
LINE
8
annotation
62
1
39
211
10
110.896586
20
418.018685
11
111.050497
21
418.032492
0
LINE
8
annotation
62
1
39
211
10
111.050497
20
418.032492
11
111.195323
21
418.072284
0
LINE
8
annotation
62
1
39
211
10
111.195323
20
418.072284
11
111.328653
21
418.135619
0
LINE
8
annotation
62
1
39
211
10
111.328653
20
418.135619
11
111.448079
21
418.220054
0
LINE
8
annotation
62
1
39
211
10
111.448079
20
418.220054
11
111.551193
21
418.323147
0
LINE
8
annotation
62
1
39
211
10
111.551193
20
418.323147
11
111.635586
21
418.442454
0
LINE
8
annotation
62
1
39
211
10
111.635586
20
418.442454
11
111.698849
21
418.575534
0
LINE
8
annotation
62
1
39
211
10
111.698849
20
418.575534
11
111.738573
21
418.719944
0
LINE
8
annotation
62
1
39
211
10
111.738573
20
418.719944
11
111.752350
21
418.873241
0
LINE
8
annotation
62
1
39
211
10
111.752350
20
418.873241
11
111.752350
21
419.301727
0
LINE
8
annotation
62
1
39
211
10
111.752350
20
419.301727
11
111.752350
21
419.301727
0
LINE
8
annotation
62
1
39
211
10
111.752350
20
419.301727
11
111.738573
21
419.454960
0
LINE
8
annotation
62
1
39
211
10
111.738573
20
419.454960
11
111.698849
21
419.599336
0
LINE
8
annotation
62
1
39
211
10
111.698849
20
419.599336
11
111.635586
21
419.732406
0
LINE
8
annotation
62
1
39
211
10
111.635586
20
419.732406
11
111.551193
21
419.851721
0
LINE
8
annotation
62
1
39
211
10
111.551193
20
419.851721
11
111.448079
21
419.954834
0
LINE
8
annotation
62
1
39
211
10
111.448079
20
419.954834
11
111.328653
21
420.039294
0
LINE
8
annotation
62
1
39
211
10
111.328653
20
420.039294
11
111.195323
21
420.102655
0
LINE
8
annotation
62
1
39
211
10
111.195323
20
420.102655
11
111.050497
21
420.142467
0
LINE
8
annotation
62
1
39
211
10
111.050497
20
420.142467
11
110.896586
21
420.156282
0
LINE
8
annotation
62
1
39
211
10
110.896586
20
420.156282
11
110.468100
21
420.156282
0
LINE
8
annotation
62
1
39
211
10
110.468100
20
420.156282
11
110.896586
21
420.156282
0
LINE
8
annotation
62
1
39
211
10
110.896586
20
420.156282
11
110.896586
21
420.156282
0
LINE
8
annotation
62
1
39
211
10
110.896586
20
420.156282
11
111.050497
21
420.170100
0
LINE
8
annotation
62
1
39
211
10
111.050497
20
420.170100
11
111.195323
21
420.209935
0
LINE
8
annotation
62
1
39
211
10
111.195323
20
420.209935
11
111.328653
21
420.273359
0
LINE
8
annotation
62
1
39
211
10
111.328653
20
420.273359
11
111.448079
21
420.357943
0
LINE
8
annotation
62
1
39
211
10
111.448079
20
420.357943
11
111.551193
21
420.461257
0
LINE
8
annotation
62
1
39
211
10
111.551193
20
420.461257
11
111.635586
21
420.580875
0
LINE
8
annotation
62
1
39
211
10
111.635586
20
420.580875
11
111.698849
21
420.714365
0
LINE
8
annotation
62
1
39
211
10
111.698849
20
420.714365
11
111.738573
21
420.859302
0
LINE
8
annotation
62
1
39
211
10
111.738573
20
420.859302
11
111.752350
21
421.013254
0
LINE
8
annotation
62
1
39
211
10
111.752350
20
421.013254
11
111.752350
21
421.013254
0
LINE
8
annotation
62
1
39
211
10
111.752350
20
421.013254
11
111.738573
21
421.166487
0
LINE
8
annotation
62
1
39
211
10
111.738573
20
421.166487
11
111.698849
21
421.310863
0
LINE
8
annotation
62
1
39
211
10
111.698849
20
421.310863
11
111.635586
21
421.443933
0
LINE
8
annotation
62
1
39
211
10
111.635586
20
421.443933
11
111.551193
21
421.563249
0
LINE
8
annotation
62
1
39
211
10
111.551193
20
421.563249
11
111.448079
21
421.666361
0
LINE
8
annotation
62
1
39
211
10
111.448079
20
421.666361
11
111.328653
21
421.750822
0
LINE
8
annotation
62
1
39
211
10
111.328653
20
421.750822
11
111.195323
21
421.814183
0
LINE
8
annotation
62
1
39
211
10
111.195323
20
421.814183
11
111.050497
21
421.853995
0
LINE
8
annotation
62
1
39
211
10
111.050497
20
421.853995
11
110.896586
21
421.867810
0
LINE
8
annotation
62
1
39
211
10
110.896586
20
421.867810
11
110.040823
21
421.867810
0
LINE
8
annotation
62
1
39
211
10
81.309253
20
470.161648
11
80.141973
21
470.161648
0
LINE
8
annotation
62
1
39
211
10
80.141973
20
470.161648
11
80.608147
21
471.796552
0
LINE
8
annotation
62
1
39
211
10
80.959359
20
469.694287
11
80.959359
21
470.627953
0
LINE
8
annotation
62
1
39
211
10
109.145211
20
399.068018
11
108.170002
21
397.657467
0
LINE
8
annotation
62
1
39
211
10
108.170002
20
397.657467
11
107.194609
21
399.068018
0
LINE
8
annotation
62
1
39
211
10
108.170002
20
397.770978
11
108.170002
21
396.143673
0
LINE
8
annotation
62
1
39
211
10
111.841019
20
397.605845
11
110.242138
21
397.605845
0
LINE
8
annotation
62
1
39
211
10
113.261519
20
396.143765
11
113.261519
21
396.143765
0
LINE
8
annotation
62
1
39
211
10
113.261519
20
396.143765
11
113.447212
21
396.212964
0
LINE
8
annotation
62
1
39
211
10
113.447212
20
396.212964
11
113.617656
21
396.306498
0
LINE
8
annotation
62
1
39
211
10
113.617656
20
396.306498
11
113.771088
21
396.421985
0
LINE
8
annotation
62
1
39
211
10
113.771088
20
396.421985
11
113.905748
21
396.557041
0
LINE
8
annotation
62
1
39
211
10
113.905748
20
396.557041
11
114.019874
21
396.709284
0
LINE
8
annotation
62
1
39
211
10
114.019874
20
396.709284
11
114.111704
21
396.876330
0
LINE
8
annotation
62
1
39
211
10
114.111704
20
396.876330
11
114.179478
21
397.055796
0
LINE
8
annotation
62
1
39
211
10
114.179478
20
397.055796
11
114.221434
21
397.245299
0
LINE
8
annotation
62
1
39
211
10
114.221434
20
397.245299
11
114.235811
21
397.442455
0
LINE
8
annotation
62
1
39
211
10
114.235811
20
397.442455
11
114.235811
21
398.417664
0
LINE
8
annotation
62
1
39
211
10
114.235811
20
398.417664
11
114.235811
21
398.417664
0
LINE
8
annotation
62
1
39
211
10
114.235811
20
398.417664
11
114.225357
21
398.534482
0
LINE
8
annotation
62
1
39
211
10
114.225357
20
398.534482
11
114.195215
21
398.644458
0
LINE
8
annotation
62
1
39
211
10
114.195215
20
398.644458
11
114.147212
21
398.745749
0
LINE
8
annotation
62
1
39
211
10
114.147212
20
398.745749
11
114.083175
21
398.836514
0
LINE
8
annotation
62
1
39
211
10
114.083175
20
398.836514
11
114.004933
21
398.914908
0
LINE
8
annotation
62
1
39
211
10
114.004933
20
398.914908
11
113.914314
21
398.979089
0
LINE
8
annotation
62
1
39
211
10
113.914314
20
398.979089
11
113.813144
21
399.027214
0
LINE
8
annotation
62
1
39
211
10
113.813144
20
399.027214
11
113.703252
21
399.057441
0
LINE
8
annotation
62
1
39
211
10
113.703252
20
399.057441
11
113.586466
21
399.067926
0
LINE
8
annotation
62
1
39
211
10
113.586466
20
399.067926
11
113.586466
21
399.067926
0
LINE
8
annotation
62
1
39
211
10
113.586466
20
399.067926
11
113.469921
21
399.057441
0
LINE
8
annotation
62
1
39
211
10
113.469921
20
399.057441
11
113.360158
21
399.027214
0
LINE
8
annotation
62
1
39
211
10
113.360158
20
399.027214
11
113.259026
21
398.979089
0
LINE
8
annotation
62
1
39
211
10
113.259026
20
398.979089
11
113.168376
21
398.914908
0
LINE
8
annotation
62
1
39
211
10
113.168376
20
398.914908
11
113.090059
21
398.836514
0
LINE
8
annotation
62
1
39
211
10
113.090059
20
398.836514
11
113.025924
21
398.745749
0
LINE
8
annotation
62
1
39
211
10
113.025924
20
398.745749
11
112.977823
21
398.644458
0
LINE
8
annotation
62
1
39
211
10
112.977823
20
398.644458
11
112.947605
21
398.534482
0
LINE
8
annotation
62
1
39
211
10
112.947605
20
398.534482
11
112.937121
21
398.417664
0
LINE
8
annotation
62
1
39
211
10
112.937121
20
398.417664
11
112.937121
21
398.092533
0
LINE
8
annotation
62
1
39
211
10
112.937121
20
398.092533
11
112.937121
21
398.092533
0
LINE
8
annotation
62
1
39
211
10
112.937121
20
398.092533
11
112.947605
21
397.975722
0
LINE
8
annotation
62
1
39
211
10
112.947605
20
397.975722
11
112.977823
21
397.865763
0
LINE
8
annotation
62
1
39
211
10
112.977823
20
397.865763
11
113.025924
21
397.764495
0
LINE
8
annotation
62
1
39
211
10
113.025924
20
397.764495
11
113.090059
21
397.673760
0
LINE
8
annotation
62
1
39
211
10
113.090059
20
397.673760
11
113.168376
21
397.595396
0
LINE
8
annotation
62
1
39
211
10
113.168376
20
397.595396
11
113.259026
21
397.531244
0
LINE
8
annotation
62
1
39
211
10
113.259026
20
397.531244
11
113.360158
21
397.483143
0
LINE
8
annotation
62
1
39
211
10
113.360158
20
397.483143
11
113.469921
21
397.452934
0
LINE
8
annotation
62
1
39
211
10
113.469921
20
397.452934
11
113.586466
21
397.442455
0
LINE
8
annotation
62
1
39
211
10
113.586466
20
397.442455
11
114.235811
21
397.442455
0
LINE
8
annotation
62
1
39
211
10
112.855976
20
395.778245
11
114.318056
21
395.778245
0
LINE
8
boundary
62
5
39
2
10
128.655661
20
165.843087
11
127.237031
21
164.599741
0
LINE
8
boundary
62
5
39
2
10
127.237031
20
164.599741
11
125.456342
21
163.039068
0
LINE
8
boundary
62
5
39
2
10
125.456342
20
163.039068
11
125.456342
21
155.014329
0
LINE
8
boundary
62
5
39
2
10
125.456342
20
155.014329
11
129.242601
21
154.789285
0
LINE
8
boundary
62
5
39
2
10
129.242601
20
154.789285
11
129.242601
21
150.542405
0
LINE
8
boundary
62
5
39
2
10
129.242601
20
150.542405
11
125.541686
21
150.542405
0
LINE
8
boundary
62
5
39
2
10
125.541686
20
150.542405
11
125.456341
21
147.273339
0
LINE
8
boundary
62
5
39
2
10
125.456341
20
147.273339
11
127.564140
21
148.680476
0
LINE
8
boundary
62
5
39
2
10
127.564140
20
148.680476
11
128.045662
21
149.001934
0
LINE
8
boundary
62
5
39
2
10
128.045662
20
149.001934
11
128.574045
21
149.412008
0
LINE
8
boundary
62
5
39
2
10
128.574045
20
149.412008
11
134.345317
21
154.092343
0
LINE
8
boundary
62
5
39
2
10
134.345317
20
154.092343
11
139.994148
21
159.371086
0
LINE
8
boundary
62
5
39
2
10
139.994148
20
159.371086
11
140.626919
21
160.044950
0
LINE
8
boundary
62
5
39
2
10
140.626919
20
160.044950
11
145.682682
21
165.706717
0
LINE
8
boundary
62
5
39
2
10
145.682682
20
165.706717
11
148.178328
21
168.927685
0
LINE
8
boundary
62
5
39
2
10
148.178328
20
168.927685
11
150.658592
21
172.259090
0
LINE
8
boundary
62
5
39
2
10
150.658592
20
172.259090
11
153.907770
21
177.309332
0
LINE
8
boundary
62
5
39
2
10
153.907770
20
177.309332
11
155.135633
21
179.299519
0
LINE
8
boundary
62
5
39
2
10
155.135633
20
179.299519
11
157.869104
21
184.472696
0
LINE
8
boundary
62
5
39
2
10
157.869104
20
184.472696
11
159.089384
21
186.887763
0
LINE
8
boundary
62
5
39
2
10
159.089384
20
186.887763
11
160.632624
21
190.508526
0
LINE
8
boundary
62
5
39
2
10
160.632624
20
190.508526
11
162.498302
21
195.102474
0
LINE
8
boundary
62
5
39
2
10
162.498302
20
195.102474
11
162.768155
21
195.928747
0
LINE
8
boundary
62
5
39
2
10
162.768155
20
195.928747
11
164.030182
21
199.907438
0
LINE
8
boundary
62
5
39
2
10
164.030182
20
199.907438
11
164.972363
21
203.061582
0
LINE
8
boundary
62
5
39
2
10
164.972363
20
203.061582
11
165.131849
21
203.595495
0
LINE
8
boundary
62
5
39
2
10
165.131849
20
203.595495
11
165.343794
21
204.355090
0
LINE
8
boundary
62
5
39
2
10
165.343794
20
204.355090
11
165.892412
21
206.848256
0
LINE
8
boundary
62
5
39
2
10
165.892412
20
206.848256
11
166.053475
21
207.629853
0
LINE
8
boundary
62
5
39
2
10
166.053475
20
207.629853
11
166.479873
21
209.715065
0
LINE
8
boundary
62
5
39
2
10
166.479873
20
209.715065
11
166.749960
21
211.170586
0
LINE
8
boundary
62
5
39
2
10
166.749960
20
211.170586
11
166.954999
21
212.265993
0
LINE
8
boundary
62
5
39
2
10
166.954999
20
212.265993
11
167.282898
21
214.179695
0
LINE
8
boundary
62
5
39
2
10
167.282898
20
214.179695
11
167.492104
21
215.402302
0
LINE
8
boundary
62
5
39
2
10
167.492104
20
215.402302
11
167.610360
21
216.268346
0
LINE
8
boundary
62
5
39
2
10
167.610360
20
216.268346
11
168.172749
21
219.087344
0
LINE
8
boundary
62
5
39
2
10
168.172749
20
219.087344
11
168.911277
21
222.911445
0
LINE
8
boundary
62
5
39
2
10
168.911277
20
222.911445
11
169.372940
21
226.378844
0
LINE
8
boundary
62
5
39
2
10
169.372940
20
226.378844
11
169.420891
21
228.218069
0
LINE
8
boundary
62
5
39
2
10
169.420891
20
228.218069
11
169.459031
21
229.680849
0
LINE
8
boundary
62
5
39
2
10
169.459031
20
229.680849
11
169.339029
21
231.215569
0
LINE
8
boundary
62
5
39
2
10
169.339029
20
231.215569
11
169.199079
21
233.005401
0
LINE
8
boundary
62
5
39
2
10
169.199079
20
233.005401
11
169.085017
21
233.631513
0
LINE
8
boundary
62
5
39
2
10
169.085017
20
233.631513
11
168.911277
21
234.585233
0
LINE
8
boundary
62
5
39
2
10
168.911277
20
234.585233
11
168.753822
21
235.672623
0
LINE
8
boundary
62
5
39
2
10
168.753822
20
235.672623
11
168.640340
21
236.456339
0
LINE
8
boundary
62
5
39
2
10
168.640340
20
236.456339
11
168.399541
21
237.520903
0
LINE
8
boundary
62
5
39
2
10
168.399541
20
237.520903
11
168.172749
21
238.523554
0
LINE
8
boundary
62
5
39
2
10
168.172749
20
238.523554
11
168.027934
21
239.376270
0
LINE
8
boundary
62
5
39
2
10
168.027934
20
239.376270
11
167.889186
21
240.193251
0
LINE
8
boundary
62
5
39
2
10
167.889186
20
240.193251
11
167.743905
21
240.828926
0
LINE
8
boundary
62
5
39
2
10
167.743905
20
240.828926
11
167.610360
21
241.413240
0
LINE
8
boundary
62
5
39
2
10
167.610360
20
241.413240
11
167.387985
21
242.865044
0
LINE
8
boundary
62
5
39
2
10
167.387985
20
242.865044
11
167.186373
21
244.186963
0
LINE
8
boundary
62
5
39
2
10
167.186373
20
244.186963
11
167.086822
21
244.768579
0
LINE
8
boundary
62
5
39
2
10
167.086822
20
244.768579
11
166.958550
21
245.445103
0
LINE
8
boundary
62
5
39
2
10
166.958550
20
245.445103
11
166.705319
21
246.780666
0
LINE
8
boundary
62
5
39
2
10
166.705319
20
246.780666
11
166.477108
21
247.999991
0
LINE
8
boundary
62
5
39
2
10
166.477108
20
247.999991
11
166.352819
21
248.657235
0
LINE
8
boundary
62
5
39
2
10
166.352819
20
248.657235
11
165.948595
21
250.618993
0
LINE
8
boundary
62
5
39
2
10
165.948595
20
250.618993
11
165.786108
21
251.348133
0
LINE
8
boundary
62
5
39
2
10
165.786108
20
251.348133
11
165.343794
21
253.358394
0
LINE
8
boundary
62
5
39
2
10
165.343794
20
253.358394
11
165.192916
21
253.899129
0
LINE
8
boundary
62
5
39
2
10
165.192916
20
253.899129
11
164.447695
21
256.408338
0
LINE
8
boundary
62
5
39
2
10
164.447695
20
256.408338
11
164.030182
21
257.806053
0
LINE
8
boundary
62
5
39
2
10
164.030182
20
257.806053
11
163.592120
21
259.187093
0
LINE
8
boundary
62
5
39
2
10
163.592120
20
259.187093
11
162.649459
21
262.158940
0
LINE
8
boundary
62
5
39
2
10
162.649459
20
262.158940
11
161.408277
21
265.295025
0
LINE
8
boundary
62
5
39
2
10
161.408277
20
265.295025
11
160.632623
21
267.204960
0
LINE
8
boundary
62
5
39
2
10
160.632623
20
267.204960
11
160.038395
21
268.599144
0
LINE
8
boundary
62
5
39
2
10
160.038395
20
268.599144
11
159.089384
21
270.825722
0
LINE
8
boundary
62
5
39
2
10
159.089384
20
270.825722
11
158.452488
21
272.086209
0
LINE
8
boundary
62
5
39
2
10
158.452488
20
272.086209
11
157.869104
21
273.240785
0
LINE
8
boundary
62
5
39
2
10
157.869104
20
273.240785
11
156.635039
21
275.576290
0
LINE
8
boundary
62
5
39
2
10
156.635039
20
275.576290
11
155.135632
21
278.413967
0
LINE
8
boundary
62
5
39
2
10
155.135632
20
278.413967
11
154.565666
21
279.337802
0
LINE
8
boundary
62
5
39
2
10
154.565666
20
279.337802
11
153.907770
21
280.404154
0
LINE
8
boundary
62
5
39
2
10
153.907770
20
280.404154
11
152.241658
21
282.993804
0
LINE
8
boundary
62
5
39
2
10
152.241658
20
282.993804
11
150.658592
21
285.454386
0
LINE
8
boundary
62
5
39
2
10
150.658592
20
285.454386
11
149.636913
21
286.826677
0
LINE
8
boundary
62
5
39
2
10
149.636913
20
286.826677
11
148.178328
21
288.785801
0
LINE
8
boundary
62
5
39
2
10
148.178328
20
288.785801
11
146.760447
21
290.615775
0
LINE
8
boundary
62
5
39
2
10
146.760447
20
290.615775
11
145.682682
21
292.006769
0
LINE
8
boundary
62
5
39
2
10
145.682682
20
292.006769
11
143.604586
21
294.333941
0
LINE
8
boundary
62
5
39
2
10
143.604586
20
294.333941
11
140.235025
21
298.107394
0
LINE
8
boundary
62
5
39
2
10
140.235025
20
298.107394
11
136.455692
21
301.649020
0
LINE
8
boundary
62
5
39
2
10
136.455692
20
301.649020
11
134.345317
21
303.621134
0
LINE
8
boundary
62
5
39
2
10
134.345317
20
303.621134
11
132.473868
21
305.138828
0
LINE
8
boundary
62
5
39
2
10
132.473868
20
305.138828
11
128.574045
21
308.301490
0
LINE
8
boundary
62
5
39
2
10
128.574045
20
308.301490
11
128.045662
21
308.711566
0
LINE
8
boundary
62
5
39
2
10
128.045662
20
308.711566
11
125.456341
21
310.440149
0
LINE
8
boundary
62
5
39
2
10
125.456341
20
310.440149
11
125.456341
21
307.414320
0
LINE
8
boundary
62
5
39
2
10
125.456341
20
307.414320
11
129.231379
21
307.189275
0
LINE
8
boundary
62
5
39
2
10
129.231379
20
307.189275
11
129.231379
21
302.942395
0
LINE
8
boundary
62
5
39
2
10
129.231379
20
302.942395
11
125.541685
21
302.942396
0
LINE
8
boundary
62
5
39
2
10
125.541685
20
302.942396
11
125.456341
21
294.674427
0
LINE
8
boundary
62
5
39
2
10
125.456341
20
294.674427
11
128.655661
21
291.870404
0
LINE
8
boundary
62
5
39
2
10
128.655661
20
291.870404
11
133.264719
21
287.169313
0
LINE
8
boundary
62
5
39
2
10
133.264719
20
287.169313
11
133.894927
21
286.526520
0
LINE
8
boundary
62
5
39
2
10
133.894927
20
286.526520
11
134.388944
21
285.938531
0
LINE
8
boundary
62
5
39
2
10
134.388944
20
285.938531
11
138.673340
21
280.644853
0
LINE
8
boundary
62
5
39
2
10
138.673340
20
280.644853
11
141.293625
21
276.856932
0
LINE
8
boundary
62
5
39
2
10
141.293625
20
276.856932
11
142.961455
21
274.349590
0
LINE
8
boundary
62
5
39
2
10
142.961455
20
274.349590
11
145.850960
21
269.223887
0
LINE
8
boundary
62
5
39
2
10
145.850960
20
269.223887
11
146.732842
21
267.592683
0
LINE
8
boundary
62
5
39
2
10
146.732842
20
267.592683
11
148.827727
21
262.947913
0
LINE
8
boundary
62
5
39
2
10
148.827727
20
262.947913
11
149.964226
21
260.311205
0
LINE
8
boundary
62
5
39
2
10
149.964226
20
260.311205
11
150.825264
21
257.852983
0
LINE
8
boundary
62
5
39
2
10
150.825264
20
257.852983
11
151.238097
21
256.614321
0
LINE
8
boundary
62
5
39
2
10
151.238097
20
256.614321
11
158.358432
21
256.389278
0
LINE
8
boundary
62
5
39
2
10
158.358432
20
256.389278
11
158.358432
21
252.142399
0
LINE
8
boundary
62
5
39
2
10
158.358432
20
252.142399
11
152.826263
21
252.142399
0
LINE
8
boundary
62
5
39
2
10
152.826263
20
252.142399
11
153.163052
21
250.196877
0
LINE
8
boundary
62
5
39
2
10
153.163052
20
250.196877
11
153.373651
21
249.282175
0
LINE
8
boundary
62
5
39
2
10
153.373651
20
249.282175
11
153.842980
21
247.243713
0
LINE
8
boundary
62
5
39
2
10
153.842980
20
247.243713
11
154.233916
21
245.416669
0
LINE
8
boundary
62
5
39
2
10
154.233916
20
245.416669
11
154.382995
21
244.719950
0
LINE
8
boundary
62
5
39
2
10
154.382995
20
244.719950
11
154.730789
21
242.951513
0
LINE
8
boundary
62
5
39
2
10
154.730789
20
242.951513
11
154.802975
21
242.437869
0
LINE
8
boundary
62
5
39
2
10
154.802975
20
242.437869
11
155.051589
21
240.515182
0
LINE
8
boundary
62
5
39
2
10
155.051589
20
240.515182
11
155.258995
21
238.722040
0
LINE
8
boundary
62
5
39
2
10
155.258995
20
238.722040
11
155.425469
21
237.080924
0
LINE
8
boundary
62
5
39
2
10
155.425469
20
237.080924
11
155.479230
21
236.460831
0
LINE
8
boundary
62
5
39
2
10
155.479230
20
236.460831
11
155.557639
21
235.556444
0
LINE
8
boundary
62
5
39
2
10
155.557639
20
235.556444
11
155.607978
21
234.852641
0
LINE
8
boundary
62
5
39
2
10
155.607978
20
234.852641
11
155.660331
21
234.120689
0
LINE
8
boundary
62
5
39
2
10
155.660331
20
234.120689
11
155.702898
21
233.360535
0
LINE
8
boundary
62
5
39
2
10
155.702898
20
233.360535
11
155.737035
21
232.750929
0
LINE
8
boundary
62
5
39
2
10
155.737035
20
232.750929
11
155.769032
21
231.954906
0
LINE
8
boundary
62
5
39
2
10
155.769032
20
231.954906
11
155.790213
21
231.427968
0
LINE
8
boundary
62
5
39
2
10
155.790213
20
231.427968
11
155.809953
21
230.612072
0
LINE
8
boundary
62
5
39
2
10
155.809953
20
230.612072
11
155.828140
21
229.312328
0
LINE
8
boundary
62
5
39
2
10
155.828140
20
229.312328
11
155.825213
21
228.038682
0
LINE
8
boundary
62
5
39
2
10
155.825213
20
228.038682
11
155.802073
21
226.775743
0
LINE
8
boundary
62
5
39
2
10
155.802073
20
226.775743
11
155.758999
21
225.508976
0
LINE
8
boundary
62
5
39
2
10
155.758999
20
225.508976
11
155.737035
21
224.962568
0
LINE
8
boundary
62
5
39
2
10
155.737035
20
224.962568
11
155.695676
21
224.223975
0
LINE
8
boundary
62
5
39
2
10
155.695676
20
224.223975
11
155.660331
21
223.592794
0
LINE
8
boundary
62
5
39
2
10
155.660331
20
223.592794
11
155.611195
21
222.905818
0
LINE
8
boundary
62
5
39
2
10
155.611195
20
222.905818
11
155.557639
21
222.157039
0
LINE
8
boundary
62
5
39
2
10
155.557639
20
222.157039
11
155.503995
21
221.538307
0
LINE
8
boundary
62
5
39
2
10
155.503995
20
221.538307
11
155.425469
21
220.632561
0
LINE
8
boundary
62
5
39
2
10
155.425469
20
220.632561
11
155.371768
21
220.103168
0
LINE
8
boundary
62
5
39
2
10
155.371768
20
220.103168
11
155.258995
21
218.991446
0
LINE
8
boundary
62
5
39
2
10
155.258995
20
218.991446
11
155.051589
21
217.198306
0
LINE
8
boundary
62
5
39
2
10
155.051589
20
217.198306
11
154.794077
21
215.206802
0
LINE
8
boundary
62
5
39
2
10
154.794077
20
215.206802
11
154.458580
21
213.377866
0
LINE
8
boundary
62
5
39
2
10
154.458580
20
213.377866
11
154.060133
21
211.484643
0
LINE
8
boundary
62
5
39
2
10
154.060133
20
211.484643
11
153.842980
21
210.469777
0
LINE
8
boundary
62
5
39
2
10
153.842980
20
210.469777
11
153.592911
21
209.383638
0
LINE
8
boundary
62
5
39
2
10
153.592911
20
209.383638
11
153.163052
21
207.516610
0
LINE
8
boundary
62
5
39
2
10
153.163052
20
207.516610
11
153.040820
21
207.018433
0
LINE
8
boundary
62
5
39
2
10
153.040820
20
207.018433
11
152.745382
21
205.814326
0
LINE
8
boundary
62
5
39
2
10
152.745382
20
205.814326
11
158.364003
21
205.589282
0
LINE
8
boundary
62
5
39
2
10
158.364003
20
205.589282
11
158.364003
21
201.342401
0
LINE
8
boundary
62
5
39
2
10
158.364003
20
201.342401
11
151.329505
21
201.342401
0
LINE
8
boundary
62
5
39
2
10
151.329505
20
201.342401
11
150.825264
21
199.860503
0
LINE
8
boundary
62
5
39
2
10
150.825264
20
199.860503
11
150.530541
21
199.019086
0
LINE
8
boundary
62
5
39
2
10
150.530541
20
199.019086
11
149.964226
21
197.402286
0
LINE
8
boundary
62
5
39
2
10
149.964226
20
197.402286
11
149.344762
21
195.965113
0
LINE
8
boundary
62
5
39
2
10
149.344762
20
195.965113
11
148.827726
21
194.765579
0
LINE
8
boundary
62
5
39
2
10
148.827726
20
194.765579
11
147.946990
21
192.812820
0
LINE
8
boundary
62
5
39
2
10
147.946990
20
192.812820
11
146.732842
21
190.120805
0
LINE
8
boundary
62
5
39
2
10
146.732842
20
190.120805
11
146.311101
21
189.340716
0
LINE
8
boundary
62
5
39
2
10
146.311101
20
189.340716
11
145.850960
21
188.489600
0
LINE
8
boundary
62
5
39
2
10
145.850960
20
188.489600
11
144.427919
21
185.965259
0
LINE
8
boundary
62
5
39
2
10
144.427919
20
185.965259
11
142.961455
21
183.363892
0
LINE
8
boundary
62
5
39
2
10
142.961455
20
183.363892
11
142.264648
21
182.316343
0
LINE
8
boundary
62
5
39
2
10
142.264648
20
182.316343
11
141.293625
21
180.856548
0
LINE
8
boundary
62
5
39
2
10
141.293625
20
180.856548
11
139.833122
21
178.745221
0
LINE
8
boundary
62
5
39
2
10
139.833122
20
178.745221
11
138.673340
21
177.068623
0
LINE
8
boundary
62
5
39
2
10
138.673340
20
177.068623
11
137.110907
21
175.138134
0
LINE
8
boundary
62
5
39
2
10
137.110907
20
175.138134
11
134.388944
21
171.774967
0
LINE
8
boundary
62
5
39
2
10
134.388944
20
171.774967
11
133.894926
21
171.186980
0
LINE
8
boundary
62
5
39
2
10
133.894926
20
171.186980
11
130.813249
21
168.043760
0
LINE
8
boundary
62
5
39
2
10
130.813249
20
168.043760
11
128.655661
21
165.843087
0
LINE
8
annotation
62
1
39
211
10
131.300336
20
151.956570
11
131.300336
21
153.375120
0
LINE
8
annotation
62
1
39
211
10
131.300336
20
153.375120
11
130.984974
21
153.059669
0
LINE
8
annotation
62
1
39
211
10
163.889579
20
201.631977
11
162.260680
21
201.631977
0
LINE
8
annotation
62
1
39
211
10
162.260680
20
201.631977
11
163.765836
21
204.055086
0
LINE
8
annotation
62
1
39
211
10
163.765836
20
204.055086
11
163.765836
21
204.055086
0
LINE
8
annotation
62
1
39
211
10
163.765836
20
204.055086
11
163.767636
21
204.057313
0
LINE
8
annotation
62
1
39
211
10
163.767636
20
204.057313
11
163.769361
21
204.059558
0
LINE
8
annotation
62
1
39
211
10
163.769361
20
204.059558
11
163.771024
21
204.061842
0
LINE
8
annotation
62
1
39
211
10
163.771024
20
204.061842
11
163.772636
21
204.064182
0
LINE
8
annotation
62
1
39
211
10
163.772636
20
204.064182
11
163.774208
21
204.066597
0
LINE
8
annotation
62
1
39
211
10
163.774208
20
204.066597
11
163.775752
21
204.069108
0
LINE
8
annotation
62
1
39
211
10
163.775752
20
204.069108
11
163.777279
21
204.071732
0
LINE
8
annotation
62
1
39
211
10
163.777279
20
204.071732
11
163.778800
21
204.074489
0
LINE
8
annotation
62
1
39
211
10
163.778800
20
204.074489
11
163.780327
21
204.077397
0
LINE
8
annotation
62
1
39
211
10
163.780327
20
204.077397
11
163.780327
21
204.077397
0
LINE
8
annotation
62
1
39
211
10
163.780327
20
204.077397
11
163.842474
21
204.210833
0
LINE
8
annotation
62
1
39
211
10
163.842474
20
204.210833
11
163.878780
21
204.349151
0
LINE
8
annotation
62
1
39
211
10
163.878780
20
204.349151
11
163.890133
21
204.489226
0
LINE
8
annotation
62
1
39
211
10
163.890133
20
204.489226
11
163.877424
21
204.627932
0
LINE
8
annotation
62
1
39
211
10
163.877424
20
204.627932
11
163.841542
21
204.762145
0
LINE
8
annotation
62
1
39
211
10
163.841542
20
204.762145
11
163.783377
21
204.888737
0
LINE
8
annotation
62
1
39
211
10
163.783377
20
204.888737
11
163.703818
21
205.004585
0
LINE
8
annotation
62
1
39
211
10
163.703818
20
205.004585
11
163.603756
21
205.106562
0
LINE
8
annotation
62
1
39
211
10
163.603756
20
205.106562
11
163.484080
21
205.191544
0
LINE
8
annotation
62
1
39
211
10
163.484080
20
205.191544
11
163.484080
21
205.191544
0
LINE
8
annotation
62
1
39
211
10
163.484080
20
205.191544
11
163.350272
21
205.252808
0
LINE
8
annotation
62
1
39
211
10
163.350272
20
205.252808
11
163.211742
21
205.288555
0
LINE
8
annotation
62
1
39
211
10
163.211742
20
205.288555
11
163.071586
21
205.299587
0
LINE
8
annotation
62
1
39
211
10
163.071586
20
205.299587
11
162.932900
21
205.286710
0
LINE
8
annotation
62
1
39
211
10
162.932900
20
205.286710
11
162.798783
21
205.250729
0
LINE
8
annotation
62
1
39
211
10
162.798783
20
205.250729
11
162.672330
21
205.192447
0
LINE
8
annotation
62
1
39
211
10
162.672330
20
205.192447
11
162.556640
21
205.112670
0
LINE
8
annotation
62
1
39
211
10
162.556640
20
205.112670
11
162.454808
21
205.012201
0
LINE
8
annotation
62
1
39
211
10
162.454808
20
205.012201
11
162.369932
21
204.891847
0
LINE
8
annotation
62
1
39
211
10
162.369932
20
204.891847
11
162.262980
21
204.686682
0
LINE
8
annotation
62
1
39
211
10
162.255394
20
252.431980
11
163.069906
21
252.431980
0
LINE
8
annotation
62
1
39
211
10
163.069906
20
252.431980
11
163.069906
21
252.431980
0
LINE
8
annotation
62
1
39
211
10
163.069906
20
252.431980
11
163.216397
21
252.445122
0
LINE
8
annotation
62
1
39
211
10
163.216397
20
252.445122
11
163.354241
21
252.482995
0
LINE
8
annotation
62
1
39
211
10
163.354241
20
252.482995
11
163.481144
21
252.543277
0
LINE
8
annotation
62
1
39
211
10
163.481144
20
252.543277
11
163.594814
21
252.623642
0
LINE
8
annotation
62
1
39
211
10
163.594814
20
252.623642
11
163.692957
21
252.721765
0
LINE
8
annotation
62
1
39
211
10
163.692957
20
252.721765
11
163.773282
21
252.835321
0
LINE
8
annotation
62
1
39
211
10
163.773282
20
252.835321
11
163.833495
21
252.961986
0
LINE
8
annotation
62
1
39
211
10
163.833495
20
252.961986
11
163.871304
21
253.099434
0
LINE
8
annotation
62
1
39
211
10
163.871304
20
253.099434
11
163.884417
21
253.245342
0
LINE
8
annotation
62
1
39
211
10
163.884417
20
253.245342
11
163.884417
21
253.653172
0
LINE
8
annotation
62
1
39
211
10
163.884417
20
253.653172
11
163.884417
21
253.653172
0
LINE
8
annotation
62
1
39
211
10
163.884417
20
253.653172
11
163.871304
21
253.799019
0
LINE
8
annotation
62
1
39
211
10
163.871304
20
253.799019
11
163.833495
21
253.936435
0
LINE
8
annotation
62
1
39
211
10
163.833495
20
253.936435
11
163.773282
21
254.063090
0
LINE
8
annotation
62
1
39
211
10
163.773282
20
254.063090
11
163.692957
21
254.176654
0
LINE
8
annotation
62
1
39
211
10
163.692957
20
254.176654
11
163.594814
21
254.274796
0
LINE
8
annotation
62
1
39
211
10
163.594814
20
254.274796
11
163.481144
21
254.355185
0
LINE
8
annotation
62
1
39
211
10
163.481144
20
254.355185
11
163.354241
21
254.415492
0
LINE
8
annotation
62
1
39
211
10
163.354241
20
254.415492
11
163.216397
21
254.453385
0
LINE
8
annotation
62
1
39
211
10
163.216397
20
254.453385
11
163.069906
21
254.466534
0
LINE
8
annotation
62
1
39
211
10
163.069906
20
254.466534
11
162.662075
21
254.466534
0
LINE
8
annotation
62
1
39
211
10
162.662075
20
254.466534
11
163.069906
21
254.466534
0
LINE
8
annotation
62
1
39
211
10
163.069906
20
254.466534
11
163.069906
21
254.466534
0
LINE
8
annotation
62
1
39
211
10
163.069906
20
254.466534
11
163.216397
21
254.479686
0
LINE
8
annotation
62
1
39
211
10
163.216397
20
254.479686
11
163.354241
21
254.517601
0
LINE
8
annotation
62
1
39
211
10
163.354241
20
254.517601
11
163.481144
21
254.577967
0
LINE
8
annotation
62
1
39
211
10
163.481144
20
254.577967
11
163.594814
21
254.658473
0
LINE
8
annotation
62
1
39
211
10
163.594814
20
254.658473
11
163.692957
21
254.756807
0
LINE
8
annotation
62
1
39
211
10
163.692957
20
254.756807
11
163.773282
21
254.870658
0
LINE
8
annotation
62
1
39
211
10
163.773282
20
254.870658
11
163.833495
21
254.997714
0
LINE
8
annotation
62
1
39
211
10
163.833495
20
254.997714
11
163.871304
21
255.135664
0
LINE
8
annotation
62
1
39
211
10
163.871304
20
255.135664
11
163.884417
21
255.282195
0
LINE
8
annotation
62
1
39
211
10
163.884417
20
255.282195
11
163.884417
21
255.282195
0
LINE
8
annotation
62
1
39
211
10
163.884417
20
255.282195
11
163.871304
21
255.428042
0
LINE
8
annotation
62
1
39
211
10
163.871304
20
255.428042
11
163.833495
21
255.565458
0
LINE
8
annotation
62
1
39
211
10
163.833495
20
255.565458
11
163.773282
21
255.692113
0
LINE
8
annotation
62
1
39
211
10
163.773282
20
255.692113
11
163.692957
21
255.805677
0
LINE
8
annotation
62
1
39
211
10
163.692957
20
255.805677
11
163.594814
21
255.903819
0
LINE
8
annotation
62
1
39
211
10
163.594814
20
255.903819
11
163.481144
21
255.984208
0
LINE
8
annotation
62
1
39
211
10
163.481144
20
255.984208
11
163.354241
21
256.044515
0
LINE
8
annotation
62
1
39
211
10
163.354241
20
256.044515
11
163.216397
21
256.082408
0
LINE
8
annotation
62
1
39
211
10
163.216397
20
256.082408
11
163.069906
21
256.095556
0
LINE
8
annotation
62
1
39
211
10
163.069906
20
256.095556
11
162.255394
21
256.095556
0
LINE
8
annotation
62
1
39
211
10
132.691889
20
302.659478
11
131.480152
21
302.659478
0
LINE
8
annotation
62
1
39
211
10
131.480152
20
302.659478
11
131.964080
21
304.356649
0
LINE
8
annotation
62
1
39
211
10
132.328669
20
302.174318
11
132.328669
21
303.143543
0
LINE
8
annotation
62
1
39
211
10
160.304186
20
230.962918
11
159.324596
21
229.546031
0
LINE
8
annotation
62
1
39
211
10
159.324596
20
229.546031
11
158.344822
21
230.962918
0
LINE
8
annotation
62
1
39
211
10
159.324596
20
229.660053
11
159.324596
21
228.025438
0
LINE
8
annotation
62
1
39
211
10
163.012104
20
229.494178
11
161.406041
21
229.494178
0
LINE
8
annotation
62
1
39
211
10
164.766405
20
228.025530
11
164.766405
21
230.962826
0
LINE
8
annotation
62
1
39
211
10
164.766405
20
230.962826
11
164.113406
21
230.309644
0
LINE
8
annotation
62
1
39
211
10
166.339607
20
228.064274
11
166.339607
21
228.064274
0
LINE
8
annotation
62
1
39
211
10
166.339607
20
228.064274
11
166.407873
21
228.038754
0
LINE
8
annotation
62
1
39
211
10
166.407873
20
228.038754
11
166.477886
21
228.026076
0
LINE
8
annotation
62
1
39
211
10
166.477886
20
228.026076
11
166.548063
21
228.025721
0
LINE
8
annotation
62
1
39
211
10
166.548063
20
228.025721
11
166.616820
21
228.037174
0
LINE
8
annotation
62
1
39
211
10
166.616820
20
228.037174
11
166.682576
21
228.059917
0
LINE
8
annotation
62
1
39
211
10
166.682576
20
228.059917
11
166.743747
21
228.093433
0
LINE
8
annotation
62
1
39
211
10
166.743747
20
228.093433
11
166.798751
21
228.137205
0
LINE
8
annotation
62
1
39
211
10
166.798751
20
228.137205
11
166.846005
21
228.190716
0
LINE
8
annotation
62
1
39
211
10
166.846005
20
228.190716
11
166.883926
21
228.253450
0
LINE
8
annotation
62
1
39
211
10
166.883926
20
228.253450
11
166.883926
21
228.253450
0
LINE
8
annotation
62
1
39
211
10
166.883926
20
228.253450
11
166.997067
21
228.518285
0
LINE
8
annotation
62
1
39
211
10
166.997067
20
228.518285
11
167.081923
21
228.790786
0
LINE
8
annotation
62
1
39
211
10
167.081923
20
228.790786
11
167.138494
21
229.068779
0
LINE
8
annotation
62
1
39
211
10
167.138494
20
229.068779
11
167.166779
21
229.350093
0
LINE
8
annotation
62
1
39
211
10
167.166779
20
229.350093
11
167.166779
21
229.632554
0
LINE
8
annotation
62
1
39
211
10
167.166779
20
229.632554
11
167.138494
21
229.913990
0
LINE
8
annotation
62
1
39
211
10
167.138494
20
229.913990
11
167.081923
21
230.192229
0
LINE
8
annotation
62
1
39
211
10
167.081923
20
230.192229
11
166.997067
21
230.465098
0
LINE
8
annotation
62
1
39
211
10
166.997067
20
230.465098
11
166.883926
21
230.730424
0
LINE
8
annotation
62
1
39
211
10
166.883926
20
230.730424
11
166.883926
21
230.730424
0
LINE
8
annotation
62
1
39
211
10
166.883926
20
230.730424
11
166.869537
21
230.757201
0
LINE
8
annotation
62
1
39
211
10
166.869537
20
230.757201
11
166.853225
21
230.782802
0
LINE
8
annotation
62
1
39
211
10
166.853225
20
230.782802
11
166.835112
21
230.807100
0
LINE
8
annotation
62
1
39
211
10
166.835112
20
230.807100
11
166.815320
21
230.829970
0
LINE
8
annotation
62
1
39
211
10
166.815320
20
230.829970
11
166.793973
21
230.851286
0
LINE
8
annotation
62
1
39
211
10
166.793973
20
230.851286
11
166.771194
21
230.870923
0
LINE
8
annotation
62
1
39
211
10
166.771194
20
230.870923
11
166.747104
21
230.888754
0
LINE
8
annotation
62
1
39
211
10
166.747104
20
230.888754
11
166.721827
21
230.904653
0
LINE
8
annotation
62
1
39
211
10
166.721827
20
230.904653
11
166.695486
21
230.918495
0
LINE
8
annotation
62
1
39
211
10
166.695486
20
230.918495
11
166.695486
21
230.918495
0
LINE
8
annotation
62
1
39
211
10
166.695486
20
230.918495
11
166.626678
21
230.944568
0
LINE
8
annotation
62
1
39
211
10
166.626678
20
230.944568
11
166.556255
21
230.957680
0
LINE
8
annotation
62
1
39
211
10
166.556255
20
230.957680
11
166.485782
21
230.958351
0
LINE
8
annotation
62
1
39
211
10
166.485782
20
230.958351
11
166.416823
21
230.947101
0
LINE
8
annotation
62
1
39
211
10
166.416823
20
230.947101
11
166.350944
21
230.924451
0
LINE
8
annotation
62
1
39
211
10
166.350944
20
230.924451
11
166.289708
21
230.890919
0
LINE
8
annotation
62
1
39
211
10
166.289708
20
230.890919
11
166.234681
21
230.847027
0
LINE
8
annotation
62
1
39
211
10
166.234681
20
230.847027
11
166.187426
21
230.793294
0
LINE
8
annotation
62
1
39
211
10
166.187426
20
230.793294
11
166.149510
21
230.730240
0
LINE
8
annotation
62
1
39
211
10
166.149510
20
230.730240
11
166.149510
21
230.730240
0
LINE
8
annotation
62
1
39
211
10
166.149510
20
230.730240
11
166.036914
21
230.465459
0
LINE
8
annotation
62
1
39
211
10
166.036914
20
230.465459
11
165.952467
21
230.193000
0
LINE
8
annotation
62
1
39
211
10
165.952467
20
230.193000
11
165.896169
21
229.915034
0
LINE
8
annotation
62
1
39
211
10
165.896169
20
229.915034
11
165.868021
21
229.633734
0
LINE
8
annotation
62
1
39
211
10
165.868021
20
229.633734
11
165.868021
21
229.351273
0
LINE
8
annotation
62
1
39
211
10
165.868021
20
229.351273
11
165.896169
21
229.069823
0
LINE
8
annotation
62
1
39
211
10
165.896169
20
229.069823
11
165.952467
21
228.791557
0
LINE
8
annotation
62
1
39
211
10
165.952467
20
228.791557
11
166.036914
21
228.518647
0
LINE
8
annotation
62
1
39
211
10
166.036914
20
228.518647
11
166.149510
21
228.253266
0
LINE
8
annotation
62
1
39
211
10
166.149510
20
228.253266
11
166.149510
21
228.253266
0
LINE
8
annotation
62
1
39
211
10
166.149510
20
228.253266
11
166.163846
21
228.226542
0
LINE
8
annotation
62
1
39
211
10
166.163846
20
228.226542
11
166.180037
21
228.201069
0
LINE
8
annotation
62
1
39
211
10
166.180037
20
228.201069
11
166.198016
21
228.176924
0
LINE
8
annotation
62
1
39
211
10
166.198016
20
228.176924
11
166.217715
21
228.154185
0
LINE
8
annotation
62
1
39
211
10
166.217715
20
228.154185
11
166.239064
21
228.132928
0
LINE
8
annotation
62
1
39
211
10
166.239064
20
228.132928
11
166.261996
21
228.113231
0
LINE
8
annotation
62
1
39
211
10
166.261996
20
228.113231
11
166.286443
21
228.095172
0
LINE
8
annotation
62
1
39
211
10
166.286443
20
228.095172
11
166.312336
21
228.078827
0
LINE
8
annotation
62
1
39
211
10
166.312336
20
228.078827
11
166.339607
21
228.064274
0
LINE
8
frame
62
5
39
2
10
0.000000
20
0.000000
11
215.900000
21
0.000000
0
LINE
8
frame
62
5
39
2
10
215.900000
20
0.000000
11
215.900000
21
490.000000
0
LINE
8
frame
62
5
39
2
10
215.900000
20
490.000000
11
0.000000
21
490.000000
0
LINE
8
frame
62
5
39
2
10
0.000000
20
490.000000
11
0.000000
21
0.000000
0
ENDSEC
0
EOF
