  0
SECTION
  2
HEADER
  9
$ACADVER
  1
AC1024
  9
$ACADMAINTVER
 70
     6
  9
$DWGCODEPAGE
  3
UNDEFINED
  9
$INSBASE
 10
0.0
 20
0.0
 30
0.0
  9
$EXTMIN
 10
1.000000000000000E+20
 20
1.000000000000000E+20
 30
1.000000000000000E+20
  9
$EXTMAX
 10
-1.000000000000000E+20
 20
-1.000000000000000E+20
 30
-1.000000000000000E+20
  9
$LIMMIN
 10
0.0
 20
0.0
  9
$LIMMAX
 10
12.0
 20
9.0
  9
$ORTHOMODE
 70
     0
  9
$REGENMODE
 70
     1
  9
$FILLMODE
 70
     1
  9
$QTEXTMODE
 70
     0
  9
$MIRRTEXT
 70
     1
  9
$LTSCALE
 40
1.0
  9
$ATTMODE
 70
     1
  9
$TEXTSIZE
 40
0.2
  9
$TRACEWID
 40
0.05
  9
$TEXTSTYLE
  7
Standard
  9
$CLAYER
  8
0
  9
$CELTYPE
  6
ByLayer
  9
$CECOLOR
 62
   256
  9
$CELTSCALE
 40
1.0
  9
$DISPSILH
 70
     0
  9
$DIMSCALE
 40
1.0
  9
$DIMASZ
 40
0.18
  9
$DIMEXO
 40
0.0625
  9
$DIMDLI
 40
0.38
  9
$DIMRND
 40
0.0
  9
$DIMDLE
 40
0.0
  9
$DIMEXE
 40
0.18
  9
$DIMTP
 40
0.0
  9
$DIMTM
 40
0.0
  9
$DIMTXT
 40
0.18
  9
$DIMCEN
 40
0.09
  9
$DIMTSZ
 40
0.0
  9
$DIMTOL
 70
     0
  9
$DIMLIM
 70
     0
  9
$DIMTIH
 70
     1
  9
$DIMTOH
 70
     1
  9
$DIMSE1
 70
     0
  9
$DIMSE2
 70
     0
  9
$DIMTAD
 70
     0
  9
$DIMZIN
 70
     0
  9
$DIMBLK
  1

  9
$DIMASO
 70
     1
  9
$DIMSHO
 70
     1
  9
$DIMPOST
  1

  9
$DIMAPOST
  1

  9
$DIMALT
 70
     0
  9
$DIMALTD
 70
     2
  9
$DIMALTF
 40
25.4
  9
$DIMLFAC
 40
1.0
  9
$DIMTOFL
 70
     0
  9
$DIMTVP
 40
0.0
  9
$DIMTIX
 70
     0
  9
$DIMSOXD
 70
     0
  9
$DIMSAH
 70
     0
  9
$DIMBLK1
  1

  9
$DIMBLK2
  1

  9
$DIMSTYLE
  2
Standard
  9
$DIMCLRD
 70
     0
  9
$DIMCLRE
 70
     0
  9
$DIMCLRT
 70
     0
  9
$DIMTFAC
 40
1.0
  9
$DIMGAP
 40
0.09
  9
$DIMJUST
 70
     0
  9
$DIMSD1
 70
     0
  9
$DIMSD2
 70
     0
  9
$DIMTOLJ
 70
     1
  9
$DIMTZIN
 70
     0
  9
$DIMALTZ
 70
     0
  9
$DIMALTTZ
 70
     0
  9
$DIMUPT
 70
     0
  9
$DIMDEC
 70
     4
  9
$DIMTDEC
 70
     4
  9
$DIMALTU
 70
     2
  9
$DIMALTTD
 70
     2
  9
$DIMTXSTY
  7
Standard
  9
$DIMAUNIT
 70
     0
  9
$DIMADEC
 70
     0
  9
$DIMALTRND
 40
0.0
  9
$DIMAZIN
 70
     0
  9
$DIMDSEP
 70
    46
  9
$DIMATFIT
 70
     3
  9
$DIMFRAC
 70
     0
  9
$DIMLDRBLK
  1

  9
$DIMLUNIT
 70
     2
  9
$DIMLWD
 70
    -2
  9
$DIMLWE
 70
    -2
  9
$DIMTMOVE
 70
     0
  9
$DIMFXL
 40
1.0
  9
$DIMFXLON
 70
     0
  9
$DIMJOGANG
 40
0.7853981633974483
  9
$DIMTFILL
 70
     0
  9
$DIMTFILLCLR
 70
     0
  9
$DIMARCSYM
 70
     0
  9
$DIMLTYPE
  6

  9
$DIMLTEX1
  6

  9
$DIMLTEX2
  6

  9
$DIMTXTDIRECTION
 70
     0
  9
$LUNITS
 70
     2
  9
$LUPREC
 70
     4
  9
$SKETCHINC
 40
0.1
  9
$FILLETRAD
 40
0.5
  9
$AUNITS
 70
     0
  9
$AUPREC
 70
     0
  9
$MENU
  1
.
  9
$ELEVATION
 40
0.0
  9
$PELEVATION
 40
0.0
  9
$THICKNESS
 40
0.0
  9
$LIMCHECK
 70
     0
  9
$CHAMFERA
 40
0.5
  9
$CHAMFERB
 40
0.5
  9
$CHAMFERC
 40
1.0
  9
$CHAMFERD
 40
0.0
  9
$SKPOLY
 70
     0
  9
$TDCREATE
 40
2457545.465925914
  9
$TDUCREATE
 40
2457545.382592592
  9
$TDUPDATE
 40
2457545.465925914
  9
$TDUUPDATE
 40
2457545.382592592
  9
$TDINDWG
 40
0.0000000116
  9
$TDUSRTIMER
 40
0.0000000116
  9
$USRTIMER
 70
     1
  9
$ANGBASE
 50
0.0
  9
$ANGDIR
 70
     0
  9
$PDMODE
 70
     0
  9
$PDSIZE
 40
0.0
  9
$PLINEWID
 40
0.0
  9
$SPLFRAME
 70
     0
  9
$SPLINETYPE
 70
     6
  9
$SPLINESEGS
 70
     8
  9
$HANDSEED
  5
BE
  9
$SURFTAB1
 70
     6
  9
$SURFTAB2
 70
     6
  9
$SURFTYPE
 70
     6
  9
$SURFU
 70
     6
  9
$SURFV
 70
     6
  9
$UCSBASE
  2

  9
$UCSNAME
  2

  9
$UCSORG
 10
0.0
 20
0.0
 30
0.0
  9
$UCSXDIR
 10
1.0
 20
0.0
 30
0.0
  9
$UCSYDIR
 10
0.0
 20
1.0
 30
0.0
  9
$UCSORTHOREF
  2

  9
$UCSORTHOVIEW
 70
     0
  9
$UCSORGTOP
 10
0.0
 20
0.0
 30
0.0
  9
$UCSORGBOTTOM
 10
0.0
 20
0.0
 30
0.0
  9
$UCSORGLEFT
 10
0.0
 20
0.0
 30
0.0
  9
$UCSORGRIGHT
 10
0.0
 20
0.0
 30
0.0
  9
$UCSORGFRONT
 10
0.0
 20
0.0
 30
0.0
  9
$UCSORGBACK
 10
0.0
 20
0.0
 30
0.0
  9
$PUCSBASE
  2

  9
$PUCSNAME
  2

  9
$PUCSORG
 10
0.0
 20
0.0
 30
0.0
  9
$PUCSXDIR
 10
1.0
 20
0.0
 30
0.0
  9
$PUCSYDIR
 10
0.0
 20
1.0
 30
0.0
  9
$PUCSORTHOREF
  2

  9
$PUCSORTHOVIEW
 70
     0
  9
$PUCSORGTOP
 10
0.0
 20
0.0
 30
0.0
  9
$PUCSORGBOTTOM
 10
0.0
 20
0.0
 30
0.0
  9
$PUCSORGLEFT
 10
0.0
 20
0.0
 30
0.0
  9
$PUCSORGRIGHT
 10
0.0
 20
0.0
 30
0.0
  9
$PUCSORGFRONT
 10
0.0
 20
0.0
 30
0.0
  9
$PUCSORGBACK
 10
0.0
 20
0.0
 30
0.0
  9
$USERI1
 70
     0
  9
$USERI2
 70
     0
  9
$USERI3
 70
     0
  9
$USERI4
 70
     0
  9
$USERI5
 70
     0
  9
$USERR1
 40
0.0
  9
$USERR2
 40
0.0
  9
$USERR3
 40
0.0
  9
$USERR4
 40
0.0
  9
$USERR5
 40
0.0
  9
$WORLDVIEW
 70
     1
  9
$SHADEDGE
 70
     3
  9
$SHADEDIF
 70
    70
  9
$TILEMODE
 70
     1
  9
$MAXACTVP
 70
    64
  9
$PINSBASE
 10
0.0
 20
0.0
 30
0.0
  9
$PLIMCHECK
 70
     0
  9
$PEXTMIN
 10
1.000000000000000E+20
 20
1.000000000000000E+20
 30
1.000000000000000E+20
  9
$PEXTMAX
 10
-1.000000000000000E+20
 20
-1.000000000000000E+20
 30
-1.000000000000000E+20
  9
$PLIMMIN
 10
0.0
 20
0.0
  9
$PLIMMAX
 10
12.0
 20
9.0
  9
$UNITMODE
 70
     0
  9
$VISRETAIN
 70
     1
  9
$PLINEGEN
 70
     0
  9
$PSLTSCALE
 70
     1
  9
$TREEDEPTH
 70
  3020
  9
$CMLSTYLE
  2
Standard
  9
$CMLJUST
 70
     0
  9
$CMLSCALE
 40
1.0
  9
$PROXYGRAPHICS
 70
     1
  9
$MEASUREMENT
 70
     0
  9
$CELWEIGHT
370
    -1
  9
$ENDCAPS
280
     0
  9
$JOINSTYLE
280
     0
  9
$LWDISPLAY
290
     1
  9
$INSUNITS
 70
     1
  9
$HYPERLINKBASE
  1

  9
$STYLESHEET
  1

  9
$XEDIT
290
     1
  9
$CEPSNTYPE
380
     0
  9
$PSTYLEMODE
290
     1
  9
$FINGERPRINTGUID
  2
{D96917C2-2580-F449-42FC-AE961672239C}
  9
$VERSIONGUID
  2
{FAEB1C32-E019-11D5-929B-00C0DF256EC4}
  9
$EXTNAMES
290
     1
  9
$PSVPSCALE
 40
0.0
  9
$OLESTARTUP
290
     0
  9
$SORTENTS
280
   127
  9
$INDEXCTL
280
     0
  9
$HIDETEXT
280
     1
  9
$XCLIPFRAME
280
     2
  9
$HALOGAP
280
     0
  9
$OBSCOLOR
 70
   257
  9
$OBSLTYPE
280
     0
  9
$INTERSECTIONDISPLAY
280
     0
  9
$INTERSECTIONCOLOR
 70
   257
  9
$DIMASSOC
280
     2
  9
$PROJECTNAME
  1

  9
$CAMERADISPLAY
290
     0
  9
$LENSLENGTH
 40
50.0
  9
$CAMERAHEIGHT
 40
0.0
  9
$STEPSPERSEC
 40
2.0
  9
$STEPSIZE
 40
6.0
  9
$3DDWFPREC
 40
2.0
  9
$PSOLWIDTH
 40
0.25
  9
$PSOLHEIGHT
 40
4.0
  9
$LOFTANG1
 40
1.570796326794897
  9
$LOFTANG2
 40
1.570796326794897
  9
$LOFTMAG1
 40
0.0
  9
$LOFTMAG2
 40
0.0
  9
$LOFTPARAM
 70
     7
  9
$LOFTNORMALS
280
     1
  9
$LATITUDE
 40
37.795
  9
$LONGITUDE
 40
-122.394
  9
$NORTHDIRECTION
 40
0.0
  9
$TIMEZONE
 70
 -8000
  9
$LIGHTGLYPHDISPLAY
280
     1
  9
$TILEMODELIGHTSYNCH
280
     1
  9
$CMATERIAL
347
3C
  9
$SOLIDHIST
280
     1
  9
$SHOWHIST
280
     1
  9
$DWFFRAME
280
     2
  9
$DGNFRAME
280
     2
  9
$REALWORLDSCALE
290
     1
  9
$INTERFERECOLOR
 62
   256
  9
$CSHADOW
280
     0
  9
$SHADOWPLANELOCATION
 40
0.0
  0
ENDSEC
  0
SECTION
  2
CLASSES
  0
CLASS
  1
ACDBDICTIONARYWDFLT
  2
AcDbDictionaryWithDefault
  3
ObjectDBX Classes
 90
        0
 91
        4
280
     0
281
     0
  0
CLASS
  1
VISUALSTYLE
  2
AcDbVisualStyle
  3
ObjectDBX Classes
 90
     4095
 91
        4
280
     0
281
     0
  0
CLASS
  1
MATERIAL
  2
AcDbMaterial
  3
ObjectDBX Classes
 90
     1153
 91
        4
280
     0
281
     0
  0
CLASS
  1
SUN
  2
AcDbSun
  3
SCENEOE
 90
     1024
 91
        4
280
     0
281
     0
  0
ENDSEC
  0
SECTION
  2
TABLES
  0
TABLE
  2
VPORT
  5
8
330
0
100
AcDbSymbolTable
 70
     1
  0
VPORT
  5
29
330
8
100
AcDbSymbolTableRecord
100
AcDbViewportTableRecord
  2
*Active
 70
     0
 10
0.0
 20
0.0
 11
1.0
 21
1.0
 12
0.0
 22
0.0
 13
0.0
 23
0.0
 14
0.5
 24
0.5
 15
0.5
 25
0.5
 16
0.0
 26
0.0
 36
1.0
 17
1220.000805250555
 27
-610.0004026252777
 37
0.0
 40
1220.000805250555
 41
2.0
 42
50.0
 43
0.0
 44
0.0
 50
0.0
 51
0.0
 71
     0
 72
   100
 73
     1
 74
     3
 75
     0
 76
     0
 77
     0
 78
     0
281
     0
 65
     1
110
0.0
120
0.0
130
0.0
111
1.0
121
0.0
131
0.0
112
0.0
122
1.0
132
0.0
 79
     0
146
0.0
 60
     3
 61
     5
292
     1
282
     1
141
0.0
142
0.0
 63
   250
361
3F
  0
ENDTAB
  0
TABLE
  2
LTYPE
  5
5
330
0
100
AcDbSymbolTable
 70
     1
  0
LTYPE
  5
14
330
5
100
AcDbSymbolTableRecord
100
AcDbLinetypeTableRecord
  2
ByBlock
 70
     0
  3

 72
    65
 73
     0
 40
0.0
  0
LTYPE
  5
15
330
5
100
AcDbSymbolTableRecord
100
AcDbLinetypeTableRecord
  2
ByLayer
 70
     0
  3

 72
    65
 73
     0
 40
0.0
  0
LTYPE
  5
16
330
5
100
AcDbSymbolTableRecord
100
AcDbLinetypeTableRecord
  2
Continuous
 70
     0
  3
Solid line
 72
    65
 73
     0
 40
0.0
  0
ENDTAB
  0
TABLE
  2
LAYER
  5
2
330
0
100
AcDbSymbolTable
 70
     2
  0
LAYER
  5
10
330
2
100
AcDbSymbolTableRecord
100
AcDbLayerTableRecord
  2
0
 70
     0
 62
     7
  6
Continuous
370
    -3
390
F
347
3E
  0
LAYER
  5
40
330
2
100
AcDbSymbolTableRecord
100
AcDbLayerTableRecord
  2
Layer 1
 70
     0
 62
     7
  6
Continuous
370
    -3
390
F
347
3E
  0
ENDTAB
  0
TABLE
  2
STYLE
  5
3
330
0
100
AcDbSymbolTable
 70
     1
  0
STYLE
  5
11
330
3
100
AcDbSymbolTableRecord
100
AcDbTextStyleTableRecord
  2
Standard
 70
     0
 40
0.0
 41
1.0
 50
0.0
 71
     0
 42
0.2
  3
txt
  4

  0
ENDTAB
  0
TABLE
  2
VIEW
  5
6
330
0
100
AcDbSymbolTable
 70
     0
  0
ENDTAB
  0
TABLE
  2
UCS
  5
7
330
0
100
AcDbSymbolTable
 70
     0
  0
ENDTAB
  0
TABLE
  2
APPID
  5
9
330
0
100
AcDbSymbolTable
 70
     1
  0
APPID
  5
12
330
9
100
AcDbSymbolTableRecord
100
AcDbRegAppTableRecord
  2
ACAD
 70
     0
  0
ENDTAB
  0
TABLE
  2
DIMSTYLE
  5
A
330
0
100
AcDbSymbolTable
 70
     1
100
AcDbDimStyleTable
  0
DIMSTYLE
105
27
330
A
100
AcDbSymbolTableRecord
100
AcDbDimStyleTableRecord
  2
Standard
 70
     0
178
     0
340
11
  0
ENDTAB
  0
TABLE
  2
BLOCK_RECORD
  5
1
330
0
100
AcDbSymbolTable
 70
    10
  0
BLOCK_RECORD
  5
1F
330
1
100
AcDbSymbolTableRecord
100
AcDbBlockTableRecord
  2
*Model_Space
340
22
 70
     0
280
     1
281
     0
  0
BLOCK_RECORD
  5
1B
330
1
100
AcDbSymbolTableRecord
100
AcDbBlockTableRecord
  2
*Paper_Space
340
1E
 70
     0
280
     1
281
     0
  0
BLOCK_RECORD
  5
23
330
1
100
AcDbSymbolTableRecord
100
AcDbBlockTableRecord
  2
*Paper_Space0
340
26
 70
     0
280
     1
281
     0
  0
BLOCK_RECORD
  5
68
330
1
100
AcDbSymbolTableRecord
100
AcDbBlockTableRecord
  2
block 2
340
0
102
{BLKREFS
331
69
102
}
 70
     0
280
     1
281
     0
  0
BLOCK_RECORD
  5
6D
330
1
100
AcDbSymbolTableRecord
100
AcDbBlockTableRecord
  2
block 3
340
0
102
{BLKREFS
331
6E
102
}
 70
     0
280
     1
281
     0
  0
BLOCK_RECORD
  5
7B
330
1
100
AcDbSymbolTableRecord
100
AcDbBlockTableRecord
  2
block 4
340
0
102
{BLKREFS
331
7C
102
}
 70
     0
280
     1
281
     0
  0
BLOCK_RECORD
  5
80
330
1
100
AcDbSymbolTableRecord
100
AcDbBlockTableRecord
  2
block 5
340
0
102
{BLKREFS
331
81
102
}
 70
     0
280
     1
281
     0
  0
BLOCK_RECORD
  5
85
330
1
100
AcDbSymbolTableRecord
100
AcDbBlockTableRecord
  2
block 6
340
0
102
{BLKREFS
331
86
102
}
 70
     0
280
     1
281
     0
  0
BLOCK_RECORD
  5
89
330
1
100
AcDbSymbolTableRecord
100
AcDbBlockTableRecord
  2
block 7
340
0
102
{BLKREFS
331
8A
102
}
 70
     0
280
     1
281
     0
  0
BLOCK_RECORD
  5
93
330
1
100
AcDbSymbolTableRecord
100
AcDbBlockTableRecord
  2
block 8
340
0
102
{BLKREFS
331
94
102
}
 70
     0
280
     1
281
     0
  0
BLOCK_RECORD
  5
99
330
1
100
AcDbSymbolTableRecord
100
AcDbBlockTableRecord
  2
block 9
340
0
102
{BLKREFS
331
9A
102
}
 70
     0
280
     1
281
     0
  0
BLOCK_RECORD
  5
9F
330
1
100
AcDbSymbolTableRecord
100
AcDbBlockTableRecord
  2
block 10
340
0
102
{BLKREFS
331
A0
102
}
 70
     0
280
     1
281
     0
  0
ENDTAB
  0
ENDSEC
  0
SECTION
  2
BLOCKS
  0
BLOCK
  5
20
330
1F
100
AcDbEntity
  8
0
100
AcDbBlockBegin
  2
*Model_Space
 70
     0
 10
0.0
 20
0.0
 30
0.0
  3
*Model_Space
  1

  0
ENDBLK
  5
21
330
1F
100
AcDbEntity
  8
0
100
AcDbBlockEnd
  0
BLOCK
  5
1C
330
1B
100
AcDbEntity
 67
     1
  8
0
100
AcDbBlockBegin
  2
*Paper_Space
 70
     0
 10
0.0
 20
0.0
 30
0.0
  3
*Paper_Space
  1

  0
ENDBLK
  5
1D
330
1B
100
AcDbEntity
 67
     1
  8
0
100
AcDbBlockEnd
  0
BLOCK
  5
24
330
23
100
AcDbEntity
  8
0
100
AcDbBlockBegin
  2
*Paper_Space0
 70
     0
 10
0.0
 20
0.0
 30
0.0
  3
*Paper_Space0
  1

  0
ENDBLK
  5
25
330
23
100
AcDbEntity
  8
0
100
AcDbBlockEnd
  0
BLOCK
  5
6A
330
68
100
AcDbEntity
  8
0
100
AcDbBlockBegin
  2
block 2
 70
     0
 10
0.0
 20
0.0
 30
0.0
  3
block 2
  1

  0
SPLINE
  5
6C
330
68
100
AcDbEntity
  8
Layer 1
 62
   179
420
  2301728
370
    35
100
AcDbSpline
210
0.0
220
0.0
230
1.0
 70
     8
 71
     3
 72
   146
 73
   142
 74
     0
 42
0.0000000001
 43
0.0000000001
 12
1.0
 22
0.0
 32
0.0
 13
1.0
 23
0.0
 33
0.0
 40
0.0
 40
0.0
 40
0.0
 40
0.0
 40
1.0
 40
1.0
 40
1.0
 40
2.0
 40
2.0
 40
2.0
 40
3.0
 40
3.0
 40
3.0
 40
4.0
 40
4.0
 40
4.0
 40
5.0
 40
5.0
 40
5.0
 40
6.0
 40
6.0
 40
6.0
 40
7.0
 40
7.0
 40
7.0
 40
8.0
 40
8.0
 40
8.0
 40
9.0
 40
9.0
 40
9.0
 40
10.0
 40
10.0
 40
10.0
 40
11.0
 40
11.0
 40
11.0
 40
12.0
 40
12.0
 40
12.0
 40
13.0
 40
13.0
 40
13.0
 40
14.0
 40
14.0
 40
14.0
 40
15.0
 40
15.0
 40
15.0
 40
16.0
 40
16.0
 40
16.0
 40
17.0
 40
17.0
 40
17.0
 40
18.0
 40
18.0
 40
18.0
 40
19.0
 40
19.0
 40
19.0
 40
20.0
 40
20.0
 40
20.0
 40
21.0
 40
21.0
 40
21.0
 40
22.0
 40
22.0
 40
22.0
 40
23.0
 40
23.0
 40
23.0
 40
24.0
 40
24.0
 40
24.0
 40
25.0
 40
25.0
 40
25.0
 40
26.0
 40
26.0
 40
26.0
 40
27.0
 40
27.0
 40
27.0
 40
28.0
 40
28.0
 40
28.0
 40
29.0
 40
29.0
 40
29.0
 40
30.0
 40
30.0
 40
30.0
 40
31.0
 40
31.0
 40
31.0
 40
32.0
 40
32.0
 40
32.0
 40
33.0
 40
33.0
 40
33.0
 40
34.0
 40
34.0
 40
34.0
 40
35.0
 40
35.0
 40
35.0
 40
36.0
 40
36.0
 40
36.0
 40
37.0
 40
37.0
 40
37.0
 40
38.0
 40
38.0
 40
38.0
 40
39.0
 40
39.0
 40
39.0
 40
40.0
 40
40.0
 40
40.0
 40
41.0
 40
41.0
 40
41.0
 40
42.0
 40
42.0
 40
42.0
 40
43.0
 40
43.0
 40
43.0
 40
44.0
 40
44.0
 40
44.0
 40
45.0
 40
45.0
 40
45.0
 40
46.0
 40
46.0
 40
46.0
 40
47.0
 40
47.0
 40
47.0
 40
47.0
 10
1028.711314612479
 20
-581.0751673894362
 30
0.0
 10
1028.711314612479
 20
-581.0751673894362
 30
0.0
 10
1075.005020045807
 20
-554.4944883232831
 30
0.0
 10
1075.005020045807
 20
-554.4944883232831
 30
0.0
 10
1075.005020045807
 20
-554.4944883232831
 30
0.0
 10
1077.608108193269
 20
-552.9915946806715
 30
0.0
 10
1077.608108193269
 20
-552.9915946806715
 30
0.0
 10
1079.040218047126
 20
-552.164765671069
 30
0.0
 10
1079.530895120303
 20
-550.3335339039746
 30
0.0
 10
1078.704066110696
 20
-548.9014240501211
 30
0.0
 10
1078.704066110696
 20
-548.9014240501211
 30
0.0
 10
1078.68660799745
 20
-548.8711857109677
 30
0.0
 10
1078.68660799745
 20
-548.8711857109677
 30
0.0
 10
1077.866224607727
 20
-547.4502399982324
 30
0.0
 10
1076.049268372512
 20
-546.9633880422944
 30
0.0
 10
1074.628322659777
 20
-547.7837714320182
 30
0.0
 10
1074.628322659777
 20
-547.7837714320182
 30
0.0
 10
1072.005020046636
 20
-549.2983359018307
 30
0.0
 10
1072.005020046636
 20
-549.2983359018307
 30
0.0
 10
1072.005020046636
 20
-549.2983359018307
 30
0.0
 10
1072.005020047218
 20
-542.217340742524
 30
0.0
 10
1072.005020047218
 20
-542.217340742524
 30
0.0
 10
1072.005020047218
 20
-542.217340742524
 30
0.0
 10
1074.670554004614
 20
-540.7144470999124
 30
0.0
 10
1074.670554004614
 20
-540.7144470999124
 30
0.0
 10
1076.102663858471
 20
-539.8876180903095
 30
0.0
 10
1076.593340931644
 20
-538.0563863232155
 30
0.0
 10
1075.766511922042
 20
-536.624276469362
 30
0.0
 10
1075.766511922042
 20
-536.624276469362
 30
0.0
 10
1075.749053808792
 20
-536.5940381302083
 30
0.0
 10
1075.749053808792
 20
-536.5940381302083
 30
0.0
 10
1074.928670419069
 20
-535.1730924174733
 30
0.0
 10
1073.111714183854
 20
-534.6862404615352
 30
0.0
 10
1071.690768471119
 20
-535.5066238512591
 30
0.0
 10
1071.690768471119
 20
-535.5066238512591
 30
0.0
 10
1068.906364709449
 20
-537.0781611780108
 30
0.0
 10
1068.906364709449
 20
-537.0781611780108
 30
0.0
 10
1068.906364709449
 20
-537.0781611780108
 30
0.0
 10
1069.005020048047
 20
-537.0211883210716
 30
0.0
 10
1069.005020048047
 20
-537.0211883210716
 30
0.0
 10
1069.005020048047
 20
-537.0211883210716
 30
0.0
 10
1028.711314612479
 20
-560.2905577039863
 30
0.0
 10
1028.711314612479
 20
-560.2905577039863
 30
0.0
 10
1028.711314612479
 20
-560.2905577039863
 30
0.0
 10
1028.711316934924
 20
-560.108106531925
 30
0.0
 10
1028.711316934924
 20
-560.108106531925
 30
0.0
 10
1028.711316934924
 20
-560.108106531925
 30
0.0
 10
1028.711316870959
 20
-295.5315089631083
 30
0.0
 10
1028.711316870959
 20
-295.5315089631083
 30
0.0
 10
1028.711316870959
 20
-295.5315089631083
 30
0.0
 10
1069.005022306527
 20
-318.8008783460234
 30
0.0
 10
1069.005022306527
 20
-318.8008783460234
 30
0.0
 10
1069.005022306527
 20
-318.8008783460234
 30
0.0
 10
1068.906366967929
 20
-318.743905489082
 30
0.0
 10
1068.906366967929
 20
-318.743905489082
 30
0.0
 10
1068.906366967929
 20
-318.743905489082
 30
0.0
 10
1071.690770729599
 20
-320.3154428158339
 30
0.0
 10
1071.690770729599
 20
-320.3154428158339
 30
0.0
 10
1073.111716442334
 20
-321.1358262055571
 30
0.0
 10
1074.928672677549
 20
-320.6489742496198
 30
0.0
 10
1075.749056067272
 20
-319.2280285368844
 30
0.0
 10
1075.749056067272
 20
-319.2280285368844
 30
0.0
 10
1075.766514180522
 20
-319.197790197733
 30
0.0
 10
1075.766514180522
 20
-319.197790197733
 30
0.0
 10
1076.593343190124
 20
-317.7656803438775
 30
0.0
 10
1076.102666116951
 20
-315.9344485767851
 30
0.0
 10
1074.670556263094
 20
-315.1076195671807
 30
0.0
 10
1074.670556263094
 20
-315.1076195671807
 30
0.0
 10
1072.005022305698
 20
-313.6047259245709
 30
0.0
 10
1072.005022305698
 20
-313.6047259245709
 30
0.0
 10
1072.005022305698
 20
-313.6047259245709
 30
0.0
 10
1072.005022305116
 20
-306.5237307652636
 30
0.0
 10
1072.005022305116
 20
-306.5237307652636
 30
0.0
 10
1072.005022305116
 20
-306.5237307652636
 30
0.0
 10
1074.628324918257
 20
-308.0382952350742
 30
0.0
 10
1074.628324918257
 20
-308.0382952350742
 30
0.0
 10
1076.049270630992
 20
-308.8586786247973
 30
0.0
 10
1077.866226866207
 20
-308.3718266688603
 30
0.0
 10
1078.68661025593
 20
-306.9508809561246
 30
0.0
 10
1078.68661025593
 20
-306.9508809561246
 30
0.0
 10
1078.704068369176
 20
-306.9206426169735
 30
0.0
 10
1078.704068369176
 20
-306.9206426169735
 30
0.0
 10
1079.530897378783
 20
-305.4885327631177
 30
0.0
 10
1079.040220305606
 20
-303.657300996025
 30
0.0
 10
1077.608110451748
 20
-302.8304719864209
 30
0.0
 10
1077.608110451748
 20
-302.8304719864209
 30
0.0
 10
1075.005022304287
 20
-301.3275783438112
 30
0.0
 10
1075.005022304287
 20
-301.3275783438112
 30
0.0
 10
1075.005022304287
 20
-301.3275783438112
 30
0.0
 10
1028.711316870959
 20
-274.7468992776575
 30
0.0
 10
1028.711316870959
 20
-274.7468992776575
 30
0.0
 10
1028.711316870959
 20
-274.7468992776575
 30
0.0
 10
1028.711314612479
 20
-222.847540353949
 30
0.0
 10
1028.711314612479
 20
-222.847540353949
 30
0.0
 10
1028.711314610619
 20
-181.4261841269953
 30
0.0
 10
1062.289958363406
 20
-147.847540371192
 30
0.0
 10
1103.711314590363
 20
-147.8475403693324
 30
0.0
 10
1103.711314590363
 20
-147.8475403693324
 30
0.0
 10
1178.711314571613
 20
-147.8475403659654
 30
0.0
 10
1178.711314571613
 20
-147.8475403659654
 30
0.0
 10
1178.711314571613
 20
-147.8475403659654
 30
0.0
 10
1178.711309916301
 20
-188.1953355531631
 30
0.0
 10
1178.711309916301
 20
-188.1953355531631
 30
0.0
 10
1178.711309916301
 20
-188.1953355531631
 30
0.0
 10
1196.711309909803
 20
-188.1953355531631
 30
0.0
 10
1196.711309909803
 20
-188.1953355531631
 30
0.0
 10
1196.711309909803
 20
-188.1953355531631
 30
0.0
 10
1196.711309909803
 20
-288.6190427090736
 30
0.0
 10
1196.711309909803
 20
-288.6190427090736
 30
0.0
 10
1196.711309909803
 20
-288.6190427090736
 30
0.0
 10
1178.711309916301
 20
-288.6190427090736
 30
0.0
 10
1178.711309916301
 20
-288.6190427090736
 30
0.0
 10
1178.711309916301
 20
-288.6190427090736
 30
0.0
 10
1178.711309916301
 20
-288.6190427090736
 30
0.0
 10
1178.711309916301
 20
-288.6190427090736
 30
0.0
 10
1178.711309916301
 20
-288.6190427090736
 30
0.0
 10
1178.62681803731
 20
-566.7416792407427
 30
0.0
 10
1178.62681803731
 20
-566.7416792407427
 30
0.0
 10
1178.62681803731
 20
-566.7416792407427
 30
0.0
 10
1196.853896070136
 20
-566.7416792407427
 30
0.0
 10
1196.853896070136
 20
-566.7416792407427
 30
0.0
 10
1196.853896070136
 20
-566.7416792407427
 30
0.0
 10
1196.853896070136
 20
-667.1653863966533
 30
0.0
 10
1196.853896070136
 20
-667.1653863966533
 30
0.0
 10
1196.853896070136
 20
-667.1653863966533
 30
0.0
 10
1178.853896076634
 20
-667.1653863966533
 30
0.0
 10
1178.853896076634
 20
-667.1653863966533
 30
0.0
 10
1178.853896076634
 20
-667.1653863966533
 30
0.0
 10
1178.71130992015
 20
-667.1653959450528
 30
0.0
 10
1178.71130992015
 20
-667.1653959450528
 30
0.0
 10
1178.71130992015
 20
-667.1653959450528
 30
0.0
 10
1178.711314596756
 20
-707.847540225968
 30
0.0
 10
1178.711314596756
 20
-707.847540225968
 30
0.0
 10
1178.711314596756
 20
-707.847540225968
 30
0.0
 10
1103.711314615498
 20
-707.847540229333
 30
0.0
 10
1103.711314615498
 20
-707.847540229333
 30
0.0
 10
1062.289958388542
 20
-707.8475402311889
 30
0.0
 10
1028.711314632739
 20
-674.2688964784016
 30
0.0
 10
1028.71131463088
 20
-632.8475402514454
 30
0.0
 10
1028.71131463088
 20
-632.8475402514454
 30
0.0
 10
1028.711316934924
 20
-580.8927162173745
 30
0.0
 10
1028.711316934924
 20
-580.8927162173745
 30
0.0
  0
ENDBLK
  5
6B
330
68
100
AcDbEntity
  8
0
100
AcDbBlockEnd
  0
BLOCK
  5
6F
330
6D
100
AcDbEntity
  8
0
100
AcDbBlockBegin
  2
block 3
 70
     0
 10
0.0
 20
0.0
 30
0.0
  3
block 3
  1

  0
SPLINE
  5
71
330
6D
100
AcDbEntity
  8
Layer 1
 62
   179
420
  2301728
370
    35
100
AcDbSpline
210
0.0
220
0.0
230
1.0
 70
     8
 71
     3
 72
   146
 73
   142
 74
     0
 42
0.0000000001
 43
0.0000000001
 12
1.0
 22
0.0
 32
0.0
 13
1.0
 23
0.0
 33
0.0
 40
0.0
 40
0.0
 40
0.0
 40
0.0
 40
1.0
 40
1.0
 40
1.0
 40
2.0
 40
2.0
 40
2.0
 40
3.0
 40
3.0
 40
3.0
 40
4.0
 40
4.0
 40
4.0
 40
5.0
 40
5.0
 40
5.0
 40
6.0
 40
6.0
 40
6.0
 40
7.0
 40
7.0
 40
7.0
 40
8.0
 40
8.0
 40
8.0
 40
9.0
 40
9.0
 40
9.0
 40
10.0
 40
10.0
 40
10.0
 40
11.0
 40
11.0
 40
11.0
 40
12.0
 40
12.0
 40
12.0
 40
13.0
 40
13.0
 40
13.0
 40
14.0
 40
14.0
 40
14.0
 40
15.0
 40
15.0
 40
15.0
 40
16.0
 40
16.0
 40
16.0
 40
17.0
 40
17.0
 40
17.0
 40
18.0
 40
18.0
 40
18.0
 40
19.0
 40
19.0
 40
19.0
 40
20.0
 40
20.0
 40
20.0
 40
21.0
 40
21.0
 40
21.0
 40
22.0
 40
22.0
 40
22.0
 40
23.0
 40
23.0
 40
23.0
 40
24.0
 40
24.0
 40
24.0
 40
25.0
 40
25.0
 40
25.0
 40
26.0
 40
26.0
 40
26.0
 40
27.0
 40
27.0
 40
27.0
 40
28.0
 40
28.0
 40
28.0
 40
29.0
 40
29.0
 40
29.0
 40
30.0
 40
30.0
 40
30.0
 40
31.0
 40
31.0
 40
31.0
 40
32.0
 40
32.0
 40
32.0
 40
33.0
 40
33.0
 40
33.0
 40
34.0
 40
34.0
 40
34.0
 40
35.0
 40
35.0
 40
35.0
 40
36.0
 40
36.0
 40
36.0
 40
37.0
 40
37.0
 40
37.0
 40
38.0
 40
38.0
 40
38.0
 40
39.0
 40
39.0
 40
39.0
 40
40.0
 40
40.0
 40
40.0
 40
41.0
 40
41.0
 40
41.0
 40
42.0
 40
42.0
 40
42.0
 40
43.0
 40
43.0
 40
43.0
 40
44.0
 40
44.0
 40
44.0
 40
45.0
 40
45.0
 40
45.0
 40
46.0
 40
46.0
 40
46.0
 40
47.0
 40
47.0
 40
47.0
 40
47.0
 10
925.5666512424144
 20
-503.2276309986425
 30
0.0
 10
925.5666512424144
 20
-503.2276309986425
 30
0.0
 10
879.2729458102785
 20
-476.646951930412
 30
0.0
 10
879.2729458102785
 20
-476.646951930412
 30
0.0
 10
879.2729458102785
 20
-476.646951930412
 30
0.0
 10
876.6698576628803
 20
-475.1440582876835
 30
0.0
 10
876.6698576628803
 20
-475.1440582876835
 30
0.0
 10
875.2377478090659
 20
-474.3172292780175
 30
0.0
 10
874.7470707359697
 20
-472.4859975109024
 30
0.0
 10
875.573899745639
 20
-471.0538876570841
 30
0.0
 10
875.573899745639
 20
-471.0538876570841
 30
0.0
 10
875.5913578588892
 20
-471.0236493179339
 30
0.0
 10
875.5913578588892
 20
-471.0236493179339
 30
0.0
 10
876.4117412486759
 20
-469.6027036052339
 30
0.0
 10
878.2286974839116
 20
-469.1158516493774
 30
0.0
 10
879.649643196608
 20
-469.9362350391647
 30
0.0
 10
879.649643196608
 20
-469.9362350391647
 30
0.0
 10
882.2729458096823
 20
-471.4507995090934
 30
0.0
 10
882.2729458096823
 20
-471.4507995090934
 30
0.0
 10
882.2729458096823
 20
-471.4507995090934
 30
0.0
 10
882.2729458094175
 20
-464.3698043497867
 30
0.0
 10
882.2729458094175
 20
-464.3698043497867
 30
0.0
 10
882.2729458094175
 20
-464.3698043497867
 30
0.0
 10
879.6074118520886
 20
-462.8669107070585
 30
0.0
 10
879.6074118520886
 20
-462.8669107070585
 30
0.0
 10
878.1753019982707
 20
-462.040081697389
 30
0.0
 10
877.684624925178
 20
-460.2088499302739
 30
0.0
 10
878.5114539348441
 20
-458.7767400764556
 30
0.0
 10
878.5114539348441
 20
-458.7767400764556
 30
0.0
 10
878.528912048094
 20
-458.7465017373054
 30
0.0
 10
878.528912048094
 20
-458.7465017373054
 30
0.0
 10
879.349295437881
 20
-457.3255560246054
 30
0.0
 10
881.1662516731202
 20
-456.8387040687524
 30
0.0
 10
882.5871973858165
 20
-457.6590874585394
 30
0.0
 10
882.5871973858165
 20
-457.6590874585394
 30
0.0
 10
885.3716011474161
 20
-459.2306247854146
 30
0.0
 10
885.3716011474161
 20
-459.2306247854146
 30
0.0
 10
885.3716011474161
 20
-459.2306247854146
 30
0.0
 10
885.2729458088215
 20
-459.1736519284684
 30
0.0
 10
885.2729458088215
 20
-459.1736519284684
 30
0.0
 10
885.2729458088215
 20
-459.1736519284684
 30
0.0
 10
925.5666512433459
 20
-482.443021313193
 30
0.0
 10
925.5666512433459
 20
-482.443021313193
 30
0.0
 10
925.5666512433459
 20
-482.443021313193
 30
0.0
 10
925.5666489209074
 20
-482.2605701411318
 30
0.0
 10
925.5666489209074
 20
-482.2605701411318
 30
0.0
 10
925.5666489209074
 20
-482.2605701411318
 30
0.0
 10
925.5666489967546
 20
-217.6839725723163
 30
0.0
 10
925.5666489967546
 20
-217.6839725723163
 30
0.0
 10
925.5666489967546
 20
-217.6839725723163
 30
0.0
 10
885.272943560138
 20
-240.9533419534224
 30
0.0
 10
885.272943560138
 20
-240.9533419534224
 30
0.0
 10
885.272943560138
 20
-240.9533419534224
 30
0.0
 10
885.37159889874
 20
-240.8963690964855
 30
0.0
 10
885.37159889874
 20
-240.8963690964855
 30
0.0
 10
885.37159889874
 20
-240.8963690964855
 30
0.0
 10
882.5871951369994
 20
-242.4679064231123
 30
0.0
 10
882.5871951369994
 20
-242.4679064231123
 30
0.0
 10
881.1662494242253
 20
-243.2882898127716
 30
0.0
 10
879.3492931890322
 20
-242.8014378567528
 30
0.0
 10
878.5289097993752
 20
-241.3804921439806
 30
0.0
 10
878.5289097993752
 20
-241.3804921439806
 30
0.0
 10
878.5114516861256
 20
-241.3502538048285
 30
0.0
 10
878.5114516861256
 20
-241.3502538048285
 30
0.0
 10
877.6846226765866
 20
-239.9181439509358
 30
0.0
 10
878.1752997498452
 20
-238.0869121838652
 30
0.0
 10
879.6074096037372
 20
-237.2600831743253
 30
0.0
 10
879.6074096037372
 20
-237.2600831743253
 30
0.0
 10
882.2729435611999
 20
-235.7571895318352
 30
0.0
 10
882.2729435611999
 20
-235.7571895318352
 30
0.0
 10
882.2729435611999
 20
-235.7571895318352
 30
0.0
 10
882.2729435621031
 20
-228.6761943725279
 30
0.0
 10
882.2729435621031
 20
-228.6761943725279
 30
0.0
 10
882.2729435621031
 20
-228.6761943725279
 30
0.0
 10
879.6496409488952
 20
-230.1907588422207
 30
0.0
 10
879.6496409488952
 20
-230.1907588422207
 30
0.0
 10
878.228695236121
 20
-231.01114223188
 30
0.0
 10
876.4117390009279
 20
-230.5242902758612
 30
0.0
 10
875.5913556112677
 20
-229.1033445630889
 30
0.0
 10
875.5913556112677
 20
-229.1033445630889
 30
0.0
 10
875.5738974980213
 20
-229.0731062239369
 30
0.0
 10
875.5738974980213
 20
-229.0731062239369
 30
0.0
 10
874.7470684884823
 20
-227.6409963700441
 30
0.0
 10
875.2377455617409
 20
-225.8097646029736
 30
0.0
 10
876.6698554156329
 20
-224.9829355934337
 30
0.0
 10
876.6698554156329
 20
-224.9829355934337
 30
0.0
 10
879.272943563165
 20
-223.4800419509404
 30
0.0
 10
879.272943563165
 20
-223.4800419509404
 30
0.0
 10
879.272943563165
 20
-223.4800419509404
 30
0.0
 10
925.566648997686
 20
-196.8993628868655
 30
0.0
 10
925.566648997686
 20
-196.8993628868655
 30
0.0
 10
925.566648997686
 20
-196.8993628868655
 30
0.0
 10
925.5666512584941
 20
-145.000003963157
 30
0.0
 10
925.5666512584941
 20
-145.000003963157
 30
0.0
 10
925.5666512622156
 20
-103.5786477362033
 30
0.0
 10
891.9880075109351
 20
-70.00000397889266
 30
0.0
 10
850.5666512839788
 20
-70.00000397517304
 30
0.0
 10
850.5666512839788
 20
-70.00000397517304
 30
0.0
 10
775.5666513027288
 20
-70.00000396843906
 30
0.0
 10
775.5666513027288
 20
-70.00000396843906
 30
0.0
 10
775.5666513027288
 20
-70.00000396843906
 30
0.0
 10
775.5666559562276
 20
-110.3477991556367
 30
0.0
 10
775.5666559562276
 20
-110.3477991556367
 30
0.0
 10
775.5666559562276
 20
-110.3477991556367
 30
0.0
 10
757.5666559627292
 20
-110.3477991548285
 30
0.0
 10
757.5666559627292
 20
-110.3477991548285
 30
0.0
 10
757.5666559627292
 20
-110.3477991548285
 30
0.0
 10
757.5666559582207
 20
-210.7715063107387
 30
0.0
 10
757.5666559582207
 20
-210.7715063107387
 30
0.0
 10
757.5666559582207
 20
-210.7715063107387
 30
0.0
 10
775.566655951719
 20
-210.7715063115469
 30
0.0
 10
775.566655951719
 20
-210.7715063115469
 30
0.0
 10
775.566655951719
 20
-210.7715063115469
 30
0.0
 10
775.566655951719
 20
-210.7715063115469
 30
0.0
 10
775.566655951719
 20
-210.7715063115469
 30
0.0
 10
775.566655951719
 20
-210.7715063115469
 30
0.0
 10
775.6511478182244
 20
-488.8941428432183
 30
0.0
 10
775.6511478182244
 20
-488.8941428432183
 30
0.0
 10
775.6511478182244
 20
-488.8941428432183
 30
0.0
 10
757.4240697853995
 20
-488.8941428423998
 30
0.0
 10
757.4240697853995
 20
-488.8941428423998
 30
0.0
 10
757.4240697853995
 20
-488.8941428423998
 30
0.0
 10
757.4240697808909
 20
-589.3178499983104
 30
0.0
 10
757.4240697808909
 20
-589.3178499983104
 30
0.0
 10
757.4240697808909
 20
-589.3178499983104
 30
0.0
 10
775.4240697743925
 20
-589.3178499991183
 30
0.0
 10
775.4240697743925
 20
-589.3178499991183
 30
0.0
 10
775.4240697743925
 20
-589.3178499991183
 30
0.0
 10
775.5666559308769
 20
-589.3178595475252
 30
0.0
 10
775.5666559308769
 20
-589.3178595475252
 30
0.0
 10
775.5666559308769
 20
-589.3178595475252
 30
0.0
 10
775.5666512524436
 20
-630.0000038284397
 30
0.0
 10
775.5666512524436
 20
-630.0000038284397
 30
0.0
 10
775.5666512524436
 20
-630.0000038284397
 30
0.0
 10
850.566651233701
 20
-630.0000038351744
 30
0.0
 10
850.566651233701
 20
-630.0000038351744
 30
0.0
 10
891.9880074606573
 20
-630.0000038388893
 30
0.0
 10
925.566651217967
 20
-596.4213600876086
 30
0.0
 10
925.5666512216887
 20
-555.0000038606518
 30
0.0
 10
925.5666512216887
 20
-555.0000038606518
 30
0.0
 10
925.5666489199759
 20
-503.0451798265813
 30
0.0
 10
925.5666489199759
 20
-503.0451798265813
 30
0.0
  0
ENDBLK
  5
70
330
6D
100
AcDbEntity
  8
0
100
AcDbBlockEnd
  0
BLOCK
  5
7D
330
7B
100
AcDbEntity
  8
0
100
AcDbBlockBegin
  2
block 4
 70
     0
 10
0.0
 20
0.0
 30
0.0
  3
block 4
  1

  0
SPLINE
  5
7F
330
7B
100
AcDbEntity
  8
Layer 1
 62
   179
420
  2301728
370
    35
100
AcDbSpline
210
0.0
220
0.0
230
1.0
 70
     8
 71
     3
 72
    68
 73
    64
 74
     0
 42
0.0000000001
 43
0.0000000001
 12
1.0
 22
0.0
 32
0.0
 13
1.0
 23
0.0
 33
0.0
 40
0.0
 40
0.0
 40
0.0
 40
0.0
 40
1.0
 40
1.0
 40
1.0
 40
2.0
 40
2.0
 40
2.0
 40
3.0
 40
3.0
 40
3.0
 40
4.0
 40
4.0
 40
4.0
 40
5.0
 40
5.0
 40
5.0
 40
6.0
 40
6.0
 40
6.0
 40
7.0
 40
7.0
 40
7.0
 40
8.0
 40
8.0
 40
8.0
 40
9.0
 40
9.0
 40
9.0
 40
10.0
 40
10.0
 40
10.0
 40
11.0
 40
11.0
 40
11.0
 40
12.0
 40
12.0
 40
12.0
 40
13.0
 40
13.0
 40
13.0
 40
14.0
 40
14.0
 40
14.0
 40
15.0
 40
15.0
 40
15.0
 40
16.0
 40
16.0
 40
16.0
 40
17.0
 40
17.0
 40
17.0
 40
18.0
 40
18.0
 40
18.0
 40
19.0
 40
19.0
 40
19.0
 40
20.0
 40
20.0
 40
20.0
 40
21.0
 40
21.0
 40
21.0
 40
21.0
 10
638.8518165380721
 20
-742.2828540723964
 30
0.0
 10
638.8518165380721
 20
-742.2828540723964
 30
0.0
 10
638.8518165358248
 20
-792.282854059894
 30
0.0
 10
638.8518165358248
 20
-792.282854059894
 30
0.0
 10
638.8518165320289
 20
-793.9397083584628
 30
0.0
 10
637.5086707817665
 20
-795.2828541087288
 30
0.0
 10
635.8518165327802
 20
-795.2828541087288
 30
0.0
 10
634.194962283794
 20
-795.2828541087288
 30
0.0
 10
632.8518165335283
 20
-793.9397083584628
 30
0.0
 10
632.8518165335283
 20
-792.2828541094768
 30
0.0
 10
632.8518165335283
 20
-792.2828541094768
 30
0.0
 10
626.8518165376805
 20
-792.2828541094768
 30
0.0
 10
626.8518165376805
 20
-792.2828541094768
 30
0.0
 10
626.8518165376805
 20
-793.9397083584628
 30
0.0
 10
625.5086707874145
 20
-795.2828541087288
 30
0.0
 10
623.8518165384284
 20
-795.2828541087288
 30
0.0
 10
622.1949622894421
 20
-795.2828541087288
 30
0.0
 10
620.8518165391797
 20
-793.9397083584628
 30
0.0
 10
620.8518165391797
 20
-792.2828541094768
 30
0.0
 10
620.8518165391797
 20
-792.2828541094768
 30
0.0
 10
620.8518165425701
 20
-742.2828540715885
 30
0.0
 10
620.8518165425701
 20
-742.2828540715885
 30
0.0
 10
620.8518165425701
 20
-742.2828540715885
 30
0.0
 10
156.8806082904456
 20
-742.3225933042454
 30
0.0
 10
156.8806082904456
 20
-742.3225933042454
 30
0.0
 10
156.8806082904456
 20
-742.3225933042454
 30
0.0
 10
156.8806082882009
 20
-792.322593291743
 30
0.0
 10
156.8806082882009
 20
-792.322593291743
 30
0.0
 10
156.8806082844043
 20
-793.9794475903118
 30
0.0
 10
155.5374625341402
 20
-795.3225933405777
 30
0.0
 10
153.8806082851543
 20
-795.3225933405777
 30
0.0
 10
152.2237540361684
 20
-795.3225933405777
 30
0.0
 10
150.8806082859044
 20
-793.9794475903118
 30
0.0
 10
150.8806082859044
 20
-792.3225933413258
 30
0.0
 10
150.8806082859044
 20
-792.3225933413258
 30
0.0
 10
144.8806082900534
 20
-792.3225933413258
 30
0.0
 10
144.8806082900534
 20
-792.3225933413258
 30
0.0
 10
144.8806082900534
 20
-793.9794475903118
 30
0.0
 10
143.5374625397893
 20
-795.3225933405777
 30
0.0
 10
141.8806082908034
 20
-795.3225933405777
 30
0.0
 10
140.2237540418175
 20
-795.3225933405777
 30
0.0
 10
138.8806082915535
 20
-793.9794475903118
 30
0.0
 10
138.8806082927008
 20
-792.3225932909352
 30
0.0
 10
138.8806082927008
 20
-792.3225932909352
 30
0.0
 10
138.8806082949455
 20
-742.3225933034375
 30
0.0
 10
138.8806082949455
 20
-742.3225933034375
 30
0.0
 10
138.8806082949455
 20
-742.3225933034375
 30
0.0
 10
138.7380177190662
 20
-742.3225939763083
 30
0.0
 10
138.7380177190662
 20
-742.3225939763083
 30
0.0
 10
138.7380177190662
 20
-742.3225939763083
 30
0.0
 10
81.49175975461758
 20
-742.3678574379632
 30
0.0
 10
81.49175975461758
 20
-742.3678574379632
 30
0.0
 10
81.49175975461758
 20
-742.3678574379632
 30
0.0
 10
81.49175975461758
 20
-958.6750856307629
 30
0.0
 10
81.49175975461758
 20
-958.6750856307629
 30
0.0
 10
81.49175975461758
 20
-958.6750856307629
 30
0.0
 10
695.5744059272884
 20
-958.6750856307629
 30
0.0
 10
695.5744059272884
 20
-958.6750856307629
 30
0.0
 10
695.5744059272884
 20
-958.6750856307629
 30
0.0
 10
695.5744059272884
 20
-742.3678574379632
 30
0.0
 10
695.5744059272884
 20
-742.3678574379632
 30
0.0
 10
695.5744059272884
 20
-742.3678574379632
 30
0.0
 10
638.7092325896134
 20
-742.3225964785964
 30
0.0
 10
638.7092325896134
 20
-742.3225964785964
 30
0.0
  0
ENDBLK
  5
7E
330
7B
100
AcDbEntity
  8
0
100
AcDbBlockEnd
  0
BLOCK
  5
82
330
80
100
AcDbEntity
  8
0
100
AcDbBlockBegin
  2
block 5
 70
     0
 10
0.0
 20
0.0
 30
0.0
  3
block 5
  1

  0
SPLINE
  5
84
330
80
100
AcDbEntity
  8
Layer 1
 62
   179
420
  2301728
370
    35
100
AcDbSpline
210
0.0
220
0.0
230
1.0
 70
     8
 71
     3
 72
    68
 73
    64
 74
     0
 42
0.0000000001
 43
0.0000000001
 12
1.0
 22
0.0
 32
0.0
 13
1.0
 23
0.0
 33
0.0
 40
0.0
 40
0.0
 40
0.0
 40
0.0
 40
1.0
 40
1.0
 40
1.0
 40
2.0
 40
2.0
 40
2.0
 40
3.0
 40
3.0
 40
3.0
 40
4.0
 40
4.0
 40
4.0
 40
5.0
 40
5.0
 40
5.0
 40
6.0
 40
6.0
 40
6.0
 40
7.0
 40
7.0
 40
7.0
 40
8.0
 40
8.0
 40
8.0
 40
9.0
 40
9.0
 40
9.0
 40
10.0
 40
10.0
 40
10.0
 40
11.0
 40
11.0
 40
11.0
 40
12.0
 40
12.0
 40
12.0
 40
13.0
 40
13.0
 40
13.0
 40
14.0
 40
14.0
 40
14.0
 40
15.0
 40
15.0
 40
15.0
 40
16.0
 40
16.0
 40
16.0
 40
17.0
 40
17.0
 40
17.0
 40
18.0
 40
18.0
 40
18.0
 40
19.0
 40
19.0
 40
19.0
 40
20.0
 40
20.0
 40
20.0
 40
21.0
 40
21.0
 40
21.0
 40
21.0
 10
638.8518165380721
 20
-982.4791315459826
 30
0.0
 10
638.8518165380721
 20
-982.4791315459826
 30
0.0
 10
638.8518165358248
 20
-1032.479131533484
 30
0.0
 10
638.8518165358248
 20
-1032.479131533484
 30
0.0
 10
638.8518165320289
 20
-1034.13598583205
 30
0.0
 10
637.5086707817665
 20
-1035.479131582316
 30
0.0
 10
635.8518165327802
 20
-1035.479131582316
 30
0.0
 10
634.194962283794
 20
-1035.479131582316
 30
0.0
 10
632.8518165335283
 20
-1034.13598583205
 30
0.0
 10
632.8518165335283
 20
-1032.479131583067
 30
0.0
 10
632.8518165335283
 20
-1032.479131583067
 30
0.0
 10
626.8518165376805
 20
-1032.479131583067
 30
0.0
 10
626.8518165376805
 20
-1032.479131583067
 30
0.0
 10
626.8518165376805
 20
-1034.13598583205
 30
0.0
 10
625.5086707874145
 20
-1035.479131582316
 30
0.0
 10
623.8518165384284
 20
-1035.479131582316
 30
0.0
 10
622.1949622894421
 20
-1035.479131582316
 30
0.0
 10
620.8518165391797
 20
-1034.13598583205
 30
0.0
 10
620.8518165391797
 20
-1032.479131583067
 30
0.0
 10
620.8518165391797
 20
-1032.479131583067
 30
0.0
 10
620.8518165425701
 20
-982.4791315451747
 30
0.0
 10
620.8518165425701
 20
-982.4791315451747
 30
0.0
 10
620.8518165425701
 20
-982.4791315451747
 30
0.0
 10
156.8806082904456
 20
-982.5188707778316
 30
0.0
 10
156.8806082904456
 20
-982.5188707778316
 30
0.0
 10
156.8806082904456
 20
-982.5188707778316
 30
0.0
 10
156.8806082882009
 20
-1032.518870765333
 30
0.0
 10
156.8806082882009
 20
-1032.518870765333
 30
0.0
 10
156.8806082844043
 20
-1034.175725063899
 30
0.0
 10
155.5374625341402
 20
-1035.518870814165
 30
0.0
 10
153.8806082851543
 20
-1035.518870814165
 30
0.0
 10
152.2237540361684
 20
-1035.518870814165
 30
0.0
 10
150.8806082859044
 20
-1034.175725063899
 30
0.0
 10
150.8806082859044
 20
-1032.518870814916
 30
0.0
 10
150.8806082859044
 20
-1032.518870814916
 30
0.0
 10
144.8806082900534
 20
-1032.518870814916
 30
0.0
 10
144.8806082900534
 20
-1032.518870814916
 30
0.0
 10
144.8806082900534
 20
-1034.175725063899
 30
0.0
 10
143.5374625397893
 20
-1035.518870814165
 30
0.0
 10
141.8806082908034
 20
-1035.518870814165
 30
0.0
 10
140.2237540418175
 20
-1035.518870814165
 30
0.0
 10
138.8806082915535
 20
-1034.175725063899
 30
0.0
 10
138.8806082927008
 20
-1032.518870764525
 30
0.0
 10
138.8806082927008
 20
-1032.518870764525
 30
0.0
 10
138.8806082949455
 20
-982.5188707770237
 30
0.0
 10
138.8806082949455
 20
-982.5188707770237
 30
0.0
 10
138.8806082949455
 20
-982.5188707770237
 30
0.0
 10
138.7380177190662
 20
-982.5188714498945
 30
0.0
 10
138.7380177190662
 20
-982.5188714498945
 30
0.0
 10
138.7380177190662
 20
-982.5188714498945
 30
0.0
 10
81.49175975461758
 20
-982.5641349115532
 30
0.0
 10
81.49175975461758
 20
-982.5641349115532
 30
0.0
 10
81.49175975461758
 20
-982.5641349115532
 30
0.0
 10
81.49175975461758
 20
-1198.871363104349
 30
0.0
 10
81.49175975461758
 20
-1198.871363104349
 30
0.0
 10
81.49175975461758
 20
-1198.871363104349
 30
0.0
 10
695.5744059272884
 20
-1198.871363104349
 30
0.0
 10
695.5744059272884
 20
-1198.871363104349
 30
0.0
 10
695.5744059272884
 20
-1198.871363104349
 30
0.0
 10
695.5744059272884
 20
-982.5641349115532
 30
0.0
 10
695.5744059272884
 20
-982.5641349115532
 30
0.0
 10
695.5744059272884
 20
-982.5641349115532
 30
0.0
 10
638.7092325896134
 20
-982.5188739521826
 30
0.0
 10
638.7092325896134
 20
-982.5188739521826
 30
0.0
  0
ENDBLK
  5
83
330
80
100
AcDbEntity
  8
0
100
AcDbBlockEnd
  0
BLOCK
  5
87
330
85
100
AcDbEntity
  8
0
100
AcDbBlockBegin
  2
block 6
 70
     0
 10
0.0
 20
0.0
 30
0.0
  3
block 6
  1

  0
INSERT
  5
8A
330
85
100
AcDbEntity
  8
Layer 1
100
AcDbBlockReference
  2
block 7
 10
0.0
 20
0.0
 30
0.0
  0
SPLINE
  5
92
330
85
100
AcDbEntity
  8
Layer 1
 62
   179
420
  2301728
370
    35
100
AcDbSpline
210
0.0
220
0.0
230
1.0
 70
    11
 71
     3
 72
    17
 73
    13
 74
     0
 42
0.0000000001
 43
0.0000000001
 12
1.0
 22
0.0
 32
0.0
 13
1.0
 23
0.0
 33
0.0
 40
0.0
 40
0.0
 40
0.0
 40
0.0
 40
1.0
 40
1.0
 40
1.0
 40
2.0
 40
2.0
 40
2.0
 40
3.0
 40
3.0
 40
3.0
 40
4.0
 40
4.0
 40
4.0
 40
4.0
 10
399.9999992971926
 20
-350.0000032131785
 30
0.0
 10
399.9999992971926
 20
-377.6142406962738
 30
0.0
 10
377.6142367927877
 20
-400.0000032006787
 30
0.0
 10
349.9999993096924
 20
-400.0000032006787
 30
0.0
 10
322.3857618265959
 20
-400.0000032006787
 30
0.0
 10
299.9999993221923
 20
-377.6142406962738
 30
0.0
 10
299.9999993221923
 20
-350.0000032131785
 30
0.0
 10
299.9999993221923
 20
-322.3857657300822
 30
0.0
 10
322.3857618265959
 20
-300.0000032256786
 30
0.0
 10
349.9999993096924
 20
-300.0000032256786
 30
0.0
 10
377.6142367927877
 20
-300.0000032256786
 30
0.0
 10
399.9999992971926
 20
-322.3857657300822
 30
0.0
 10
399.9999992971926
 20
-350.0000032131785
 30
0.0
  0
ENDBLK
  5
88
330
85
100
AcDbEntity
  8
0
100
AcDbBlockEnd
  0
BLOCK
  5
8B
330
89
100
AcDbEntity
  8
0
100
AcDbBlockBegin
  2
block 7
 70
     0
 10
0.0
 20
0.0
 30
0.0
  3
block 7
  1

  0
SPLINE
  5
8D
330
89
100
AcDbEntity
  8
Layer 1
 62
   179
420
  2301728
370
    35
100
AcDbSpline
210
0.0
220
0.0
230
1.0
 70
    11
 71
     3
 72
    29
 73
    25
 74
     0
 42
0.0000000001
 43
0.0000000001
 12
1.0
 22
0.0
 32
0.0
 13
1.0
 23
0.0
 33
0.0
 40
0.0
 40
0.0
 40
0.0
 40
0.0
 40
1.0
 40
1.0
 40
1.0
 40
2.0
 40
2.0
 40
2.0
 40
3.0
 40
3.0
 40
3.0
 40
4.0
 40
4.0
 40
4.0
 40
5.0
 40
5.0
 40
5.0
 40
6.0
 40
6.0
 40
6.0
 40
7.0
 40
7.0
 40
7.0
 40
8.0
 40
8.0
 40
8.0
 40
8.0
 10
225.2101932782622
 20
-699.999999301987
 30
0.0
 10
225.2101932782622
 20
-699.999999301987
 30
0.0
 10
475.2101932157926
 20
-699.999999301987
 30
0.0
 10
475.2101932157926
 20
-699.999999301987
 30
0.0
 10
599.4742618966449
 20
-699.999999301987
 30
0.0
 10
700.2101931595246
 20
-599.2640680391034
 30
0.0
 10
700.2101931595246
 20
-474.9999993582513
 30
0.0
 10
700.2101931595246
 20
-474.9999993582513
 30
0.0
 10
700.2101931595246
 20
-224.9999994207353
 30
0.0
 10
700.2101931595246
 20
-224.9999994207353
 30
0.0
 10
700.2101931595246
 20
-100.7359307398732
 30
0.0
 10
599.4742618966378
 20
0.000000523014877
 30
0.0
 10
475.210193215775
 20
0.000000523014877
 30
0.0
 10
475.210193215775
 20
0.000000523014877
 30
0.0
 10
225.2101932782763
 20
0.000000523014877
 30
0.0
 10
225.2101932782763
 20
0.000000523014877
 30
0.0
 10
100.9461245974132
 20
0.000000523014877
 30
0.0
 10
0.2101933345255023
 20
-100.7359307398732
 30
0.0
 10
0.2101933345255023
 20
-224.9999994207359
 30
0.0
 10
0.2101933345255023
 20
-224.9999994207359
 30
0.0
 10
0.2101933345255023
 20
-474.9999993582478
 30
0.0
 10
0.2101933345255023
 20
-474.9999993582478
 30
0.0
 10
0.2101933345255023
 20
-599.2640680391034
 30
0.0
 10
100.9461245974071
 20
-699.999999301987
 30
0.0
 10
225.2101932782622
 20
-699.999999301987
 30
0.0
  0
SPLINE
  5
8E
330
89
100
AcDbEntity
  8
Layer 1
 62
   179
420
  2301728
370
    35
100
AcDbSpline
210
0.0
220
0.0
230
1.0
 70
    11
 71
     3
 72
    29
 73
    25
 74
     0
 42
0.0000000001
 43
0.0000000001
 12
1.0
 22
0.0
 32
0.0
 13
1.0
 23
0.0
 33
0.0
 40
0.0
 40
0.0
 40
0.0
 40
0.0
 40
1.0
 40
1.0
 40
1.0
 40
2.0
 40
2.0
 40
2.0
 40
3.0
 40
3.0
 40
3.0
 40
4.0
 40
4.0
 40
4.0
 40
5.0
 40
5.0
 40
5.0
 40
6.0
 40
6.0
 40
6.0
 40
7.0
 40
7.0
 40
7.0
 40
8.0
 40
8.0
 40
8.0
 40
8.0
 10
109.2049195336154
 20
-219.7916687036047
 30
0.0
 10
109.2049195336154
 20
-219.7916687036047
 30
0.0
 10
109.2049375339472
 20
-219.7916687036047
 30
0.0
 10
109.2049375339472
 20
-219.7916687036047
 30
0.0
 10
114.1754953104714
 20
-219.7916687053533
 30
0.0
 10
118.2049285323741
 20
-215.7622354849176
 30
0.0
 10
118.2049285324353
 20
-210.7916777083934
 30
0.0
 10
118.2049285324353
 20
-210.7916777083934
 30
0.0
 10
118.2049285336655
 20
-110.7916597349359
 30
0.0
 10
118.2049285336655
 20
-110.7916597349359
 30
0.0
 10
118.2049285337268
 20
-105.8211019572557
 30
0.0
 10
114.1754953117073
 20
-101.7916687354015
 30
0.0
 10
109.2049375340275
 20
-101.7916687356662
 30
0.0
 10
109.2049375340275
 20
-101.7916687356662
 30
0.0
 10
109.2049195339892
 20
-101.7916687356662
 30
0.0
 10
109.2049195339892
 20
-101.7916687356662
 30
0.0
 10
104.2343617587532
 20
-101.7916687359312
 30
0.0
 10
100.2049285389945
 20
-105.8211019559495
 30
0.0
 10
100.2049285390497
 20
-110.7916597311858
 30
0.0
 10
100.2049285390497
 20
-110.7916597311858
 30
0.0
 10
100.2049285401633
 20
-210.7916777070866
 30
0.0
 10
100.2049285401633
 20
-210.7916777070866
 30
0.0
 10
100.2049285402182
 20
-215.7622354818576
 30
0.0
 10
104.2343617588437
 20
-219.7916687018561
 30
0.0
 10
109.2049195336154
 20
-219.7916687036047
 30
0.0
  0
SPLINE
  5
8F
330
89
100
AcDbEntity
  8
Layer 1
 62
   179
420
  2301728
370
    35
100
AcDbSpline
210
0.0
220
0.0
230
1.0
 70
    11
 71
     3
 72
    29
 73
    25
 74
     0
 42
0.0000000001
 43
0.0000000001
 12
1.0
 22
0.0
 32
0.0
 13
1.0
 23
0.0
 33
0.0
 40
0.0
 40
0.0
 40
0.0
 40
0.0
 40
1.0
 40
1.0
 40
1.0
 40
2.0
 40
2.0
 40
2.0
 40
3.0
 40
3.0
 40
3.0
 40
4.0
 40
4.0
 40
4.0
 40
5.0
 40
5.0
 40
5.0
 40
6.0
 40
6.0
 40
6.0
 40
7.0
 40
7.0
 40
7.0
 40
8.0
 40
8.0
 40
8.0
 40
8.0
 10
109.2049195336154
 20
-598.1528761895802
 30
0.0
 10
109.2049195336154
 20
-598.1528761895802
 30
0.0
 10
109.2049375339472
 20
-598.1528761895802
 30
0.0
 10
109.2049375339472
 20
-598.1528761895802
 30
0.0
 10
114.1754953104714
 20
-598.15287619133
 30
0.0
 10
118.2049285323741
 20
-594.1234429708953
 30
0.0
 10
118.2049285324353
 20
-589.1528851943708
 30
0.0
 10
118.2049285324353
 20
-589.1528851943708
 30
0.0
 10
118.2049285336655
 20
-489.1528672209108
 30
0.0
 10
118.2049285336655
 20
-489.1528672209108
 30
0.0
 10
118.2049285337268
 20
-484.1823094432328
 30
0.0
 10
114.1754953117073
 20
-480.1528762213761
 30
0.0
 10
109.2049375340275
 20
-480.1528762216407
 30
0.0
 10
109.2049375340275
 20
-480.1528762216407
 30
0.0
 10
109.2049195339892
 20
-480.1528762216407
 30
0.0
 10
109.2049195339892
 20
-480.1528762216407
 30
0.0
 10
104.2343617587532
 20
-480.152876221909
 30
0.0
 10
100.2049285389945
 20
-484.1823094419241
 30
0.0
 10
100.2049285390497
 20
-489.152867217161
 30
0.0
 10
100.2049285390497
 20
-489.152867217161
 30
0.0
 10
100.2049285401633
 20
-589.152885193062
 30
0.0
 10
100.2049285401633
 20
-589.152885193062
 30
0.0
 10
100.2049285402182
 20
-594.1234429678332
 30
0.0
 10
104.2343617588437
 20
-598.1528761878305
 30
0.0
 10
109.2049195336154
 20
-598.1528761895802
 30
0.0
  0
SPLINE
  5
90
330
89
100
AcDbEntity
  8
Layer 1
 62
   179
420
  2301728
370
    35
100
AcDbSpline
210
0.0
220
0.0
230
1.0
 70
    11
 71
     3
 72
    29
 73
    25
 74
     0
 42
0.0000000001
 43
0.0000000001
 12
1.0
 22
0.0
 32
0.0
 13
1.0
 23
0.0
 33
0.0
 40
0.0
 40
0.0
 40
0.0
 40
0.0
 40
1.0
 40
1.0
 40
1.0
 40
2.0
 40
2.0
 40
2.0
 40
3.0
 40
3.0
 40
3.0
 40
4.0
 40
4.0
 40
4.0
 40
5.0
 40
5.0
 40
5.0
 40
6.0
 40
6.0
 40
6.0
 40
7.0
 40
7.0
 40
7.0
 40
8.0
 40
8.0
 40
8.0
 40
8.0
 10
591.1743108332762
 20
-219.7714933631692
 30
0.0
 10
591.1743108332762
 20
-219.7714933631692
 30
0.0
 10
591.1743288336071
 20
-219.7714933631692
 30
0.0
 10
591.1743288336071
 20
-219.7714933631692
 30
0.0
 10
596.1448866101315
 20
-219.7714933649178
 30
0.0
 10
600.1743198320339
 20
-215.7420601444821
 30
0.0
 10
600.1743198320938
 20
-210.7715023679579
 30
0.0
 10
600.1743198320938
 20
-210.7715023679579
 30
0.0
 10
600.174319833325
 20
-110.7714843945004
 30
0.0
 10
600.174319833325
 20
-110.7714843945004
 30
0.0
 10
600.174319833385
 20
-105.8009266168199
 30
0.0
 10
596.1448866113661
 20
-101.771493394966
 30
0.0
 10
591.1743288336847
 20
-101.7714933952307
 30
0.0
 10
591.1743288336847
 20
-101.7714933952307
 30
0.0
 10
591.17431083365
 20
-101.7714933952307
 30
0.0
 10
591.17431083365
 20
-101.7714933952307
 30
0.0
 10
586.203753058413
 20
-101.7714933954958
 30
0.0
 10
582.1743198386556
 20
-105.8009266155141
 30
0.0
 10
582.1743198387085
 20
-110.7714843907503
 30
0.0
 10
582.1743198387085
 20
-110.7714843907503
 30
0.0
 10
582.1743198398232
 20
-210.7715023666508
 30
0.0
 10
582.1743198398232
 20
-210.7715023666508
 30
0.0
 10
582.174319839876
 20
-215.7420601414221
 30
0.0
 10
586.2037530585048
 20
-219.7714933614206
 30
0.0
 10
591.1743108332762
 20
-219.7714933631692
 30
0.0
  0
SPLINE
  5
91
330
89
100
AcDbEntity
  8
Layer 1
 62
   179
420
  2301728
370
    35
100
AcDbSpline
210
0.0
220
0.0
230
1.0
 70
    11
 71
     3
 72
    29
 73
    25
 74
     0
 42
0.0000000001
 43
0.0000000001
 12
1.0
 22
0.0
 32
0.0
 13
1.0
 23
0.0
 33
0.0
 40
0.0
 40
0.0
 40
0.0
 40
0.0
 40
1.0
 40
1.0
 40
1.0
 40
2.0
 40
2.0
 40
2.0
 40
3.0
 40
3.0
 40
3.0
 40
4.0
 40
4.0
 40
4.0
 40
5.0
 40
5.0
 40
5.0
 40
6.0
 40
6.0
 40
6.0
 40
7.0
 40
7.0
 40
7.0
 40
8.0
 40
8.0
 40
8.0
 40
8.0
 10
591.1743108332762
 20
-598.1327008491472
 30
0.0
 10
591.1743108332762
 20
-598.1327008491472
 30
0.0
 10
591.1743288336071
 20
-598.1327008491472
 30
0.0
 10
591.1743288336071
 20
-598.1327008491472
 30
0.0
 10
596.1448866101315
 20
-598.1327008508933
 30
0.0
 10
600.1743198320339
 20
-594.1032676304582
 30
0.0
 10
600.1743198320938
 20
-589.1327098539338
 30
0.0
 10
600.1743198320938
 20
-589.1327098539338
 30
0.0
 10
600.174319833325
 20
-489.1326918804775
 30
0.0
 10
600.174319833325
 20
-489.1326918804775
 30
0.0
 10
600.174319833385
 20
-484.162134102796
 30
0.0
 10
596.1448866113661
 20
-480.1327008809431
 30
0.0
 10
591.1743288336847
 20
-480.1327008812075
 30
0.0
 10
591.1743288336847
 20
-480.1327008812075
 30
0.0
 10
591.17431083365
 20
-480.1327008812075
 30
0.0
 10
591.17431083365
 20
-480.1327008812075
 30
0.0
 10
586.203753058413
 20
-480.1327008814722
 30
0.0
 10
582.1743198386556
 20
-484.1621341014908
 30
0.0
 10
582.1743198387085
 20
-489.1326918767277
 30
0.0
 10
582.1743198387085
 20
-489.1326918767277
 30
0.0
 10
582.1743198398232
 20
-589.1327098526285
 30
0.0
 10
582.1743198398232
 20
-589.1327098526285
 30
0.0
 10
582.174319839876
 20
-594.1032676273999
 30
0.0
 10
586.2037530585048
 20
-598.1327008473974
 30
0.0
 10
591.1743108332762
 20
-598.1327008491472
 30
0.0
  0
ENDBLK
  5
8C
330
89
100
AcDbEntity
  8
0
100
AcDbBlockEnd
  0
BLOCK
  5
95
330
93
100
AcDbEntity
  8
0
100
AcDbBlockBegin
  2
block 8
 70
     0
 10
0.0
 20
0.0
 30
0.0
  3
block 8
  1

  0
SPLINE
  5
97
330
93
100
AcDbEntity
  8
Layer 1
 62
   179
420
  2301728
370
    35
100
AcDbSpline
210
0.0
220
0.0
230
1.0
 70
    11
 71
     3
 72
    17
 73
    13
 74
     0
 42
0.0000000001
 43
0.0000000001
 12
1.0
 22
0.0
 32
0.0
 13
1.0
 23
0.0
 33
0.0
 40
0.0
 40
0.0
 40
0.0
 40
0.0
 40
1.0
 40
1.0
 40
1.0
 40
2.0
 40
2.0
 40
2.0
 40
3.0
 40
3.0
 40
3.0
 40
4.0
 40
4.0
 40
4.0
 40
4.0
 10
848.955118209635
 20
-713.1551041453869
 30
0.0
 10
848.955118209635
 20
-740.7693416284828
 30
0.0
 10
826.5693557052301
 20
-763.1551041328877
 30
0.0
 10
798.9551182221338
 20
-763.1551041328877
 30
0.0
 10
771.3408807390379
 20
-763.1551041328877
 30
0.0
 10
748.9551182346362
 20
-740.7693416284828
 30
0.0
 10
748.9551182346362
 20
-713.1551041453869
 30
0.0
 10
748.9551182346362
 20
-685.5408666622909
 30
0.0
 10
771.3408807390379
 20
-663.1551041578861
 30
0.0
 10
798.9551182221338
 20
-663.1551041578861
 30
0.0
 10
826.5693557052301
 20
-663.1551041578861
 30
0.0
 10
848.955118209635
 20
-685.5408666622909
 30
0.0
 10
848.955118209635
 20
-713.1551041453869
 30
0.0
  0
SPLINE
  5
98
330
93
100
AcDbEntity
  8
Layer 1
 62
   179
420
  2301728
370
    35
100
AcDbSpline
210
0.0
220
0.0
230
1.0
 70
    11
 71
     3
 72
    41
 73
    37
 74
     0
 42
0.0000000001
 43
0.0000000001
 12
1.0
 22
0.0
 32
0.0
 13
1.0
 23
0.0
 33
0.0
 40
0.0
 40
0.0
 40
0.0
 40
0.0
 40
1.0
 40
1.0
 40
1.0
 40
2.0
 40
2.0
 40
2.0
 40
3.0
 40
3.0
 40
3.0
 40
4.0
 40
4.0
 40
4.0
 40
5.0
 40
5.0
 40
5.0
 40
6.0
 40
6.0
 40
6.0
 40
7.0
 40
7.0
 40
7.0
 40
8.0
 40
8.0
 40
8.0
 40
9.0
 40
9.0
 40
9.0
 40
10.0
 40
10.0
 40
10.0
 40
11.0
 40
11.0
 40
11.0
 40
12.0
 40
12.0
 40
12.0
 40
12.0
 10
789.9551147953425
 20
-738.155101512779
 30
0.0
 10
789.9551147953425
 20
-738.155101512779
 30
0.0
 10
789.9551147953425
 20
-688.1551015252782
 30
0.0
 10
789.9551147953425
 20
-688.1551015252782
 30
0.0
 10
788.2982609028204
 20
-688.1551015049266
 30
0.0
 10
786.9551151526144
 20
-686.8119557546004
 30
0.0
 10
786.9551151526886
 20
-685.1551015056176
 30
0.0
 10
786.9551151527627
 20
-683.4982472566317
 30
0.0
 10
788.2982609030887
 20
-682.1551015064255
 30
0.0
 10
789.9551151520747
 20
-682.1551015064998
 30
0.0
 10
789.9551151520747
 20
-682.1551015064998
 30
0.0
 10
807.95511510778
 20
-682.1551016514314
 30
0.0
 10
807.95511510778
 20
-682.1551016514314
 30
0.0
 10
809.6119688030285
 20
-682.1551015064325
 30
0.0
 10
810.9551145532909
 20
-683.4982472566985
 30
0.0
 10
810.9551145532909
 20
-685.155101505685
 30
0.0
 10
810.9551145532909
 20
-686.811955754671
 30
0.0
 10
809.6119688030285
 20
-688.1551015049337
 30
0.0
 10
807.9551145540426
 20
-688.1551015049337
 30
0.0
 10
807.9551145540426
 20
-688.1551015049337
 30
0.0
 10
807.9551144687549
 20
-738.155101512779
 30
0.0
 10
807.9551144687549
 20
-738.155101512779
 30
0.0
 10
809.6119688030285
 20
-738.1551010314919
 30
0.0
 10
810.9551145532909
 20
-739.4982467817539
 30
0.0
 10
810.9551145532909
 20
-741.1551010307405
 30
0.0
 10
810.9551145532909
 20
-742.8119552797265
 30
0.0
 10
809.6119688030285
 20
-744.1551010299924
 30
0.0
 10
807.9551145540426
 20
-744.1551010299924
 30
0.0
 10
807.9551145540426
 20
-744.1551010299924
 30
0.0
 10
789.9551144789361
 20
-744.15510170293
 30
0.0
 10
789.9551144789361
 20
-744.15510170293
 30
0.0
 10
788.2982602299496
 20
-744.1551017028555
 30
0.0
 10
786.955114479744
 20
-742.81195595253
 30
0.0
 10
786.9551144798178
 20
-741.155101703544
 30
0.0
 10
786.9551144798954
 20
-739.4982474545574
 30
0.0
 10
788.2982602302178
 20
-738.1551017043549
 30
0.0
 10
789.9551147953425
 20
-738.155101512779
 30
0.0
  0
ENDBLK
  5
96
330
93
100
AcDbEntity
  8
0
100
AcDbBlockEnd
  0
BLOCK
  5
9B
330
99
100
AcDbEntity
  8
0
100
AcDbBlockBegin
  2
block 9
 70
     0
 10
0.0
 20
0.0
 30
0.0
  3
block 9
  1

  0
SPLINE
  5
9D
330
99
100
AcDbEntity
  8
Layer 1
 62
   179
420
  2301728
370
    35
100
AcDbSpline
210
0.0
220
0.0
230
1.0
 70
    11
 71
     3
 72
    17
 73
    13
 74
     0
 42
0.0000000001
 43
0.0000000001
 12
1.0
 22
0.0
 32
0.0
 13
1.0
 23
0.0
 33
0.0
 40
0.0
 40
0.0
 40
0.0
 40
0.0
 40
1.0
 40
1.0
 40
1.0
 40
2.0
 40
2.0
 40
2.0
 40
3.0
 40
3.0
 40
3.0
 40
4.0
 40
4.0
 40
4.0
 40
4.0
 10
873.91063043375
 20
-850.4027746425393
 30
0.0
 10
873.91063043375
 20
-891.8241308671854
 30
0.0
 10
840.3319866771428
 20
-925.4027746237889
 30
0.0
 10
798.9106304525004
 20
-925.4027746237889
 30
0.0
 10
757.4892742278543
 20
-925.4027746237889
 30
0.0
 10
723.9106304712469
 20
-891.8241308671854
 30
0.0
 10
723.9106304712469
 20
-850.4027746425393
 30
0.0
 10
723.9106304712469
 20
-808.9814184178938
 30
0.0
 10
757.4892742278543
 20
-775.4027746612896
 30
0.0
 10
798.9106304525004
 20
-775.4027746612896
 30
0.0
 10
840.3319866771428
 20
-775.4027746612896
 30
0.0
 10
873.91063043375
 20
-808.9814184178938
 30
0.0
 10
873.91063043375
 20
-850.4027746425393
 30
0.0
  0
SPLINE
  5
9E
330
99
100
AcDbEntity
  8
Layer 1
 62
   179
420
  2301728
370
    35
100
AcDbSpline
210
0.0
220
0.0
230
1.0
 70
    11
 71
     3
 72
    41
 73
    37
 74
     0
 42
0.0000000001
 43
0.0000000001
 12
1.0
 22
0.0
 32
0.0
 13
1.0
 23
0.0
 33
0.0
 40
0.0
 40
0.0
 40
0.0
 40
0.0
 40
1.0
 40
1.0
 40
1.0
 40
2.0
 40
2.0
 40
2.0
 40
3.0
 40
3.0
 40
3.0
 40
4.0
 40
4.0
 40
4.0
 40
5.0
 40
5.0
 40
5.0
 40
6.0
 40
6.0
 40
6.0
 40
7.0
 40
7.0
 40
7.0
 40
8.0
 40
8.0
 40
8.0
 40
9.0
 40
9.0
 40
9.0
 40
10.0
 40
10.0
 40
10.0
 40
11.0
 40
11.0
 40
11.0
 40
12.0
 40
12.0
 40
12.0
 40
12.0
 10
789.9106417751183
 20
-875.402773391512
 30
0.0
 10
789.9106417751183
 20
-875.402773391512
 30
0.0
 10
789.9106417751183
 20
-825.4027734040105
 30
0.0
 10
789.9106417751183
 20
-825.4027734040105
 30
0.0
 10
788.2537878825965
 20
-825.402773383659
 30
0.0
 10
786.9106421323902
 20
-824.0596276333366
 30
0.0
 10
786.9106421324647
 20
-822.4027733843507
 30
0.0
 10
786.9106421325384
 20
-820.7459191353641
 30
0.0
 10
788.2537878828645
 20
-819.4027733851584
 30
0.0
 10
789.9106421318506
 20
-819.4027733852361
 30
0.0
 10
789.9106421318506
 20
-819.4027733852361
 30
0.0
 10
807.9106420875561
 20
-819.4027735301638
 30
0.0
 10
807.9106420875561
 20
-819.4027735301638
 30
0.0
 10
809.5674957828045
 20
-819.4027733851656
 30
0.0
 10
810.9106415330666
 20
-820.7459191354309
 30
0.0
 10
810.9106415330666
 20
-822.4027733844174
 30
0.0
 10
810.9106415330666
 20
-824.0596276334039
 30
0.0
 10
809.5674957828045
 20
-825.402773383666
 30
0.0
 10
807.9106415338183
 20
-825.402773383666
 30
0.0
 10
807.9106415338183
 20
-825.402773383666
 30
0.0
 10
807.9106414485271
 20
-875.402773391512
 30
0.0
 10
807.9106414485271
 20
-875.402773391512
 30
0.0
 10
809.5674957828045
 20
-875.4027729102243
 30
0.0
 10
810.9106415330666
 20
-876.7459186604901
 30
0.0
 10
810.9106415330666
 20
-878.4027729094761
 30
0.0
 10
810.9106415330666
 20
-880.0596271584589
 30
0.0
 10
809.5674957828045
 20
-881.4027729087247
 30
0.0
 10
807.9106415338183
 20
-881.4027729087247
 30
0.0
 10
807.9106415338183
 20
-881.4027729087247
 30
0.0
 10
789.9106414587084
 20
-881.4027735816624
 30
0.0
 10
789.9106414587084
 20
-881.4027735816624
 30
0.0
 10
788.2537872097257
 20
-881.4027735815886
 30
0.0
 10
786.9106414595198
 20
-880.0596278312623
 30
0.0
 10
786.9106414595938
 20
-878.4027735822764
 30
0.0
 10
786.9106414596679
 20
-876.7459193332904
 30
0.0
 10
788.2537872099939
 20
-875.4027735830874
 30
0.0
 10
789.9106417751183
 20
-875.402773391512
 30
0.0
  0
ENDBLK
  5
9C
330
99
100
AcDbEntity
  8
0
100
AcDbBlockEnd
  0
BLOCK
  5
A1
330
9F
100
AcDbEntity
  8
0
100
AcDbBlockBegin
  2
block 10
 70
     0
 10
0.0
 20
0.0
 30
0.0
  3
block 10
  1

  0
SPLINE
  5
A3
330
9F
100
AcDbEntity
  8
Layer 1
 62
   179
420
  2301728
370
    35
100
AcDbSpline
210
0.0
220
0.0
230
1.0
 70
    11
 71
     3
 72
    29
 73
    25
 74
     0
 42
0.0000000001
 43
0.0000000001
 12
1.0
 22
0.0
 32
0.0
 13
1.0
 23
0.0
 33
0.0
 40
0.0
 40
0.0
 40
0.0
 40
0.0
 40
1.0
 40
1.0
 40
1.0
 40
2.0
 40
2.0
 40
2.0
 40
3.0
 40
3.0
 40
3.0
 40
4.0
 40
4.0
 40
4.0
 40
5.0
 40
5.0
 40
5.0
 40
6.0
 40
6.0
 40
6.0
 40
7.0
 40
7.0
 40
7.0
 40
8.0
 40
8.0
 40
8.0
 40
8.0
 10
1457.306555338505
 20
-879.342745313604
 30
0.0
 10
1457.306555338505
 20
-879.342745313604
 30
0.0
 10
1759.901684572675
 20
-879.342745313604
 30
0.0
 10
1759.901684572675
 20
-879.342745313604
 30
0.0
 10
1884.165753253531
 20
-879.342745313604
 30
0.0
 10
1984.901684516407
 20
-778.606814050724
 30
0.0
 10
1984.901684516407
 20
-654.3427453698686
 30
0.0
 10
1984.901684516407
 20
-654.3427453698686
 30
0.0
 10
1984.901684516407
 20
-351.7476161357083
 30
0.0
 10
1984.901684516407
 20
-351.7476161357083
 30
0.0
 10
1984.901684516407
 20
-227.4835474548462
 30
0.0
 10
1884.165753253521
 20
-126.7476161919582
 30
0.0
 10
1759.901684572658
 20
-126.7476161919582
 30
0.0
 10
1759.901684572658
 20
-126.7476161919582
 30
0.0
 10
1457.306555338516
 20
-126.7476161919582
 30
0.0
 10
1457.306555338516
 20
-126.7476161919582
 30
0.0
 10
1333.042486657654
 20
-126.7476161919582
 30
0.0
 10
1232.306555394767
 20
-227.4835474548459
 30
0.0
 10
1232.306555394767
 20
-351.747616135709
 30
0.0
 10
1232.306555394767
 20
-351.747616135709
 30
0.0
 10
1232.306555394767
 20
-654.3427453698648
 30
0.0
 10
1232.306555394767
 20
-654.3427453698648
 30
0.0
 10
1232.306555394767
 20
-778.6068140507201
 30
0.0
 10
1333.04248665765
 20
-879.342745313604
 30
0.0
 10
1457.306555338505
 20
-879.342745313604
 30
0.0
  0
SPLINE
  5
A4
330
9F
100
AcDbEntity
  8
Layer 1
 62
   179
420
  2301728
370
    35
100
AcDbSpline
210
0.0
220
0.0
230
1.0
 70
    11
 71
     3
 72
    41
 73
    37
 74
     0
 42
0.0000000001
 43
0.0000000001
 12
1.0
 22
0.0
 32
0.0
 13
1.0
 23
0.0
 33
0.0
 40
0.0
 40
0.0
 40
0.0
 40
0.0
 40
1.0
 40
1.0
 40
1.0
 40
2.0
 40
2.0
 40
2.0
 40
3.0
 40
3.0
 40
3.0
 40
4.0
 40
4.0
 40
4.0
 40
5.0
 40
5.0
 40
5.0
 40
6.0
 40
6.0
 40
6.0
 40
7.0
 40
7.0
 40
7.0
 40
8.0
 40
8.0
 40
8.0
 40
9.0
 40
9.0
 40
9.0
 40
10.0
 40
10.0
 40
10.0
 40
11.0
 40
11.0
 40
11.0
 40
12.0
 40
12.0
 40
12.0
 40
12.0
 10
1599.604112845479
 20
-528.0451859607164
 30
0.0
 10
1599.604112845479
 20
-528.0451859607164
 30
0.0
 10
1599.604112845479
 20
-478.0451859732191
 30
0.0
 10
1599.604112845479
 20
-478.0451859732191
 30
0.0
 10
1597.947258952958
 20
-478.0451859528673
 30
0.0
 10
1596.604113202752
 20
-476.7020402025414
 30
0.0
 10
1596.604113202829
 20
-475.0451859535586
 30
0.0
 10
1596.604113202904
 20
-473.3883317045689
 30
0.0
 10
1597.947258953226
 20
-472.0451859543667
 30
0.0
 10
1599.604113202213
 20
-472.0451859544406
 30
0.0
 10
1599.604113202213
 20
-472.0451859544406
 30
0.0
 10
1617.60411315792
 20
-472.0451860993725
 30
0.0
 10
1617.60411315792
 20
-472.0451860993725
 30
0.0
 10
1619.260966853166
 20
-472.0451859543738
 30
0.0
 10
1620.604112603432
 20
-473.3883317046394
 30
0.0
 10
1620.604112603432
 20
-475.0451859536257
 30
0.0
 10
1620.604112603432
 20
-476.7020402026084
 30
0.0
 10
1619.260966853166
 20
-478.0451859528744
 30
0.0
 10
1617.604112604179
 20
-478.0451859528744
 30
0.0
 10
1617.604112604179
 20
-478.0451859528744
 30
0.0
 10
1617.604112518892
 20
-528.0451859607164
 30
0.0
 10
1617.604112518892
 20
-528.0451859607164
 30
0.0
 10
1619.260966853166
 20
-528.0451854794325
 30
0.0
 10
1620.604112603432
 20
-529.3883312296946
 30
0.0
 10
1620.604112603432
 20
-531.0451854786812
 30
0.0
 10
1620.604112603432
 20
-532.702039727667
 30
0.0
 10
1619.260966853166
 20
-534.045185477933
 30
0.0
 10
1617.604112604179
 20
-534.045185477933
 30
0.0
 10
1617.604112604179
 20
-534.045185477933
 30
0.0
 10
1599.604112529073
 20
-534.045186150871
 30
0.0
 10
1599.604112529073
 20
-534.045186150871
 30
0.0
 10
1597.947258280087
 20
-534.0451861507934
 30
0.0
 10
1596.604112529884
 20
-532.7020404004709
 30
0.0
 10
1596.604112529959
 20
-531.0451861514847
 30
0.0
 10
1596.604112530033
 20
-529.3883319024984
 30
0.0
 10
1597.947258280358
 20
-528.045186152296
 30
0.0
 10
1599.604112845479
 20
-528.0451859607164
 30
0.0
  0
ENDBLK
  5
A2
330
9F
100
AcDbEntity
  8
0
100
AcDbBlockEnd
  0
ENDSEC
  0
SECTION
  2
ENTITIES
  0
POLYLINE
  5
41
330
1F
100
AcDbEntity
  8
Layer 1
 62
   179
420
  2301728
370
    35
100
AcDb2dPolyline
 66
     1
 10
0.0
 20
0.0
 30
0.0
  0
VERTEX
  5
42
330
41
100
AcDbEntity
  8
Layer 1
 62
   179
420
  2301728
370
    35
100
AcDbVertex
100
AcDb2dVertex
 10
582.1743198398232
 20
-210.7715023666508
 30
0.0
  0
VERTEX
  5
AC
330
41
100
AcDbEntity
  8
0
100
AcDbVertex
100
AcDb2dVertex
 10
582.1743198398232
 20
-210.7715023666508
 30
0.0
  0
SEQEND
  5
43
330
41
100
AcDbEntity
  8
Layer 1
 62
   179
420
  2301728
370
    35
  0
POLYLINE
  5
44
330
1F
100
AcDbEntity
  8
Layer 1
 62
   179
420
  2301728
370
    35
100
AcDb2dPolyline
 66
     1
 10
0.0
 20
0.0
 30
0.0
  0
VERTEX
  5
45
330
44
100
AcDbEntity
  8
Layer 1
 62
   179
420
  2301728
370
    35
100
AcDbVertex
100
AcDb2dVertex
 10
582.1743198398232
 20
-110.3477952107402
 30
0.0
  0
VERTEX
  5
AD
330
44
100
AcDbEntity
  8
0
100
AcDbVertex
100
AcDb2dVertex
 10
582.1743198398232
 20
-110.3477952107402
 30
0.0
  0
SEQEND
  5
46
330
44
100
AcDbEntity
  8
Layer 1
 62
   179
420
  2301728
370
    35
  0
POLYLINE
  5
47
330
1F
100
AcDbEntity
  8
Layer 1
 62
   179
420
  2301728
370
    35
100
AcDb2dPolyline
 66
     1
 10
0.0
 20
0.0
 30
0.0
  0
VERTEX
  5
48
330
47
100
AcDbEntity
  8
Layer 1
 62
   179
420
  2301728
370
    35
100
AcDbVertex
100
AcDb2dVertex
 10
414.0317383810513
 20
-196.8993642288315
 30
0.0
  0
VERTEX
  5
AE
330
47
100
AcDbEntity
  8
0
100
AcDbVertex
100
AcDb2dVertex
 10
414.0317383810513
 20
-196.8993642288315
 30
0.0
  0
SEQEND
  5
49
330
47
100
AcDbEntity
  8
Layer 1
 62
   179
420
  2301728
370
    35
  0
POLYLINE
  5
4A
330
1F
100
AcDbEntity
  8
Layer 1
 62
   179
420
  2301728
370
    35
100
AcDb2dPolyline
 66
     1
 10
0.0
 20
0.0
 30
0.0
  0
VERTEX
  5
4B
330
4A
100
AcDbEntity
  8
Layer 1
 62
   179
420
  2301728
370
    35
100
AcDbVertex
100
AcDb2dVertex
 10
414.0317384450169
 20
-503.0451811685482
 30
0.0
  0
VERTEX
  5
AF
330
4A
100
AcDbEntity
  8
0
100
AcDbVertex
100
AcDb2dVertex
 10
414.0317384450169
 20
-503.0451811685482
 30
0.0
  0
SEQEND
  5
4C
330
4A
100
AcDbEntity
  8
Layer 1
 62
   179
420
  2301728
370
    35
  0
POLYLINE
  5
4D
330
1F
100
AcDbEntity
  8
Layer 1
 62
   179
420
  2301728
370
    35
100
AcDb2dPolyline
 66
     1
 10
0.0
 20
0.0
 30
0.0
  0
VERTEX
  5
4E
330
4D
100
AcDbEntity
  8
Layer 1
 62
   179
420
  2301728
370
    35
100
AcDbVertex
100
AcDb2dVertex
 10
414.0317384450169
 20
-482.2605714830984
 30
0.0
  0
VERTEX
  5
B0
330
4D
100
AcDbEntity
  8
0
100
AcDbVertex
100
AcDb2dVertex
 10
414.0317384450169
 20
-482.2605714830984
 30
0.0
  0
SEQEND
  5
4F
330
4D
100
AcDbEntity
  8
Layer 1
 62
   179
420
  2301728
370
    35
  0
POLYLINE
  5
50
330
1F
100
AcDbEntity
  8
Layer 1
 62
   179
420
  2301728
370
    35
100
AcDb2dPolyline
 66
     1
 10
0.0
 20
0.0
 30
0.0
  0
VERTEX
  5
51
330
50
100
AcDbEntity
  8
Layer 1
 62
   179
420
  2301728
370
    35
100
AcDbVertex
100
AcDb2dVertex
 10
467.7904057282405
 20
-222.8854673036118
 30
0.0
  0
VERTEX
  5
B1
330
50
100
AcDbEntity
  8
0
100
AcDbVertex
100
AcDb2dVertex
 10
467.7904057282405
 20
-222.8854673036118
 30
0.0
  0
SEQEND
  5
52
330
50
100
AcDbEntity
  8
Layer 1
 62
   179
420
  2301728
370
    35
  0
POLYLINE
  5
53
330
1F
100
AcDbEntity
  8
Layer 1
 62
   179
420
  2301728
370
    35
100
AcDb2dPolyline
 66
     1
 10
0.0
 20
0.0
 30
0.0
  0
VERTEX
  5
54
330
53
100
AcDbEntity
  8
Layer 1
 62
   179
420
  2301728
370
    35
100
AcDbVertex
100
AcDb2dVertex
 10
464.7904057289919
 20
-225.8854673028618
 30
0.0
  0
VERTEX
  5
B2
330
53
100
AcDbEntity
  8
0
100
AcDbVertex
100
AcDb2dVertex
 10
464.7904057289919
 20
-225.8854673028618
 30
0.0
  0
SEQEND
  5
55
330
53
100
AcDbEntity
  8
Layer 1
 62
   179
420
  2301728
370
    35
  0
POLYLINE
  5
56
330
1F
100
AcDbEntity
  8
Layer 1
 62
   179
420
  2301728
370
    35
100
AcDb2dPolyline
 66
     1
 10
0.0
 20
0.0
 30
0.0
  0
VERTEX
  5
57
330
56
100
AcDbEntity
  8
Layer 1
 62
   179
420
  2301728
370
    35
100
AcDbVertex
100
AcDb2dVertex
 10
457.3254438157946
 20
-235.7571908757449
 30
0.0
  0
VERTEX
  5
B3
330
56
100
AcDbEntity
  8
0
100
AcDbVertex
100
AcDb2dVertex
 10
457.3254438157946
 20
-235.7571908757449
 30
0.0
  0
SEQEND
  5
58
330
56
100
AcDbEntity
  8
Layer 1
 62
   179
420
  2301728
370
    35
  0
POLYLINE
  5
59
330
1F
100
AcDbEntity
  8
Layer 1
 62
   179
420
  2301728
370
    35
100
AcDb2dPolyline
 66
     1
 10
0.0
 20
0.0
 30
0.0
  0
VERTEX
  5
5A
330
59
100
AcDbEntity
  8
Layer 1
 62
   179
420
  2301728
370
    35
100
AcDbVertex
100
AcDb2dVertex
 10
454.32544381662
 20
-240.9533432971973
 30
0.0
  0
VERTEX
  5
B4
330
59
100
AcDbEntity
  8
0
100
AcDbVertex
100
AcDb2dVertex
 10
454.32544381662
 20
-240.9533432971973
 30
0.0
  0
SEQEND
  5
5B
330
59
100
AcDbEntity
  8
Layer 1
 62
   179
420
  2301728
370
    35
  0
POLYLINE
  5
5C
330
1F
100
AcDbEntity
  8
Layer 1
 62
   179
420
  2301728
370
    35
100
AcDb2dPolyline
 66
     1
 10
0.0
 20
0.0
 30
0.0
  0
VERTEX
  5
5D
330
5C
100
AcDbEntity
  8
Layer 1
 62
   179
420
  2301728
370
    35
100
AcDbVertex
100
AcDb2dVertex
 10
414.0317384450169
 20
-503.0451811685482
 30
0.0
  0
VERTEX
  5
B5
330
5C
100
AcDbEntity
  8
0
100
AcDbVertex
100
AcDb2dVertex
 10
414.0317384450169
 20
-503.0451811685482
 30
0.0
  0
SEQEND
  5
5E
330
5C
100
AcDbEntity
  8
Layer 1
 62
   179
420
  2301728
370
    35
  0
POLYLINE
  5
5F
330
1F
100
AcDbEntity
  8
Layer 1
 62
   179
420
  2301728
370
    35
100
AcDb2dPolyline
 66
     1
 10
0.0
 20
0.0
 30
0.0
  0
VERTEX
  5
60
330
5F
100
AcDbEntity
  8
Layer 1
 62
   179
420
  2301728
370
    35
100
AcDbVertex
100
AcDb2dVertex
 10
457.3330086237867
 20
-478.0451811754449
 30
0.0
  0
VERTEX
  5
B6
330
5F
100
AcDbEntity
  8
0
100
AcDbVertex
100
AcDb2dVertex
 10
457.3330086237867
 20
-478.0451811754449
 30
0.0
  0
SEQEND
  5
61
330
5F
100
AcDbEntity
  8
Layer 1
 62
   179
420
  2301728
370
    35
  0
POLYLINE
  5
62
330
1F
100
AcDbEntity
  8
Layer 1
 62
   179
420
  2301728
370
    35
100
AcDb2dPolyline
 66
     1
 10
0.0
 20
0.0
 30
0.0
  0
VERTEX
  5
63
330
62
100
AcDbEntity
  8
Layer 1
 62
   179
420
  2301728
370
    35
100
AcDbVertex
100
AcDb2dVertex
 10
457.3330086237867
 20
-457.2605714899951
 30
0.0
  0
VERTEX
  5
B7
330
62
100
AcDbEntity
  8
0
100
AcDbVertex
100
AcDb2dVertex
 10
457.3330086237867
 20
-457.2605714899951
 30
0.0
  0
SEQEND
  5
64
330
62
100
AcDbEntity
  8
Layer 1
 62
   179
420
  2301728
370
    35
  0
POLYLINE
  5
65
330
1F
100
AcDbEntity
  8
Layer 1
 62
   179
420
  2301728
370
    35
100
AcDb2dPolyline
 66
     1
 10
0.0
 20
0.0
 30
0.0
  0
VERTEX
  5
66
330
65
100
AcDbEntity
  8
Layer 1
 62
   179
420
  2301728
370
    35
100
AcDbVertex
100
AcDb2dVertex
 10
414.0317384450169
 20
-482.2605714830984
 30
0.0
  0
VERTEX
  5
B8
330
65
100
AcDbEntity
  8
0
100
AcDbVertex
100
AcDb2dVertex
 10
414.0317384450169
 20
-482.2605714830984
 30
0.0
  0
SEQEND
  5
67
330
65
100
AcDbEntity
  8
Layer 1
 62
   179
420
  2301728
370
    35
  0
INSERT
  5
69
330
1F
100
AcDbEntity
  8
Layer 1
100
AcDbBlockReference
  2
block 2
 10
0.0
 20
0.0
 30
0.0
  0
INSERT
  5
6E
330
1F
100
AcDbEntity
  8
Layer 1
100
AcDbBlockReference
  2
block 3
 10
0.0
 20
0.0
 30
0.0
  0
POLYLINE
  5
72
330
1F
100
AcDbEntity
  8
Layer 1
 62
   179
420
  2301728
370
    35
100
AcDb2dPolyline
 66
     1
 10
0.0
 20
0.0
 30
0.0
  0
VERTEX
  5
73
330
72
100
AcDbEntity
  8
Layer 1
 62
   179
420
  2301728
370
    35
100
AcDbVertex
100
AcDb2dVertex
 10
599.9641282462896
 20
-240.9533432623527
 30
0.0
  0
VERTEX
  5
B9
330
72
100
AcDbEntity
  8
0
100
AcDbVertex
100
AcDb2dVertex
 10
599.9641282462896
 20
-240.9533432623527
 30
0.0
  0
SEQEND
  5
74
330
72
100
AcDbEntity
  8
Layer 1
 62
   179
420
  2301728
370
    35
  0
POLYLINE
  5
75
330
1F
100
AcDbEntity
  8
Layer 1
 62
   179
420
  2301728
370
    35
100
AcDb2dPolyline
 66
     1
 10
0.0
 20
0.0
 30
0.0
  0
VERTEX
  5
76
330
75
100
AcDbEntity
  8
Layer 1
 62
   179
420
  2301728
370
    35
100
AcDbVertex
100
AcDb2dVertex
 10
581.9641282507877
 20
-240.9533432615445
 30
0.0
  0
VERTEX
  5
BA
330
75
100
AcDbEntity
  8
0
100
AcDbVertex
100
AcDb2dVertex
 10
581.9641282507877
 20
-240.9533432615445
 30
0.0
  0
SEQEND
  5
77
330
75
100
AcDbEntity
  8
Layer 1
 62
   179
420
  2301728
370
    35
  0
POLYLINE
  5
78
330
1F
100
AcDbEntity
  8
Layer 1
 62
   179
420
  2301728
370
    35
100
AcDb2dPolyline
 66
     1
 10
0.0
 20
0.0
 30
0.0
  0
VERTEX
  5
79
330
78
100
AcDbEntity
  8
Layer 1
 62
   179
420
  2301728
370
    35
100
AcDbVertex
100
AcDb2dVertex
 10
565.9656941864449
 20
-290.4317189192147
 30
0.0
  0
VERTEX
  5
BB
330
78
100
AcDbEntity
  8
0
100
AcDbVertex
100
AcDb2dVertex
 10
565.9656941864449
 20
-290.4317189192147
 30
0.0
  0
SEQEND
  5
7A
330
78
100
AcDbEntity
  8
Layer 1
 62
   179
420
  2301728
370
    35
  0
INSERT
  5
7C
330
1F
100
AcDbEntity
  8
Layer 1
100
AcDbBlockReference
  2
block 4
 10
0.0
 20
0.0
 30
0.0
  0
INSERT
  5
81
330
1F
100
AcDbEntity
  8
Layer 1
100
AcDbBlockReference
  2
block 5
 10
0.0
 20
0.0
 30
0.0
  0
INSERT
  5
86
330
1F
100
AcDbEntity
  8
Layer 1
100
AcDbBlockReference
  2
block 6
 10
0.0
 20
0.0
 30
0.0
  0
INSERT
  5
94
330
1F
100
AcDbEntity
  8
Layer 1
100
AcDbBlockReference
  2
block 8
 10
0.0
 20
0.0
 30
0.0
  0
INSERT
  5
9A
330
1F
100
AcDbEntity
  8
Layer 1
100
AcDbBlockReference
  2
block 9
 10
0.0
 20
0.0
 30
0.0
  0
INSERT
  5
A0
330
1F
100
AcDbEntity
  8
Layer 1
100
AcDbBlockReference
  2
block 10
 10
0.0
 20
0.0
 30
0.0
  0
POLYLINE
  5
A5
330
1F
100
AcDbEntity
  8
Layer 1
 62
   179
420
  2301728
370
    35
100
AcDb2dPolyline
 66
     1
 10
0.0
 20
0.0
 30
0.0
  0
VERTEX
  5
A6
330
A5
100
AcDbEntity
  8
Layer 1
 62
   179
420
  2301728
370
    35
100
AcDbVertex
100
AcDb2dVertex
 10
961.3890533384761
 20
-771.6550938893644
 30
0.0
  0
VERTEX
  5
A7
330
A5
100
AcDbEntity
  8
Layer 1
 62
   179
420
  2301728
370
    35
100
AcDbVertex
100
AcDb2dVertex
 10
911.3890533509749
 20
-771.6550938893644
 30
0.0
  0
VERTEX
  5
A8
330
A5
100
AcDbEntity
  8
Layer 1
 62
   179
420
  2301728
370
    35
100
AcDbVertex
100
AcDb2dVertex
 10
911.3890533509749
 20
-716.6550939031154
 30
0.0
  0
VERTEX
  5
A9
330
A5
100
AcDbEntity
  8
Layer 1
 62
   179
420
  2301728
370
    35
100
AcDbVertex
100
AcDb2dVertex
 10
961.3890533384761
 20
-716.6550939031154
 30
0.0
  0
VERTEX
  5
AA
330
A5
100
AcDbEntity
  8
Layer 1
 62
   179
420
  2301728
370
    35
100
AcDbVertex
100
AcDb2dVertex
 10
961.3890533384761
 20
-771.6550938893644
 30
0.0
  0
SEQEND
  5
AB
330
A5
100
AcDbEntity
  8
Layer 1
 62
   179
420
  2301728
370
    35
  0
ENDSEC
  0
SECTION
  2
OBJECTS
  0
DICTIONARY
  5
C
330
0
100
AcDbDictionary
281
     1
  3
ACAD_GROUP
350
D
  3
ACAD_LAYOUT
350
1A
  3
ACAD_MATERIAL
350
3B
  3
ACAD_MLEADERSTYLE
350
BD
  3
ACAD_MLINESTYLE
350
17
  3
ACAD_PLOTSETTINGS
350
19
  3
ACAD_PLOTSTYLENAME
350
E
  3
ACAD_TABLESTYLE
350
BC
  3
ACAD_VISUALSTYLE
350
2A
  0
SUN
  5
3F
330
29
100
AcDbSun
 90
        1
290
     0
 63
     7
421
 16777215
 40
1.0
291
     1
 91
  2455826
 92
 54000000
292
     0
 70
     2
 71
   256
280
     1
  0
DICTIONARY
  5
D
102
{ACAD_REACTORS
330
C
102
}
330
C
100
AcDbDictionary
281
     1
  0
DICTIONARY
  5
1A
102
{ACAD_REACTORS
330
C
102
}
330
C
100
AcDbDictionary
281
     1
  3
Layout1
350
1E
  3
Layout2
350
26
  3
Model
350
22
  0
DICTIONARY
  5
3B
102
{ACAD_REACTORS
330
C
102
}
330
C
100
AcDbDictionary
281
     1
  3
ByBlock
350
3D
  3
ByLayer
350
3C
  3
Global
350
3E
  0
DICTIONARY
  5
BD
102
{ACAD_REACTORS
330
C
102
}
330
C
100
AcDbDictionary
281
     1
  0
DICTIONARY
  5
17
102
{ACAD_REACTORS
330
C
102
}
330
C
100
AcDbDictionary
281
     1
  3
Standard
350
18
  0
DICTIONARY
  5
19
102
{ACAD_REACTORS
330
C
102
}
330
C
100
AcDbDictionary
281
     1
  0
ACDBDICTIONARYWDFLT
  5
E
102
{ACAD_REACTORS
330
C
102
}
330
C
100
AcDbDictionary
281
     1
  3
Normal
350
F
100
AcDbDictionaryWithDefault
340
F
  0
DICTIONARY
  5
BC
102
{ACAD_REACTORS
330
C
102
}
330
C
100
AcDbDictionary
281
     1
  0
DICTIONARY
  5
2A
102
{ACAD_REACTORS
330
C
102
}
330
C
100
AcDbDictionary
281
     1
  3
2dWireframe
350
2F
  3
3D Hidden
350
31
  3
3dWireframe
350
30
  3
Basic
350
32
  3
Brighten
350
36
  3
ColorChange
350
3A
  3
Conceptual
350
34
  3
Dim
350
35
  3
Facepattern
350
39
  3
Flat
350
2B
  3
FlatWithEdges
350
2C
  3
Gouraud
350
2D
  3
GouraudWithEdges
350
2E
  3
Linepattern
350
38
  3
Realistic
350
33
  3
Thicken
350
37
  0
LAYOUT
  5
1E
102
{ACAD_REACTORS
330
1A
102
}
330
1A
100
AcDbPlotSettings
  1

  2
none_device
  4

  6

 40
0.0
 41
0.0
 42
0.0
 43
0.0
 44
0.0
 45
0.0
 46
0.0
 47
0.0
 48
0.0
 49
0.0
140
0.0
141
0.0
142
1.0
143
1.0
 70
   688
 72
     0
 73
     0
 74
     5
  7

 75
    16
 76
     0
 77
     2
 78
   300
147
1.0
148
0.0
149
0.0
100
AcDbLayout
  1
Layout1
 70
     1
 71
     1
 10
0.0
 20
0.0
 11
12.0
 21
9.0
 12
0.0
 22
0.0
 32
0.0
 14
1.000000000000000E+20
 24
1.000000000000000E+20
 34
1.000000000000000E+20
 15
-1.000000000000000E+20
 25
-1.000000000000000E+20
 35
-1.000000000000000E+20
146
0.0
 13
0.0
 23
0.0
 33
0.0
 16
1.0
 26
0.0
 36
0.0
 17
0.0
 27
1.0
 37
0.0
 76
     0
330
1B
  0
LAYOUT
  5
26
102
{ACAD_REACTORS
330
1A
102
}
330
1A
100
AcDbPlotSettings
  1

  2
none_device
  4

  6

 40
0.0
 41
0.0
 42
0.0
 43
0.0
 44
0.0
 45
0.0
 46
0.0
 47
0.0
 48
0.0
 49
0.0
140
0.0
141
0.0
142
1.0
143
1.0
 70
   688
 72
     0
 73
     0
 74
     5
  7

 75
    16
 76
     0
 77
     2
 78
   300
147
1.0
148
0.0
149
0.0
100
AcDbLayout
  1
Layout2
 70
     1
 71
     2
 10
0.0
 20
0.0
 11
0.0
 21
0.0
 12
0.0
 22
0.0
 32
0.0
 14
0.0
 24
0.0
 34
0.0
 15
0.0
 25
0.0
 35
0.0
146
0.0
 13
0.0
 23
0.0
 33
0.0
 16
1.0
 26
0.0
 36
0.0
 17
0.0
 27
1.0
 37
0.0
 76
     0
330
23
  0
LAYOUT
  5
22
102
{ACAD_REACTORS
330
1A
102
}
330
1A
100
AcDbPlotSettings
  1

  2
none_device
  4

  6

 40
0.0
 41
0.0
 42
0.0
 43
0.0
 44
0.0
 45
0.0
 46
0.0
 47
0.0
 48
0.0
 49
0.0
140
0.0
141
0.0
142
1.0
143
1.0
 70
  1712
 72
     0
 73
     0
 74
     0
  7

 75
     0
 76
     0
 77
     2
 78
   300
147
1.0
148
0.0
149
0.0
100
AcDbLayout
  1
Model
 70
     1
 71
     0
 10
0.0
 20
0.0
 11
12.0
 21
9.0
 12
0.0
 22
0.0
 32
0.0
 14
1.000000000000000E+20
 24
1.000000000000000E+20
 34
1.000000000000000E+20
 15
-1.000000000000000E+20
 25
-1.000000000000000E+20
 35
-1.000000000000000E+20
146
0.0
 13
0.0
 23
0.0
 33
0.0
 16
1.0
 26
0.0
 36
0.0
 17
0.0
 27
1.0
 37
0.0
 76
     0
330
1F
331
29
  0
MATERIAL
  5
3D
102
{ACAD_REACTORS
330
3B
102
}
330
3B
100
AcDbMaterial
  1
ByBlock
 72
     1
 94
      127
  0
MATERIAL
  5
3C
102
{ACAD_REACTORS
330
3B
102
}
330
3B
100
AcDbMaterial
  1
ByLayer
 72
     1
 94
      127
  0
MATERIAL
  5
3E
102
{ACAD_REACTORS
330
3B
102
}
330
3B
100
AcDbMaterial
  1
Global
 72
     1
 94
      127
  0
MLINESTYLE
  5
18
102
{ACAD_REACTORS
330
17
102
}
330
17
100
AcDbMlineStyle
  2
Standard
 70
     0
  3

 62
   256
 51
90.0
 52
90.0
 71
     2
 49
0.5
 62
   256
  6
BYLAYER
 49
-0.5
 62
   256
  6
BYLAYER
  0
ACDBPLACEHOLDER
  5
F
102
{ACAD_REACTORS
330
E
102
}
330
E
  0
VISUALSTYLE
  5
2F
102
{ACAD_REACTORS
330
2A
102
}
330
2A
100
AcDbVisualStyle
  2
2dWireframe
 70
     4
177
     2
291
     0
 71
     0
176
     1
 72
     2
176
     1
 73
     0
176
     1
 90
        0
176
     1
 40
-0.6
176
     1
 41
-30.0
176
     1
 62
     5
 63
     7
421
 16777215
176
     1
 74
     1
176
     1
 91
        4
176
     1
 64
     7
176
     1
 65
   257
176
     1
 75
     1
176
     1
175
     1
176
     1
 42
1.0
176
     1
 92
        0
176
     1
 66
   257
176
     1
 43
1.0
176
     1
 76
     1
176
     1
 77
     6
176
     1
 78
     2
176
     1
 67
     7
176
     1
 79
     5
176
     1
170
     0
176
     1
171
     0
176
     1
290
     0
176
     1
 93
        1
176
     1
 44
0.0
176
     1
173
     0
176
     1
  0
VISUALSTYLE
  5
31
102
{ACAD_REACTORS
330
2A
102
}
330
2A
100
AcDbVisualStyle
  2
3D Hidden
 70
     6
177
     2
291
     0
 71
     1
176
     1
 72
     2
176
     1
 73
     2
176
     1
 90
        0
176
     1
 40
-0.6
176
     1
 41
-30.0
176
     1
 62
     5
 63
     7
421
 16777215
176
     1
 74
     2
176
     1
 91
        2
176
     1
 64
     7
176
     1
 65
   257
176
     1
 75
     2
176
     1
175
     1
176
     1
 42
40.0
176
     1
 92
        0
176
     1
 66
   257
176
     1
 43
1.0
176
     1
 76
     1
176
     1
 77
     6
176
     1
 78
     2
176
     1
 67
     7
176
     1
 79
     3
176
     1
170
     0
176
     1
171
     0
176
     1
290
     0
176
     1
 93
        1
176
     1
 44
0.0
176
     1
173
     0
176
     1
  0
VISUALSTYLE
  5
30
102
{ACAD_REACTORS
330
2A
102
}
330
2A
100
AcDbVisualStyle
  2
3dWireframe
 70
     5
177
     2
291
     0
 71
     0
176
     1
 72
     2
176
     1
 73
     0
176
     1
 90
        0
176
     1
 40
-0.6
176
     1
 41
-30.0
176
     1
 62
     5
 63
     7
421
 16777215
176
     1
 74
     1
176
     1
 91
        4
176
     1
 64
     7
176
     1
 65
   257
176
     1
 75
     1
176
     1
175
     1
176
     1
 42
1.0
176
     1
 92
        0
176
     1
 66
   257
176
     1
 43
1.0
176
     1
 76
     1
176
     1
 77
     6
176
     1
 78
     2
176
     1
 67
     7
176
     1
 79
     5
176
     1
170
     0
176
     1
171
     0
176
     1
290
     0
176
     1
 93
        1
176
     1
 44
0.0
176
     1
173
     0
176
     1
  0
VISUALSTYLE
  5
32
102
{ACAD_REACTORS
330
2A
102
}
330
2A
100
AcDbVisualStyle
  2
Basic
 70
     7
177
     2
291
     1
 71
     1
176
     1
 72
     0
176
     1
 73
     1
176
     1
 90
        0
176
     1
 40
-0.6
176
     1
 41
-30.0
176
     1
 62
     5
 63
     7
421
 16777215
176
     1
 74
     0
176
     1
 91
        4
176
     1
 64
     7
176
     1
 65
   257
176
     1
 75
     1
176
     1
175
     1
176
     1
 42
1.0
176
     1
 92
        8
176
     1
 66
     7
176
     1
 43
1.0
176
     1
 76
     1
176
     1
 77
     6
176
     1
 78
     2
176
     1
 67
     7
176
     1
 79
     5
176
     1
170
     0
176
     1
171
     0
176
     1
290
     0
176
     1
 93
        1
176
     1
 44
0.0
176
     1
173
     0
176
     1
  0
VISUALSTYLE
  5
36
102
{ACAD_REACTORS
330
2A
102
}
330
2A
100
AcDbVisualStyle
  2
Brighten
 70
    12
177
     2
291
     1
 71
     2
176
     1
 72
     2
176
     1
 73
     0
176
     1
 90
        0
176
     1
 40
-0.6
176
     1
 41
-30.0
176
     1
 62
     5
 63
     7
421
 16777215
176
     1
 74
     1
176
     1
 91
        4
176
     1
 64
     7
176
     1
 65
   257
176
     1
 75
     1
176
     1
175
     1
176
     1
 42
1.0
176
     1
 92
        8
176
     1
 66
     7
176
     1
 43
1.0
176
     1
 76
     1
176
     1
 77
     6
176
     1
 78
     2
176
     1
 67
     7
176
     1
 79
     5
176
     1
170
     0
176
     1
171
     0
176
     1
290
     0
176
     1
 93
        1
176
     1
 44
50.0
176
     1
173
     0
176
     1
  0
VISUALSTYLE
  5
3A
102
{ACAD_REACTORS
330
2A
102
}
330
2A
100
AcDbVisualStyle
  2
ColorChange
 70
    16
177
     2
291
     1
 71
     2
176
     1
 72
     2
176
     1
 73
     3
176
     1
 90
        0
176
     1
 40
-0.6
176
     1
 41
-30.0
176
     1
 62
     5
 63
     8
421
  8421504
176
     1
 74
     1
176
     1
 91
        4
176
     1
 64
     7
176
     1
 65
   257
176
     1
 75
     1
176
     1
175
     1
176
     1
 42
1.0
176
     1
 92
        8
176
     1
 66
     8
424
  8421504
176
     1
 43
1.0
176
     1
 76
     1
176
     1
 77
     6
176
     1
 78
     2
176
     1
 67
     7
176
     1
 79
     5
176
     1
170
     0
176
     1
171
     0
176
     1
290
     0
176
     1
 93
        1
176
     1
 44
0.0
176
     1
173
     0
176
     1
  0
VISUALSTYLE
  5
34
102
{ACAD_REACTORS
330
2A
102
}
330
2A
100
AcDbVisualStyle
  2
Conceptual
 70
     9
177
     2
291
     0
 71
     3
176
     1
 72
     2
176
     1
 73
     0
176
     1
 90
        0
176
     1
 40
-0.6
176
     1
 41
-30.0
176
     1
 62
     5
 63
     7
421
 16777215
176
     1
 74
     2
176
     1
 91
        2
176
     1
 64
     7
176
     1
 65
   257
176
     1
 75
     1
176
     1
175
     1
176
     1
 42
40.0
176
     1
 92
        8
176
     1
 66
     7
176
     1
 43
1.0
176
     1
 76
     1
176
     1
 77
     6
176
     1
 78
     2
176
     1
 67
     7
176
     1
 79
     3
176
     1
170
     0
176
     1
171
     0
176
     1
290
     0
176
     1
 93
        1
176
     1
 44
0.0
176
     1
173
     0
176
     1
  0
VISUALSTYLE
  5
35
102
{ACAD_REACTORS
330
2A
102
}
330
2A
100
AcDbVisualStyle
  2
Dim
 70
    11
177
     2
291
     1
 71
     2
176
     1
 72
     2
176
     1
 73
     0
176
     1
 90
        0
176
     1
 40
-0.6
176
     1
 41
-30.0
176
     1
 62
     5
 63
     7
421
 16777215
176
     1
 74
     1
176
     1
 91
        4
176
     1
 64
     7
176
     1
 65
   257
176
     1
 75
     1
176
     1
175
     1
176
     1
 42
1.0
176
     1
 92
        8
176
     1
 66
     7
176
     1
 43
1.0
176
     1
 76
     1
176
     1
 77
     6
176
     1
 78
     2
176
     1
 67
     7
176
     1
 79
     5
176
     1
170
     0
176
     1
171
     0
176
     1
290
     0
176
     1
 93
        1
176
     1
 44
-50.0
176
     1
173
     0
176
     1
  0
VISUALSTYLE
  5
39
102
{ACAD_REACTORS
330
2A
102
}
330
2A
100
AcDbVisualStyle
  2
Facepattern
 70
    15
177
     2
291
     1
 71
     2
176
     1
 72
     2
176
     1
 73
     0
176
     1
 90
        0
176
     1
 40
-0.6
176
     1
 41
-30.0
176
     1
 62
     5
 63
     7
421
 16777215
176
     1
 74
     1
176
     1
 91
        4
176
     1
 64
     7
176
     1
 65
   257
176
     1
 75
     1
176
     1
175
     1
176
     1
 42
1.0
176
     1
 92
        8
176
     1
 66
     7
176
     1
 43
1.0
176
     1
 76
     1
176
     1
 77
     6
176
     1
 78
     2
176
     1
 67
     7
176
     1
 79
     5
176
     1
170
     0
176
     1
171
     0
176
     1
290
     0
176
     1
 93
        1
176
     1
 44
0.0
176
     1
173
     0
176
     1
  0
VISUALSTYLE
  5
2B
102
{ACAD_REACTORS
330
2A
102
}
330
2A
100
AcDbVisualStyle
  2
Flat
 70
     0
177
     2
291
     1
 71
     2
176
     1
 72
     1
176
     1
 73
     1
176
     1
 90
        2
176
     1
 40
-0.6
176
     1
 41
30.0
176
     1
 62
     5
 63
     7
421
 16777215
176
     1
 74
     0
176
     1
 91
        4
176
     1
 64
     7
176
     1
 65
   257
176
     1
 75
     1
176
     1
175
     1
176
     1
 42
1.0
176
     1
 92
        8
176
     1
 66
     7
176
     1
 43
1.0
176
     1
 76
     1
176
     1
 77
     6
176
     1
 78
     2
176
     1
 67
     7
176
     1
 79
     5
176
     1
170
     0
176
     1
171
     0
176
     1
290
     0
176
     1
 93
       13
176
     1
 44
0.0
176
     1
173
     0
176
     1
  0
VISUALSTYLE
  5
2C
102
{ACAD_REACTORS
330
2A
102
}
330
2A
100
AcDbVisualStyle
  2
FlatWithEdges
 70
     1
177
     2
291
     1
 71
     2
176
     1
 72
     1
176
     1
 73
     1
176
     1
 90
        2
176
     1
 40
-0.6
176
     1
 41
30.0
176
     1
 62
     5
 63
     7
421
 16777215
176
     1
 74
     1
176
     1
 91
        4
176
     1
 64
     7
176
     1
 65
   257
176
     1
 75
     1
176
     1
175
     1
176
     1
 42
1.0
176
     1
 92
        0
176
     1
 66
   257
176
     1
 43
1.0
176
     1
 76
     1
176
     1
 77
     6
176
     1
 78
     2
176
     1
 67
     7
176
     1
 79
     5
176
     1
170
     0
176
     1
171
     0
176
     1
290
     0
176
     1
 93
       13
176
     1
 44
0.0
176
     1
173
     0
176
     1
  0
VISUALSTYLE
  5
2D
102
{ACAD_REACTORS
330
2A
102
}
330
2A
100
AcDbVisualStyle
  2
Gouraud
 70
     2
177
     2
291
     1
 71
     2
176
     1
 72
     2
176
     1
 73
     1
176
     1
 90
        2
176
     1
 40
-0.6
176
     1
 41
30.0
176
     1
 62
     5
 63
     7
421
 16777215
176
     1
 74
     0
176
     1
 91
        4
176
     1
 64
     7
176
     1
 65
   257
176
     1
 75
     1
176
     1
175
     1
176
     1
 42
1.0
176
     1
 92
        0
176
     1
 66
     7
176
     1
 43
1.0
176
     1
 76
     1
176
     1
 77
     6
176
     1
 78
     2
176
     1
 67
     7
176
     1
 79
     5
176
     1
170
     0
176
     1
171
     0
176
     1
290
     0
176
     1
 93
       13
176
     1
 44
0.0
176
     1
173
     0
176
     1
  0
VISUALSTYLE
  5
2E
102
{ACAD_REACTORS
330
2A
102
}
330
2A
100
AcDbVisualStyle
  2
GouraudWithEdges
 70
     3
177
     2
291
     1
 71
     2
176
     1
 72
     2
176
     1
 73
     1
176
     1
 90
        2
176
     1
 40
-0.6
176
     1
 41
30.0
176
     1
 62
     5
 63
     7
421
 16777215
176
     1
 74
     1
176
     1
 91
        4
176
     1
 64
     7
176
     1
 65
   257
176
     1
 75
     1
176
     1
175
     1
176
     1
 42
1.0
176
     1
 92
        0
176
     1
 66
   257
176
     1
 43
1.0
176
     1
 76
     1
176
     1
 77
     6
176
     1
 78
     2
176
     1
 67
     7
176
     1
 79
     5
176
     1
170
     0
176
     1
171
     0
176
     1
290
     0
176
     1
 93
       13
176
     1
 44
0.0
176
     1
173
     0
176
     1
  0
VISUALSTYLE
  5
38
102
{ACAD_REACTORS
330
2A
102
}
330
2A
100
AcDbVisualStyle
  2
Linepattern
 70
    14
177
     2
291
     1
 71
     2
176
     1
 72
     2
176
     1
 73
     0
176
     1
 90
        0
176
     1
 40
-0.6
176
     1
 41
-30.0
176
     1
 62
     5
 63
     7
421
 16777215
176
     1
 74
     1
176
     1
 91
        4
176
     1
 64
     7
176
     1
 65
   257
176
     1
 75
     7
176
     1
175
     7
176
     1
 42
1.0
176
     1
 92
        8
176
     1
 66
     7
176
     1
 43
1.0
176
     1
 76
     1
176
     1
 77
     6
176
     1
 78
     2
176
     1
 67
     7
176
     1
 79
     5
176
     1
170
     0
176
     1
171
     0
176
     1
290
     0
176
     1
 93
        1
176
     1
 44
0.0
176
     1
173
     0
176
     1
  0
VISUALSTYLE
  5
33
102
{ACAD_REACTORS
330
2A
102
}
330
2A
100
AcDbVisualStyle
  2
Realistic
 70
     8
177
     2
291
     0
 71
     2
176
     1
 72
     2
176
     1
 73
     0
176
     1
 90
        0
176
     1
 40
-0.6
176
     1
 41
-30.0
176
     1
 62
     5
 63
     7
421
 16777215
176
     1
 74
     1
176
     1
 91
        0
176
     1
 64
     7
176
     1
 65
   257
176
     1
 75
     1
176
     1
175
     1
176
     1
 42
1.0
176
     1
 92
        8
176
     1
 66
     8
424
  7895160
176
     1
 43
1.0
176
     1
 76
     1
176
     1
 77
     6
176
     1
 78
     2
176
     1
 67
     7
176
     1
 79
     5
176
     1
170
     0
176
     1
171
     0
176
     1
290
     0
176
     1
 93
       13
176
     1
 44
0.0
176
     1
173
     0
176
     1
  0
VISUALSTYLE
  5
37
102
{ACAD_REACTORS
330
2A
102
}
330
2A
100
AcDbVisualStyle
  2
Thicken
 70
    13
177
     2
291
     1
 71
     2
176
     1
 72
     2
176
     1
 73
     0
176
     1
 90
        0
176
     1
 40
-0.6
176
     1
 41
-30.0
176
     1
 62
     5
 63
     7
421
 16777215
176
     1
 74
     1
176
     1
 91
        4
176
     1
 64
     7
176
     1
 65
   257
176
     1
 75
     1
176
     1
175
     1
176
     1
 42
1.0
176
     1
 92
       12
176
     1
 66
     7
176
     1
 43
1.0
176
     1
 76
     1
176
     1
 77
     6
176
     1
 78
     2
176
     1
 67
     7
176
     1
 79
     5
176
     1
170
     0
176
     1
171
     0
176
     1
290
     0
176
     1
 93
        1
176
     1
 44
0.0
176
     1
173
     0
176
     1
  0
ENDSEC
  0
EOF
