  0
SECTION
  2
HEADER
  9
$ACADVER
  1
AC1014
  9
$HANDSEED
  5
FFFF
  9
$MEASUREMENT
 70
     1
  0
ENDSEC
  0
SECTION
  2
TABLES
  0
TABLE
  2
VPORT
  5
8
330
0
100
AcDbSymbolTable
 70
     4
  0
VPORT
  5
2E
330
8
100
AcDbSymbolTableRecord
100
AcDbViewportTableRecord
  2
*ACTIVE
 70
     0
 10
0.0
 20
0.0
 11
1.0
 21
1.0
 12
210.0
 22
148.5
 13
0.0
 23
0.0
 14
10.0
 24
10.0
 15
10.0
 25
10.0
 16
0.0
 26
0.0
 36
1.0
 17
0.0
 27
0.0
 37
0.0
 40
341.0
 41
1.24
 42
50.0
 43
0.0
 44
0.0
 50
0.0
 51
0.0
 71
     0
 72
   100
 73
     1
 74
     3
 75
     0
 76
     0
 77
     0
 78
     0
  0
ENDTAB
  0
TABLE
  2
LTYPE
  5
5
330
0
100
AcDbSymbolTable
 70
     1
  0
LTYPE
  5
14
330
5
100
AcDbSymbolTableRecord
100
AcDbLinetypeTableRecord
  2
BYBLOCK
 70
     0
  3

 72
    65
 73
     0
 40
0.0
  0
LTYPE
  5
15
330
5
100
AcDbSymbolTableRecord
100
AcDbLinetypeTableRecord
  2
BYLAYER
 70
     0
  3

 72
    65
 73
     0
 40
0.0
  0
LTYPE
  5
16
330
5
100
AcDbSymbolTableRecord
100
AcDbLinetypeTableRecord
  2
CONTINUOUS
 70
     0
  3
Solid line
 72
    65
 73
     0
 40
0.0
  0
ENDTAB
  0
TABLE
  2
LAYER
  5
2
100
AcDbSymbolTable
 70
2
  0
LAYER
  5
50
100
AcDbSymbolTableRecord
100
AcDbLayerTableRecord
  2
0
 70
0
  6
CONTINUOUS
  0
LAYER
  5
51
100
AcDbSymbolTableRecord
100
AcDbLayerTableRecord
  2
Layer_1
 70
0
  6
CONTINUOUS
  0
ENDTAB
  0
TABLE
  2
STYLE
  5
3
330
0
100
AcDbSymbolTable
 70
     1
  0
STYLE
  5
11
330
3
100
AcDbSymbolTableRecord
100
AcDbTextStyleTableRecord
  2
STANDARD
 70
     0
 40
0.0
 41
1.0
 50
0.0
 71
     0
 42
2.5
  3
txt
  4

  0
ENDTAB
  0
TABLE
  2
VIEW
  5
6
330
0
100
AcDbSymbolTable
 70
     0
  0
ENDTAB
  0
TABLE
  2
UCS
  5
7
330
0
100
AcDbSymbolTable
 70
     0
  0
ENDTAB
  0
TABLE
  2
APPID
  5
9
330
0
100
AcDbSymbolTable
 70
     2
  0
APPID
  5
12
330
9
100
AcDbSymbolTableRecord
100
AcDbRegAppTableRecord
  2
ACAD
 70
     0
  0
ENDTAB
  0
TABLE
  2
DIMSTYLE
  5
A
330
0
100
AcDbSymbolTable
 70
     1
  0
DIMSTYLE
105
27
330
A
100
AcDbSymbolTableRecord
100
AcDbDimStyleTableRecord
  2
ISO-25
 70
     0
  3

  4

  5

  6

  7

 40
1.0
 41
2.5
 42
0.625
 43
3.75
 44
1.25
 45
0.0
 46
0.0
 47
0.0
 48
0.0
140
2.5
141
2.5
142
0.0
143
0.03937007874016
144
1.0
145
0.0
146
1.0
147
0.625
 71
     0
 72
     0
 73
     0
 74
     0
 75
     0
 76
     0
 77
     1
 78
     8
170
     0
171
     3
172
     1
173
     0
174
     0
175
     0
176
     0
177
     0
178
     0
270
     2
271
     2
272
     2
273
     2
274
     3
340
11
275
     0
280
     0
281
     0
282
     0
283
     0
284
     8
285
     0
286
     0
287
     3
288
     0
  0
ENDTAB
  0
TABLE
  2
BLOCK_RECORD
  5
1
330
0
100
AcDbSymbolTable
 70
     1
  0
BLOCK_RECORD
  5
1F
330
1
100
AcDbSymbolTableRecord
100
AcDbBlockTableRecord
  2
*MODEL_SPACE
  0
BLOCK_RECORD
  5
1B
330
1
100
AcDbSymbolTableRecord
100
AcDbBlockTableRecord
  2
*PAPER_SPACE
  0
ENDTAB
  0
ENDSEC
  0
SECTION
  2
BLOCKS
  0
BLOCK
  5
20
330
1F
100
AcDbEntity
  8
0
100
AcDbBlockBegin
  2
*MODEL_SPACE
 70
     0
 10
0.0
 20
0.0
 30
0.0
  3
*MODEL_SPACE
  1

  0
ENDBLK
  5
21
330
1F
100
AcDbEntity
  8
0
100
AcDbBlockEnd
  0
BLOCK
  5
1C
330
1B
100
AcDbEntity
 67
     1
  8
0
100
AcDbBlockBegin
  2
*PAPER_SPACE
  1

  0
ENDBLK
  5
1D
330
1B
100
AcDbEntity
 67
     1
  8
0
100
AcDbBlockEnd
  0
ENDSEC
  0
SECTION
  2
ENTITIES
  0
LINE
  5
100
100
AcDbEntity
  8
Layer_1
 62
7
100
AcDbLine
 10
-2.803440
 20
-24.787084
 30
0.0
 11
-4.644146
 21
-24.386819
 31
0.0
  0
LINE
  5
101
100
AcDbEntity
  8
Layer_1
 62
7
100
AcDbLine
 10
-4.644146
 20
-24.386819
 30
0.0
 11
-6.563913
 21
-23.788500
 31
0.0
  0
LINE
  5
102
100
AcDbEntity
  8
Layer_1
 62
7
100
AcDbLine
 10
-6.563913
 20
-23.788500
 30
0.0
 11
-10.495687
 21
-22.072549
 31
0.0
  0
LINE
  5
103
100
AcDbEntity
  8
Layer_1
 62
7
100
AcDbLine
 10
-10.495687
 20
-22.072549
 30
0.0
 11
-14.308880
 21
-19.788932
 31
0.0
  0
LINE
  5
104
100
AcDbEntity
  8
Layer_1
 62
7
100
AcDbLine
 10
-14.308880
 20
-19.788932
 30
0.0
 11
-16.080421
 21
-18.481028
 31
0.0
  0
LINE
  5
105
100
AcDbEntity
  8
Layer_1
 62
7
100
AcDbLine
 10
-16.080421
 20
-18.481028
 30
0.0
 11
-17.713610
 21
-17.087345
 31
0.0
  0
LINE
  5
106
100
AcDbEntity
  8
Layer_1
 62
7
100
AcDbLine
 10
-17.713610
 20
-17.087345
 30
0.0
 11
-20.354239
 21
-14.317879
 31
0.0
  0
LINE
  5
107
100
AcDbEntity
  8
Layer_1
 62
7
100
AcDbLine
 10
-20.354239
 20
-14.317879
 30
0.0
 11
-21.412924
 21
-12.903138
 31
0.0
  0
LINE
  5
108
100
AcDbEntity
  8
Layer_1
 62
7
100
AcDbLine
 10
-21.412924
 20
-12.903138
 30
0.0
 11
-22.316480
 21
-11.433431
 31
0.0
  0
LINE
  5
109
100
AcDbEntity
  8
Layer_1
 62
7
100
AcDbLine
 10
-22.316480
 20
-11.433431
 30
0.0
 11
-23.079371
 21
-9.882535
 31
0.0
  0
LINE
  5
10a
100
AcDbEntity
  8
Layer_1
 62
7
100
AcDbLine
 10
-23.079371
 20
-9.882535
 30
0.0
 11
-23.716067
 21
-8.224228
 31
0.0
  0
LINE
  5
10b
100
AcDbEntity
  8
Layer_1
 62
7
100
AcDbLine
 10
-23.716067
 20
-8.224228
 30
0.0
 11
-24.668734
 21
-4.480495
 31
0.0
  0
LINE
  5
10c
100
AcDbEntity
  8
Layer_1
 62
7
100
AcDbLine
 10
-24.668734
 20
-4.480495
 30
0.0
 11
-24.961174
 21
-1.625692
 31
0.0
  0
LINE
  5
10d
100
AcDbEntity
  8
Layer_1
 62
7
100
AcDbLine
 10
-24.961174
 20
-1.625692
 30
0.0
 11
-24.970557
 21
1.831777
 31
0.0
  0
LINE
  5
10e
100
AcDbEntity
  8
Layer_1
 62
7
100
AcDbLine
 10
-24.970557
 20
1.831777
 30
0.0
 11
-24.718816
 21
5.268040
 31
0.0
  0
LINE
  5
10f
100
AcDbEntity
  8
Layer_1
 62
7
100
AcDbLine
 10
-24.718816
 20
5.268040
 30
0.0
 11
-24.227882
 21
8.059224
 31
0.0
  0
LINE
  5
110
100
AcDbEntity
  8
Layer_1
 62
7
100
AcDbLine
 10
-24.227882
 20
8.059224
 30
0.0
 11
-23.246799
 21
11.010844
 31
0.0
  0
LINE
  5
111
100
AcDbEntity
  8
Layer_1
 62
7
100
AcDbLine
 10
-23.246799
 20
11.010844
 30
0.0
 11
-22.799110
 21
11.605021
 31
0.0
  0
LINE
  5
112
100
AcDbEntity
  8
Layer_1
 62
7
100
AcDbLine
 10
-22.799110
 20
11.605021
 30
0.0
 11
-22.125445
 21
11.609174
 31
0.0
  0
LINE
  5
113
100
AcDbEntity
  8
Layer_1
 62
7
100
AcDbLine
 10
-22.125445
 20
11.609174
 30
0.0
 11
-20.899731
 21
11.135953
 31
0.0
  0
LINE
  5
114
100
AcDbEntity
  8
Layer_1
 62
7
100
AcDbLine
 10
-20.899731
 20
11.135953
 30
0.0
 11
-20.440420
 21
10.806350
 31
0.0
  0
LINE
  5
115
100
AcDbEntity
  8
Layer_1
 62
7
100
AcDbLine
 10
-20.440420
 20
10.806350
 30
0.0
 11
-20.201629
 21
10.483864
 31
0.0
  0
LINE
  5
116
100
AcDbEntity
  8
Layer_1
 62
7
100
AcDbLine
 10
-20.201629
 20
10.483864
 30
0.0
 11
-19.951918
 21
-0.310125
 31
0.0
  0
LINE
  5
117
100
AcDbEntity
  8
Layer_1
 62
7
100
AcDbLine
 10
-19.951918
 20
-0.310125
 30
0.0
 11
-19.791987
 21
-10.830555
 31
0.0
  0
LINE
  5
118
100
AcDbEntity
  8
Layer_1
 62
7
100
AcDbLine
 10
-19.791987
 20
-10.830555
 30
0.0
 11
-16.675007
 21
-12.857035
 31
0.0
  0
LINE
  5
119
100
AcDbEntity
  8
Layer_1
 62
7
100
AcDbLine
 10
-16.675007
 20
-12.857035
 30
0.0
 11
-14.433938
 21
-14.249336
 31
0.0
  0
LINE
  5
11a
100
AcDbEntity
  8
Layer_1
 62
7
100
AcDbLine
 10
-14.433938
 20
-14.249336
 30
0.0
 11
-13.422866
 21
-14.751095
 31
0.0
  0
LINE
  5
11b
100
AcDbEntity
  8
Layer_1
 62
7
100
AcDbLine
 10
-13.422866
 20
-14.751095
 30
0.0
 11
-13.299167
 21
-14.103173
 31
0.0
  0
LINE
  5
11c
100
AcDbEntity
  8
Layer_1
 62
7
100
AcDbLine
 10
-13.299167
 20
-14.103173
 30
0.0
 11
-13.291103
 21
-12.905051
 31
0.0
  0
LINE
  5
11d
100
AcDbEntity
  8
Layer_1
 62
7
100
AcDbLine
 10
-13.291103
 20
-12.905051
 30
0.0
 11
-13.379553
 21
-11.722951
 31
0.0
  0
LINE
  5
11e
100
AcDbEntity
  8
Layer_1
 62
7
100
AcDbLine
 10
-13.379553
 20
-11.722951
 30
0.0
 11
-13.545396
 21
-11.123095
 31
0.0
  0
LINE
  5
11f
100
AcDbEntity
  8
Layer_1
 62
7
100
AcDbLine
 10
-13.545396
 20
-11.123095
 30
0.0
 11
-14.702420
 21
-9.603845
 31
0.0
  0
LINE
  5
120
100
AcDbEntity
  8
Layer_1
 62
7
100
AcDbLine
 10
-14.702420
 20
-9.603845
 30
0.0
 11
-15.553993
 21
-8.107695
 31
0.0
  0
LINE
  5
121
100
AcDbEntity
  8
Layer_1
 62
7
100
AcDbLine
 10
-15.553993
 20
-8.107695
 30
0.0
 11
-16.171657
 21
-6.581063
 31
0.0
  0
LINE
  5
122
100
AcDbEntity
  8
Layer_1
 62
7
100
AcDbLine
 10
-16.171657
 20
-6.581063
 30
0.0
 11
-16.554599
 21
-5.063577
 31
0.0
  0
LINE
  5
123
100
AcDbEntity
  8
Layer_1
 62
7
100
AcDbLine
 10
-16.554599
 20
-5.063577
 30
0.0
 11
-16.702004
 21
-3.594863
 31
0.0
  0
LINE
  5
124
100
AcDbEntity
  8
Layer_1
 62
7
100
AcDbLine
 10
-16.702004
 20
-3.594863
 30
0.0
 11
-16.613060
 21
-2.214546
 31
0.0
  0
LINE
  5
125
100
AcDbEntity
  8
Layer_1
 62
7
100
AcDbLine
 10
-16.613060
 20
-2.214546
 30
0.0
 11
-16.286954
 21
-0.962254
 31
0.0
  0
LINE
  5
126
100
AcDbEntity
  8
Layer_1
 62
7
100
AcDbLine
 10
-16.286954
 20
-0.962254
 30
0.0
 11
-15.722872
 21
0.122389
 31
0.0
  0
LINE
  5
127
100
AcDbEntity
  8
Layer_1
 62
7
100
AcDbLine
 10
-15.722872
 20
0.122389
 30
0.0
 11
-14.920001
 21
0.999754
 31
0.0
  0
LINE
  5
128
100
AcDbEntity
  8
Layer_1
 62
7
100
AcDbLine
 10
-14.920001
 20
0.999754
 30
0.0
 11
-14.251965
 21
1.466392
 31
0.0
  0
LINE
  5
129
100
AcDbEntity
  8
Layer_1
 62
7
100
AcDbLine
 10
-14.251965
 20
1.466392
 30
0.0
 11
-13.565101
 21
1.730354
 31
0.0
  0
LINE
  5
12a
100
AcDbEntity
  8
Layer_1
 62
7
100
AcDbLine
 10
-13.565101
 20
1.730354
 30
0.0
 11
-12.732346
 21
1.821322
 31
0.0
  0
LINE
  5
12b
100
AcDbEntity
  8
Layer_1
 62
7
100
AcDbLine
 10
-12.732346
 20
1.821322
 30
0.0
 11
-11.626640
 21
1.768974
 31
0.0
  0
LINE
  5
12c
100
AcDbEntity
  8
Layer_1
 62
7
100
AcDbLine
 10
-11.626640
 20
1.768974
 30
0.0
 11
-10.633039
 21
1.589051
 31
0.0
  0
LINE
  5
12d
100
AcDbEntity
  8
Layer_1
 62
7
100
AcDbLine
 10
-10.633039
 20
1.589051
 30
0.0
 11
-9.660912
 21
1.238720
 31
0.0
  0
LINE
  5
12e
100
AcDbEntity
  8
Layer_1
 62
7
100
AcDbLine
 10
-9.660912
 20
1.238720
 30
0.0
 11
-7.820753
 21
0.096303
 31
0.0
  0
LINE
  5
12f
100
AcDbEntity
  8
Layer_1
 62
7
100
AcDbLine
 10
-7.820753
 20
0.096303
 30
0.0
 11
-6.185503
 21
-1.519329
 31
0.0
  0
LINE
  5
130
100
AcDbEntity
  8
Layer_1
 62
7
100
AcDbLine
 10
-6.185503
 20
-1.519329
 30
0.0
 11
-4.834503
 21
-3.469233
 31
0.0
  0
LINE
  5
131
100
AcDbEntity
  8
Layer_1
 62
7
100
AcDbLine
 10
-4.834503
 20
-3.469233
 30
0.0
 11
-3.847093
 21
-5.614462
 31
0.0
  0
LINE
  5
132
100
AcDbEntity
  8
Layer_1
 62
7
100
AcDbLine
 10
-3.847093
 20
-5.614462
 30
0.0
 11
-3.302614
 21
-7.816070
 31
0.0
  0
LINE
  5
133
100
AcDbEntity
  8
Layer_1
 62
7
100
AcDbLine
 10
-3.302614
 20
-7.816070
 30
0.0
 11
-3.280407
 21
-9.935113
 31
0.0
  0
LINE
  5
134
100
AcDbEntity
  8
Layer_1
 62
7
100
AcDbLine
 10
-3.280407
 20
-9.935113
 30
0.0
 11
-3.489950
 21
-10.920252
 31
0.0
  0
LINE
  5
135
100
AcDbEntity
  8
Layer_1
 62
7
100
AcDbLine
 10
-3.489950
 20
-10.920252
 30
0.0
 11
-3.859813
 21
-11.832645
 31
0.0
  0
LINE
  5
136
100
AcDbEntity
  8
Layer_1
 62
7
100
AcDbLine
 10
-3.859813
 20
-11.832645
 30
0.0
 11
-4.770933
 21
-13.105242
 31
0.0
  0
LINE
  5
137
100
AcDbEntity
  8
Layer_1
 62
7
100
AcDbLine
 10
-4.770933
 20
-13.105242
 30
0.0
 11
-6.111361
 21
-13.894165
 31
0.0
  0
LINE
  5
138
100
AcDbEntity
  8
Layer_1
 62
7
100
AcDbLine
 10
-6.111361
 20
-13.894165
 30
0.0
 11
-7.001064
 21
-14.258375
 31
0.0
  0
LINE
  5
139
100
AcDbEntity
  8
Layer_1
 62
7
100
AcDbLine
 10
-7.001064
 20
-14.258375
 30
0.0
 11
-6.922764
 21
-16.443395
 31
0.0
  0
LINE
  5
13a
100
AcDbEntity
  8
Layer_1
 62
7
100
AcDbLine
 10
-6.922764
 20
-16.443395
 30
0.0
 11
-6.844563
 21
-18.628415
 31
0.0
  0
LINE
  5
13b
100
AcDbEntity
  8
Layer_1
 62
7
100
AcDbLine
 10
-6.844563
 20
-18.628415
 30
0.0
 11
-3.740143
 21
-20.502324
 31
0.0
  0
LINE
  5
13c
100
AcDbEntity
  8
Layer_1
 62
7
100
AcDbLine
 10
-3.740143
 20
-20.502324
 30
0.0
 11
-0.635722
 21
-22.376234
 31
0.0
  0
LINE
  5
13d
100
AcDbEntity
  8
Layer_1
 62
7
100
AcDbLine
 10
-0.635722
 20
-22.376234
 30
0.0
 11
-0.635722
 21
-23.700444
 31
0.0
  0
LINE
  5
13e
100
AcDbEntity
  8
Layer_1
 62
7
100
AcDbLine
 10
-0.635722
 20
-23.700444
 30
0.0
 11
-0.660255
 21
-24.549916
 31
0.0
  0
LINE
  5
13f
100
AcDbEntity
  8
Layer_1
 62
7
100
AcDbLine
 10
-0.660255
 20
-24.549916
 30
0.0
 11
-0.881786
 21
-24.940023
 31
0.0
  0
LINE
  5
140
100
AcDbEntity
  8
Layer_1
 62
7
100
AcDbLine
 10
-0.881786
 20
-24.940023
 30
0.0
 11
-1.522211
 21
-24.982001
 31
0.0
  0
LINE
  5
141
100
AcDbEntity
  8
Layer_1
 62
7
100
AcDbLine
 10
-1.522211
 20
-24.982001
 30
0.0
 11
-2.803430
 21
-24.787084
 31
0.0
  0
LINE
  5
142
100
AcDbEntity
  8
Layer_1
 62
7
100
AcDbLine
 10
-2.803430
 20
-24.787084
 30
0.0
 11
-2.803440
 21
-24.787084
 31
0.0
  0
LINE
  5
143
100
AcDbEntity
  8
Layer_1
 62
7
100
AcDbLine
 10
1.443525
 20
-24.856784
 30
0.0
 11
1.147150
 21
-24.493634
 31
0.0
  0
LINE
  5
144
100
AcDbEntity
  8
Layer_1
 62
7
100
AcDbLine
 10
1.147150
 20
-24.493634
 30
0.0
 11
0.942094
 21
-23.745022
 31
0.0
  0
LINE
  5
145
100
AcDbEntity
  8
Layer_1
 62
7
100
AcDbLine
 10
0.942094
 20
-23.745022
 30
0.0
 11
0.878319
 21
-22.905978
 31
0.0
  0
LINE
  5
146
100
AcDbEntity
  8
Layer_1
 62
7
100
AcDbLine
 10
0.878319
 20
-22.905978
 30
0.0
 11
1.005783
 21
-22.271534
 31
0.0
  0
LINE
  5
147
100
AcDbEntity
  8
Layer_1
 62
7
100
AcDbLine
 10
1.005783
 20
-22.271534
 30
0.0
 11
3.607327
 21
-20.585737
 31
0.0
  0
LINE
  5
148
100
AcDbEntity
  8
Layer_1
 62
7
100
AcDbLine
 10
3.607327
 20
-20.585737
 30
0.0
 11
9.593812
 21
-17.018115
 31
0.0
  0
LINE
  5
149
100
AcDbEntity
  8
Layer_1
 62
7
100
AcDbLine
 10
9.593812
 20
-17.018115
 30
0.0
 11
18.851484
 21
-11.574815
 31
0.0
  0
LINE
  5
14a
100
AcDbEntity
  8
Layer_1
 62
7
100
AcDbLine
 10
18.851484
 20
-11.574815
 30
0.0
 11
19.592561
 21
-10.928801
 31
0.0
  0
LINE
  5
14b
100
AcDbEntity
  8
Layer_1
 62
7
100
AcDbLine
 10
19.592561
 20
-10.928801
 30
0.0
 11
19.838577
 21
-9.825745
 31
0.0
  0
LINE
  5
14c
100
AcDbEntity
  8
Layer_1
 62
7
100
AcDbLine
 10
19.838577
 20
-9.825745
 30
0.0
 11
20.068609
 21
-5.879979
 31
0.0
  0
LINE
  5
14d
100
AcDbEntity
  8
Layer_1
 62
7
100
AcDbLine
 10
20.068609
 20
-5.879979
 30
0.0
 11
19.973868
 21
-3.677085
 31
0.0
  0
LINE
  5
14e
100
AcDbEntity
  8
Layer_1
 62
7
100
AcDbLine
 10
19.973868
 20
-3.677085
 30
0.0
 11
18.320107
 21
-4.534776
 31
0.0
  0
LINE
  5
14f
100
AcDbEntity
  8
Layer_1
 62
7
100
AcDbLine
 10
18.320107
 20
-4.534776
 30
0.0
 11
16.936467
 21
-5.559905
 31
0.0
  0
LINE
  5
150
100
AcDbEntity
  8
Layer_1
 62
7
100
AcDbLine
 10
16.936467
 20
-5.559905
 30
0.0
 11
16.648035
 21
-6.445897
 31
0.0
  0
LINE
  5
151
100
AcDbEntity
  8
Layer_1
 62
7
100
AcDbLine
 10
16.648035
 20
-6.445897
 30
0.0
 11
15.911661
 21
-7.746750
 31
0.0
  0
LINE
  5
152
100
AcDbEntity
  8
Layer_1
 62
7
100
AcDbLine
 10
15.911661
 20
-7.746750
 30
0.0
 11
14.920733
 21
-9.158738
 31
0.0
  0
LINE
  5
153
100
AcDbEntity
  8
Layer_1
 62
7
100
AcDbLine
 10
14.920733
 20
-9.158738
 30
0.0
 11
13.868637
 21
-10.378135
 31
0.0
  0
LINE
  5
154
100
AcDbEntity
  8
Layer_1
 62
7
100
AcDbLine
 10
13.868637
 20
-10.378135
 30
0.0
 11
12.497485
 21
-11.598474
 31
0.0
  0
LINE
  5
155
100
AcDbEntity
  8
Layer_1
 62
7
100
AcDbLine
 10
12.497485
 20
-11.598474
 30
0.0
 11
11.177708
 21
-12.439964
 31
0.0
  0
LINE
  5
156
100
AcDbEntity
  8
Layer_1
 62
7
100
AcDbLine
 10
11.177708
 20
-12.439964
 30
0.0
 11
9.861688
 21
-12.926596
 31
0.0
  0
LINE
  5
157
100
AcDbEntity
  8
Layer_1
 62
7
100
AcDbLine
 10
9.861688
 20
-12.926596
 30
0.0
 11
8.501809
 21
-13.082365
 31
0.0
  0
LINE
  5
158
100
AcDbEntity
  8
Layer_1
 62
7
100
AcDbLine
 10
8.501809
 20
-13.082365
 30
0.0
 11
7.243229
 21
-12.950180
 31
0.0
  0
LINE
  5
159
100
AcDbEntity
  8
Layer_1
 62
7
100
AcDbLine
 10
7.243229
 20
-12.950180
 30
0.0
 11
6.212780
 21
-12.540587
 31
0.0
  0
LINE
  5
15a
100
AcDbEntity
  8
Layer_1
 62
7
100
AcDbLine
 10
6.212780
 20
-12.540587
 30
0.0
 11
5.370159
 21
-11.829528
 31
0.0
  0
LINE
  5
15b
100
AcDbEntity
  8
Layer_1
 62
7
100
AcDbLine
 10
5.370159
 20
-11.829528
 30
0.0
 11
4.675066
 21
-10.792945
 31
0.0
  0
LINE
  5
15c
100
AcDbEntity
  8
Layer_1
 62
7
100
AcDbLine
 10
4.675066
 20
-10.792945
 30
0.0
 11
4.124440
 21
-9.390999
 31
0.0
  0
LINE
  5
15d
100
AcDbEntity
  8
Layer_1
 62
7
100
AcDbLine
 10
4.124440
 20
-9.390999
 30
0.0
 11
4.110524
 21
-7.327425
 31
0.0
  0
LINE
  5
15e
100
AcDbEntity
  8
Layer_1
 62
7
100
AcDbLine
 10
4.110524
 20
-7.327425
 30
0.0
 11
4.347815
 21
-5.158051
 31
0.0
  0
LINE
  5
15f
100
AcDbEntity
  8
Layer_1
 62
7
100
AcDbLine
 10
4.347815
 20
-5.158051
 30
0.0
 11
5.191827
 21
-3.136555
 31
0.0
  0
LINE
  5
160
100
AcDbEntity
  8
Layer_1
 62
7
100
AcDbLine
 10
5.191827
 20
-3.136555
 30
0.0
 11
6.249541
 21
-1.363381
 31
0.0
  0
LINE
  5
161
100
AcDbEntity
  8
Layer_1
 62
7
100
AcDbLine
 10
6.249541
 20
-1.363381
 30
0.0
 11
7.509861
 21
0.149736
 31
0.0
  0
LINE
  5
162
100
AcDbEntity
  8
Layer_1
 62
7
100
AcDbLine
 10
7.509861
 20
0.149736
 30
0.0
 11
8.908992
 21
1.371637
 31
0.0
  0
LINE
  5
163
100
AcDbEntity
  8
Layer_1
 62
7
100
AcDbLine
 10
8.908992
 20
1.371637
 30
0.0
 11
10.383139
 21
2.271162
 31
0.0
  0
LINE
  5
164
100
AcDbEntity
  8
Layer_1
 62
7
100
AcDbLine
 10
10.383139
 20
2.271162
 30
0.0
 11
11.868505
 21
2.817151
 31
0.0
  0
LINE
  5
165
100
AcDbEntity
  8
Layer_1
 62
7
100
AcDbLine
 10
11.868505
 20
2.817151
 30
0.0
 11
13.301295
 21
2.978444
 31
0.0
  0
LINE
  5
166
100
AcDbEntity
  8
Layer_1
 62
7
100
AcDbLine
 10
13.301295
 20
2.978444
 30
0.0
 11
14.617713
 21
2.723882
 31
0.0
  0
LINE
  5
167
100
AcDbEntity
  8
Layer_1
 62
7
100
AcDbLine
 10
14.617713
 20
2.723882
 30
0.0
 11
15.753963
 21
2.022304
 31
0.0
  0
LINE
  5
168
100
AcDbEntity
  8
Layer_1
 62
7
100
AcDbLine
 10
15.753963
 20
2.022304
 30
0.0
 11
16.129202
 21
1.725846
 31
0.0
  0
LINE
  5
169
100
AcDbEntity
  8
Layer_1
 62
7
100
AcDbLine
 10
16.129202
 20
1.725846
 30
0.0
 11
16.572564
 21
1.736097
 31
0.0
  0
LINE
  5
16a
100
AcDbEntity
  8
Layer_1
 62
7
100
AcDbLine
 10
16.572564
 20
1.736097
 30
0.0
 11
18.986554
 21
3.130054
 31
0.0
  0
LINE
  5
16b
100
AcDbEntity
  8
Layer_1
 62
7
100
AcDbLine
 10
18.986554
 20
3.130054
 30
0.0
 11
20.216608
 21
3.892154
 31
0.0
  0
LINE
  5
16c
100
AcDbEntity
  8
Layer_1
 62
7
100
AcDbLine
 10
20.216608
 20
3.892154
 30
0.0
 11
20.217608
 21
5.329654
 31
0.0
  0
LINE
  5
16d
100
AcDbEntity
  8
Layer_1
 62
7
100
AcDbLine
 10
20.217608
 20
5.329654
 30
0.0
 11
20.368089
 21
8.975334
 31
0.0
  0
LINE
  5
16e
100
AcDbEntity
  8
Layer_1
 62
7
100
AcDbLine
 10
20.368089
 20
8.975334
 30
0.0
 11
20.517359
 21
11.183514
 31
0.0
  0
LINE
  5
16f
100
AcDbEntity
  8
Layer_1
 62
7
100
AcDbLine
 10
20.517359
 20
11.183514
 30
0.0
 11
21.544633
 21
11.672474
 31
0.0
  0
LINE
  5
170
100
AcDbEntity
  8
Layer_1
 62
7
100
AcDbLine
 10
21.544633
 20
11.672474
 30
0.0
 11
22.691137
 21
12.161434
 31
0.0
  0
LINE
  5
171
100
AcDbEntity
  8
Layer_1
 62
7
100
AcDbLine
 10
22.691137
 20
12.161434
 30
0.0
 11
22.981589
 21
11.766434
 31
0.0
  0
LINE
  5
172
100
AcDbEntity
  8
Layer_1
 62
7
100
AcDbLine
 10
22.981589
 20
11.766434
 30
0.0
 11
23.413979
 21
10.725528
 31
0.0
  0
LINE
  5
173
100
AcDbEntity
  8
Layer_1
 62
7
100
AcDbLine
 10
23.413979
 20
10.725528
 30
0.0
 11
24.385493
 21
7.570554
 31
0.0
  0
LINE
  5
174
100
AcDbEntity
  8
Layer_1
 62
7
100
AcDbLine
 10
24.385493
 20
7.570554
 30
0.0
 11
24.901783
 21
4.895564
 31
0.0
  0
LINE
  5
175
100
AcDbEntity
  8
Layer_1
 62
7
100
AcDbLine
 10
24.901783
 20
4.895564
 30
0.0
 11
24.999805
 21
1.143334
 31
0.0
  0
LINE
  5
176
100
AcDbEntity
  8
Layer_1
 62
7
100
AcDbLine
 10
24.999805
 20
1.143334
 30
0.0
 11
24.909554
 21
-1.912418
 31
0.0
  0
LINE
  5
177
100
AcDbEntity
  8
Layer_1
 62
7
100
AcDbLine
 10
24.909554
 20
-1.912418
 30
0.0
 11
24.615612
 21
-4.525500
 31
0.0
  0
LINE
  5
178
100
AcDbEntity
  8
Layer_1
 62
7
100
AcDbLine
 10
24.615612
 20
-4.525500
 30
0.0
 11
24.071948
 21
-6.974752
 31
0.0
  0
LINE
  5
179
100
AcDbEntity
  8
Layer_1
 62
7
100
AcDbLine
 10
24.071948
 20
-6.974752
 30
0.0
 11
23.232529
 21
-9.539015
 31
0.0
  0
LINE
  5
17a
100
AcDbEntity
  8
Layer_1
 62
7
100
AcDbLine
 10
23.232529
 20
-9.539015
 30
0.0
 11
22.174666
 21
-11.831969
 31
0.0
  0
LINE
  5
17b
100
AcDbEntity
  8
Layer_1
 62
7
100
AcDbLine
 10
22.174666
 20
-11.831969
 30
0.0
 11
20.740954
 21
-14.040640
 31
0.0
  0
LINE
  5
17c
100
AcDbEntity
  8
Layer_1
 62
7
100
AcDbLine
 10
20.740954
 20
-14.040640
 30
0.0
 11
18.964091
 21
-16.137503
 31
0.0
  0
LINE
  5
17d
100
AcDbEntity
  8
Layer_1
 62
7
100
AcDbLine
 10
18.964091
 20
-16.137503
 30
0.0
 11
16.876777
 21
-18.095030
 31
0.0
  0
LINE
  5
17e
100
AcDbEntity
  8
Layer_1
 62
7
100
AcDbLine
 10
16.876777
 20
-18.095030
 30
0.0
 11
14.511711
 21
-19.885692
 31
0.0
  0
LINE
  5
17f
100
AcDbEntity
  8
Layer_1
 62
7
100
AcDbLine
 10
14.511711
 20
-19.885692
 30
0.0
 11
11.901591
 21
-21.481964
 31
0.0
  0
LINE
  5
180
100
AcDbEntity
  8
Layer_1
 62
7
100
AcDbLine
 10
11.901591
 20
-21.481964
 30
0.0
 11
9.079118
 21
-22.856317
 31
0.0
  0
LINE
  5
181
100
AcDbEntity
  8
Layer_1
 62
7
100
AcDbLine
 10
9.079118
 20
-22.856317
 30
0.0
 11
6.076990
 21
-23.981224
 31
0.0
  0
LINE
  5
182
100
AcDbEntity
  8
Layer_1
 62
7
100
AcDbLine
 10
6.076990
 20
-23.981224
 30
0.0
 11
3.167656
 21
-24.763337
 31
0.0
  0
LINE
  5
183
100
AcDbEntity
  8
Layer_1
 62
7
100
AcDbLine
 10
3.167656
 20
-24.763337
 30
0.0
 11
2.157514
 21
-24.896119
 31
0.0
  0
LINE
  5
184
100
AcDbEntity
  8
Layer_1
 62
7
100
AcDbLine
 10
2.157514
 20
-24.896119
 30
0.0
 11
1.443355
 21
-24.856784
 31
0.0
  0
LINE
  5
185
100
AcDbEntity
  8
Layer_1
 62
7
100
AcDbLine
 10
1.443355
 20
-24.856784
 30
0.0
 11
1.443525
 21
-24.856784
 31
0.0
  0
LINE
  5
186
100
AcDbEntity
  8
Layer_1
 62
7
100
AcDbLine
 10
-3.394532
 20
6.542604
 30
0.0
 11
-4.690040
 21
6.889354
 31
0.0
  0
LINE
  5
187
100
AcDbEntity
  8
Layer_1
 62
7
100
AcDbLine
 10
-4.690040
 20
6.889354
 30
0.0
 11
-5.835436
 21
7.349282
 31
0.0
  0
LINE
  5
188
100
AcDbEntity
  8
Layer_1
 62
7
100
AcDbLine
 10
-5.835436
 20
7.349282
 30
0.0
 11
-6.846936
 21
7.930210
 31
0.0
  0
LINE
  5
189
100
AcDbEntity
  8
Layer_1
 62
7
100
AcDbLine
 10
-6.846936
 20
7.930210
 30
0.0
 11
-7.740756
 21
8.639964
 31
0.0
  0
LINE
  5
18a
100
AcDbEntity
  8
Layer_1
 62
7
100
AcDbLine
 10
-7.740756
 20
8.639964
 30
0.0
 11
-8.527691
 21
9.470688
 31
0.0
  0
LINE
  5
18b
100
AcDbEntity
  8
Layer_1
 62
7
100
AcDbLine
 10
-8.527691
 20
9.470688
 30
0.0
 11
-9.036602
 21
10.283059
 31
0.0
  0
LINE
  5
18c
100
AcDbEntity
  8
Layer_1
 62
7
100
AcDbLine
 10
-9.036602
 20
10.283059
 30
0.0
 11
-9.305874
 21
11.160425
 31
0.0
  0
LINE
  5
18d
100
AcDbEntity
  8
Layer_1
 62
7
100
AcDbLine
 10
-9.305874
 20
11.160425
 30
0.0
 11
-9.373892
 21
12.186134
 31
0.0
  0
LINE
  5
18e
100
AcDbEntity
  8
Layer_1
 62
7
100
AcDbLine
 10
-9.373892
 20
12.186134
 30
0.0
 11
-9.351292
 21
13.473334
 31
0.0
  0
LINE
  5
18f
100
AcDbEntity
  8
Layer_1
 62
7
100
AcDbLine
 10
-9.351292
 20
13.473334
 30
0.0
 11
-11.125758
 21
14.462444
 31
0.0
  0
LINE
  5
190
100
AcDbEntity
  8
Layer_1
 62
7
100
AcDbLine
 10
-11.125758
 20
14.462444
 30
0.0
 11
-13.166685
 21
15.451564
 31
0.0
  0
LINE
  5
191
100
AcDbEntity
  8
Layer_1
 62
7
100
AcDbLine
 10
-13.166685
 20
15.451564
 30
0.0
 11
-16.546416
 21
13.779764
 31
0.0
  0
LINE
  5
192
100
AcDbEntity
  8
Layer_1
 62
7
100
AcDbLine
 10
-16.546416
 20
13.779764
 30
0.0
 11
-18.502763
 21
12.754137
 31
0.0
  0
LINE
  5
193
100
AcDbEntity
  8
Layer_1
 62
7
100
AcDbLine
 10
-18.502763
 20
12.754137
 30
0.0
 11
-19.630005
 21
12.343373
 31
0.0
  0
LINE
  5
194
100
AcDbEntity
  8
Layer_1
 62
7
100
AcDbLine
 10
-19.630005
 20
12.343373
 30
0.0
 11
-20.386520
 21
12.481006
 31
0.0
  0
LINE
  5
195
100
AcDbEntity
  8
Layer_1
 62
7
100
AcDbLine
 10
-20.386520
 20
12.481006
 30
0.0
 11
-21.230682
 21
13.100574
 31
0.0
  0
LINE
  5
196
100
AcDbEntity
  8
Layer_1
 62
7
100
AcDbLine
 10
-21.230682
 20
13.100574
 30
0.0
 11
-21.651665
 21
13.571425
 31
0.0
  0
LINE
  5
197
100
AcDbEntity
  8
Layer_1
 62
7
100
AcDbLine
 10
-21.651665
 20
13.571425
 30
0.0
 11
-21.486633
 21
14.115214
 31
0.0
  0
LINE
  5
198
100
AcDbEntity
  8
Layer_1
 62
7
100
AcDbLine
 10
-21.486633
 20
14.115214
 30
0.0
 11
-20.566880
 21
15.239874
 31
0.0
  0
LINE
  5
199
100
AcDbEntity
  8
Layer_1
 62
7
100
AcDbLine
 10
-20.566880
 20
15.239874
 30
0.0
 11
-18.926566
 21
16.853019
 31
0.0
  0
LINE
  5
19a
100
AcDbEntity
  8
Layer_1
 62
7
100
AcDbLine
 10
-18.926566
 20
16.853019
 30
0.0
 11
-17.043724
 21
18.510833
 31
0.0
  0
LINE
  5
19b
100
AcDbEntity
  8
Layer_1
 62
7
100
AcDbLine
 10
-17.043724
 20
18.510833
 30
0.0
 11
-15.396392
 21
19.769503
 31
0.0
  0
LINE
  5
19c
100
AcDbEntity
  8
Layer_1
 62
7
100
AcDbLine
 10
-15.396392
 20
19.769503
 30
0.0
 11
-13.325988
 21
21.002629
 31
0.0
  0
LINE
  5
19d
100
AcDbEntity
  8
Layer_1
 62
7
100
AcDbLine
 10
-13.325988
 20
21.002629
 30
0.0
 11
-10.907452
 21
22.213665
 31
0.0
  0
LINE
  5
19e
100
AcDbEntity
  8
Layer_1
 62
7
100
AcDbLine
 10
-10.907452
 20
22.213665
 30
0.0
 11
-8.390425
 21
23.287062
 31
0.0
  0
LINE
  5
19f
100
AcDbEntity
  8
Layer_1
 62
7
100
AcDbLine
 10
-8.390425
 20
23.287062
 30
0.0
 11
-6.024551
 21
24.107273
 31
0.0
  0
LINE
  5
1a0
100
AcDbEntity
  8
Layer_1
 62
7
100
AcDbLine
 10
-6.024551
 20
24.107273
 30
0.0
 11
-3.445022
 21
24.723056
 31
0.0
  0
LINE
  5
1a1
100
AcDbEntity
  8
Layer_1
 62
7
100
AcDbLine
 10
-3.445022
 20
24.723056
 30
0.0
 11
-0.466372
 21
24.956413
 31
0.0
  0
LINE
  5
1a2
100
AcDbEntity
  8
Layer_1
 62
7
100
AcDbLine
 10
-0.466372
 20
24.956413
 30
0.0
 11
2.476907
 21
24.963323
 31
0.0
  0
LINE
  5
1a3
100
AcDbEntity
  8
Layer_1
 62
7
100
AcDbLine
 10
2.476907
 20
24.963323
 30
0.0
 11
4.866436
 21
24.569433
 31
0.0
  0
LINE
  5
1a4
100
AcDbEntity
  8
Layer_1
 62
7
100
AcDbLine
 10
4.866436
 20
24.569433
 30
0.0
 11
8.285420
 21
23.554273
 31
0.0
  0
LINE
  5
1a5
100
AcDbEntity
  8
Layer_1
 62
7
100
AcDbLine
 10
8.285420
 20
23.554273
 30
0.0
 11
11.673622
 21
22.072991
 31
0.0
  0
LINE
  5
1a6
100
AcDbEntity
  8
Layer_1
 62
7
100
AcDbLine
 10
11.673622
 20
22.072991
 30
0.0
 11
14.982260
 21
20.150383
 31
0.0
  0
LINE
  5
1a7
100
AcDbEntity
  8
Layer_1
 62
7
100
AcDbLine
 10
14.982260
 20
20.150383
 30
0.0
 11
18.162551
 21
17.811244
 31
0.0
  0
LINE
  5
1a8
100
AcDbEntity
  8
Layer_1
 62
7
100
AcDbLine
 10
18.162551
 20
17.811244
 30
0.0
 11
20.516006
 21
15.529641
 31
0.0
  0
LINE
  5
1a9
100
AcDbEntity
  8
Layer_1
 62
7
100
AcDbLine
 10
20.516006
 20
15.529641
 30
0.0
 11
21.315598
 21
14.519221
 31
0.0
  0
LINE
  5
1aa
100
AcDbEntity
  8
Layer_1
 62
7
100
AcDbLine
 10
21.315598
 20
14.519221
 30
0.0
 11
21.622363
 21
13.870674
 31
0.0
  0
LINE
  5
1ab
100
AcDbEntity
  8
Layer_1
 62
7
100
AcDbLine
 10
21.622363
 20
13.870674
 30
0.0
 11
21.362299
 21
13.469653
 31
0.0
  0
LINE
  5
1ac
100
AcDbEntity
  8
Layer_1
 62
7
100
AcDbLine
 10
21.362299
 20
13.469653
 30
0.0
 11
20.745188
 21
12.979875
 31
0.0
  0
LINE
  5
1ad
100
AcDbEntity
  8
Layer_1
 62
7
100
AcDbLine
 10
20.745188
 20
12.979875
 30
0.0
 11
20.015655
 21
12.565571
 31
0.0
  0
LINE
  5
1ae
100
AcDbEntity
  8
Layer_1
 62
7
100
AcDbLine
 10
20.015655
 20
12.565571
 30
0.0
 11
19.418326
 21
12.390974
 31
0.0
  0
LINE
  5
1af
100
AcDbEntity
  8
Layer_1
 62
7
100
AcDbLine
 10
19.418326
 20
12.390974
 30
0.0
 11
18.793029
 21
12.590101
 31
0.0
  0
LINE
  5
1b0
100
AcDbEntity
  8
Layer_1
 62
7
100
AcDbLine
 10
18.793029
 20
12.590101
 30
0.0
 11
17.000486
 21
13.490866
 31
0.0
  0
LINE
  5
1b1
100
AcDbEntity
  8
Layer_1
 62
7
100
AcDbLine
 10
17.000486
 20
13.490866
 30
0.0
 11
6.457772
 21
19.217614
 31
0.0
  0
LINE
  5
1b2
100
AcDbEntity
  8
Layer_1
 62
7
100
AcDbLine
 10
6.457772
 20
19.217614
 30
0.0
 11
0.598352
 21
22.308473
 31
0.0
  0
LINE
  5
1b3
100
AcDbEntity
  8
Layer_1
 62
7
100
AcDbLine
 10
0.598352
 20
22.308473
 30
0.0
 11
0.155316
 21
22.389156
 31
0.0
  0
LINE
  5
1b4
100
AcDbEntity
  8
Layer_1
 62
7
100
AcDbLine
 10
0.155316
 20
22.389156
 30
0.0
 11
-0.459762
 21
22.256826
 31
0.0
  0
LINE
  5
1b5
100
AcDbEntity
  8
Layer_1
 62
7
100
AcDbLine
 10
-0.459762
 20
22.256826
 30
0.0
 11
-3.137911
 21
21.035733
 31
0.0
  0
LINE
  5
1b6
100
AcDbEntity
  8
Layer_1
 62
7
100
AcDbLine
 10
-3.137911
 20
21.035733
 30
0.0
 11
-6.359832
 21
19.302923
 31
0.0
  0
LINE
  5
1b7
100
AcDbEntity
  8
Layer_1
 62
7
100
AcDbLine
 10
-6.359832
 20
19.302923
 30
0.0
 11
-6.069571
 21
18.931026
 31
0.0
  0
LINE
  5
1b8
100
AcDbEntity
  8
Layer_1
 62
7
100
AcDbLine
 10
-6.069571
 20
18.931026
 30
0.0
 11
-5.177898
 21
18.344194
 31
0.0
  0
LINE
  5
1b9
100
AcDbEntity
  8
Layer_1
 62
7
100
AcDbLine
 10
-5.177898
 20
18.344194
 30
0.0
 11
-4.366657
 21
17.920954
 31
0.0
  0
LINE
  5
1ba
100
AcDbEntity
  8
Layer_1
 62
7
100
AcDbLine
 10
-4.366657
 20
17.920954
 30
0.0
 11
-3.612397
 21
17.697110
 31
0.0
  0
LINE
  5
1bb
100
AcDbEntity
  8
Layer_1
 62
7
100
AcDbLine
 10
-3.612397
 20
17.697110
 30
0.0
 11
-0.665332
 21
17.572304
 31
0.0
  0
LINE
  5
1bc
100
AcDbEntity
  8
Layer_1
 62
7
100
AcDbLine
 10
-0.665332
 20
17.572304
 30
0.0
 11
2.191056
 21
17.452869
 31
0.0
  0
LINE
  5
1bd
100
AcDbEntity
  8
Layer_1
 62
7
100
AcDbLine
 10
2.191056
 20
17.452869
 30
0.0
 11
3.815873
 21
17.013124
 31
0.0
  0
LINE
  5
1be
100
AcDbEntity
  8
Layer_1
 62
7
100
AcDbLine
 10
3.815873
 20
17.013124
 30
0.0
 11
5.626850
 21
16.085839
 31
0.0
  0
LINE
  5
1bf
100
AcDbEntity
  8
Layer_1
 62
7
100
AcDbLine
 10
5.626850
 20
16.085839
 30
0.0
 11
6.972903
 21
14.981884
 31
0.0
  0
LINE
  5
1c0
100
AcDbEntity
  8
Layer_1
 62
7
100
AcDbLine
 10
6.972903
 20
14.981884
 30
0.0
 11
7.840605
 21
13.715636
 31
0.0
  0
LINE
  5
1c1
100
AcDbEntity
  8
Layer_1
 62
7
100
AcDbLine
 10
7.840605
 20
13.715636
 30
0.0
 11
8.216528
 21
12.301474
 31
0.0
  0
LINE
  5
1c2
100
AcDbEntity
  8
Layer_1
 62
7
100
AcDbLine
 10
8.216528
 20
12.301474
 30
0.0
 11
8.064894
 21
10.822801
 31
0.0
  0
LINE
  5
1c3
100
AcDbEntity
  8
Layer_1
 62
7
100
AcDbLine
 10
8.064894
 20
10.822801
 30
0.0
 11
7.397530
 21
9.489326
 31
0.0
  0
LINE
  5
1c4
100
AcDbEntity
  8
Layer_1
 62
7
100
AcDbLine
 10
7.397530
 20
9.489326
 30
0.0
 11
6.286621
 21
8.336853
 31
0.0
  0
LINE
  5
1c5
100
AcDbEntity
  8
Layer_1
 62
7
100
AcDbLine
 10
6.286621
 20
8.336853
 30
0.0
 11
4.804355
 21
7.401183
 31
0.0
  0
LINE
  5
1c6
100
AcDbEntity
  8
Layer_1
 62
7
100
AcDbLine
 10
4.804355
 20
7.401183
 30
0.0
 11
3.022918
 21
6.718120
 31
0.0
  0
LINE
  5
1c7
100
AcDbEntity
  8
Layer_1
 62
7
100
AcDbLine
 10
3.022918
 20
6.718120
 30
0.0
 11
1.014497
 21
6.323467
 31
0.0
  0
LINE
  5
1c8
100
AcDbEntity
  8
Layer_1
 62
7
100
AcDbLine
 10
1.014497
 20
6.323467
 30
0.0
 11
-1.148722
 21
6.253028
 31
0.0
  0
LINE
  5
1c9
100
AcDbEntity
  8
Layer_1
 62
7
100
AcDbLine
 10
-1.148722
 20
6.253028
 30
0.0
 11
-3.394552
 21
6.542604
 31
0.0
  0
LINE
  5
1ca
100
AcDbEntity
  8
Layer_1
 62
7
100
AcDbLine
 10
-3.394552
 20
6.542604
 30
0.0
 11
-3.394532
 21
6.542604
 31
0.0
  0
ENDSEC
  0
SECTION
  2
OBJECTS
  0
DICTIONARY
  5
C
330
0
100
AcDbDictionary
  3
ACAD_GROUP
350
D
  3
ACAD_MLINESTYLE
350
17
  0
DICTIONARY
  5
D
330
C
100
AcDbDictionary
  0
DICTIONARY
  5
1A
330
C
100
AcDbDictionary
  0
DICTIONARY
  5
17
330
C
100
AcDbDictionary
  3
STANDARD
350
18
  0
DICTIONARY
  5
19
330
C
100
AcDbDictionary
  0
ENDSEC
  0
EOF
