  0
SECTION
  2
HEADER
  9
$ACADVER
  1
AC1014
  9
$HANDSEED
  5
FFFF
  9
$MEASUREMENT
 70
     1
  0
ENDSEC
  0
SECTION
  2
TABLES
  0
TABLE
  2
VPORT
  5
8
330
0
100
AcDbSymbolTable
 70
     4
  0
VPORT
  5
2E
330
8
100
AcDbSymbolTableRecord
100
AcDbViewportTableRecord
  2
*ACTIVE
 70
     0
 10
0.0
 20
0.0
 11
1.0
 21
1.0
 12
210.0
 22
148.5
 13
0.0
 23
0.0
 14
10.0
 24
10.0
 15
10.0
 25
10.0
 16
0.0
 26
0.0
 36
1.0
 17
0.0
 27
0.0
 37
0.0
 40
341.0
 41
1.24
 42
50.0
 43
0.0
 44
0.0
 50
0.0
 51
0.0
 71
     0
 72
   100
 73
     1
 74
     3
 75
     0
 76
     0
 77
     0
 78
     0
  0
ENDTAB
  0
TABLE
  2
LTYPE
  5
5
330
0
100
AcDbSymbolTable
 70
     1
  0
LTYPE
  5
14
330
5
100
AcDbSymbolTableRecord
100
AcDbLinetypeTableRecord
  2
BYBLOCK
 70
     0
  3

 72
    65
 73
     0
 40
0.0
  0
LTYPE
  5
15
330
5
100
AcDbSymbolTableRecord
100
AcDbLinetypeTableRecord
  2
BYLAYER
 70
     0
  3

 72
    65
 73
     0
 40
0.0
  0
LTYPE
  5
16
330
5
100
AcDbSymbolTableRecord
100
AcDbLinetypeTableRecord
  2
CONTINUOUS
 70
     0
  3
Solid line
 72
    65
 73
     0
 40
0.0
  0
ENDTAB
  0
TABLE
  2
LAYER
  5
2
100
AcDbSymbolTable
 70
5
  0
LAYER
  5
50
100
AcDbSymbolTableRecord
100
AcDbLayerTableRecord
  2
0
 70
0
  6
CONTINUOUS
  0
LAYER
  5
51
100
AcDbSymbolTableRecord
100
AcDbLayerTableRecord
  2
Layer_5
 70
0
  6
CONTINUOUS
  0
LAYER
  5
52
100
AcDbSymbolTableRecord
100
AcDbLayerTableRecord
  2
Layer_8
 70
0
  6
CONTINUOUS
  0
LAYER
  5
53
100
AcDbSymbolTableRecord
100
AcDbLayerTableRecord
  2
Layer_4
 70
0
  6
CONTINUOUS
  0
LAYER
  5
54
100
AcDbSymbolTableRecord
100
AcDbLayerTableRecord
  2
Layer_9
 70
0
  6
CONTINUOUS
  0
ENDTAB
  0
TABLE
  2
STYLE
  5
3
330
0
100
AcDbSymbolTable
 70
     1
  0
STYLE
  5
11
330
3
100
AcDbSymbolTableRecord
100
AcDbTextStyleTableRecord
  2
STANDARD
 70
     0
 40
0.0
 41
1.0
 50
0.0
 71
     0
 42
2.5
  3
txt
  4

  0
ENDTAB
  0
TABLE
  2
VIEW
  5
6
330
0
100
AcDbSymbolTable
 70
     0
  0
ENDTAB
  0
TABLE
  2
UCS
  5
7
330
0
100
AcDbSymbolTable
 70
     0
  0
ENDTAB
  0
TABLE
  2
APPID
  5
9
330
0
100
AcDbSymbolTable
 70
     2
  0
APPID
  5
12
330
9
100
AcDbSymbolTableRecord
100
AcDbRegAppTableRecord
  2
ACAD
 70
     0
  0
ENDTAB
  0
TABLE
  2
DIMSTYLE
  5
A
330
0
100
AcDbSymbolTable
 70
     1
  0
DIMSTYLE
105
27
330
A
100
AcDbSymbolTableRecord
100
AcDbDimStyleTableRecord
  2
ISO-25
 70
     0
  3

  4

  5

  6

  7

 40
1.0
 41
2.5
 42
0.625
 43
3.75
 44
1.25
 45
0.0
 46
0.0
 47
0.0
 48
0.0
140
2.5
141
2.5
142
0.0
143
0.03937007874016
144
1.0
145
0.0
146
1.0
147
0.625
 71
     0
 72
     0
 73
     0
 74
     0
 75
     0
 76
     0
 77
     1
 78
     8
170
     0
171
     3
172
     1
173
     0
174
     0
175
     0
176
     0
177
     0
178
     0
270
     2
271
     2
272
     2
273
     2
274
     3
340
11
275
     0
280
     0
281
     0
282
     0
283
     0
284
     8
285
     0
286
     0
287
     3
288
     0
  0
ENDTAB
  0
TABLE
  2
BLOCK_RECORD
  5
1
330
0
100
AcDbSymbolTable
 70
     1
  0
BLOCK_RECORD
  5
1F
330
1
100
AcDbSymbolTableRecord
100
AcDbBlockTableRecord
  2
*MODEL_SPACE
  0
BLOCK_RECORD
  5
1B
330
1
100
AcDbSymbolTableRecord
100
AcDbBlockTableRecord
  2
*PAPER_SPACE
  0
ENDTAB
  0
ENDSEC
  0
SECTION
  2
BLOCKS
  0
BLOCK
  5
20
330
1F
100
AcDbEntity
  8
0
100
AcDbBlockBegin
  2
*MODEL_SPACE
 70
     0
 10
0.0
 20
0.0
 30
0.0
  3
*MODEL_SPACE
  1

  0
ENDBLK
  5
21
330
1F
100
AcDbEntity
  8
0
100
AcDbBlockEnd
  0
BLOCK
  5
1C
330
1B
100
AcDbEntity
 67
     1
  8
0
100
AcDbBlockBegin
  2
*PAPER_SPACE
  1

  0
ENDBLK
  5
1D
330
1B
100
AcDbEntity
 67
     1
  8
0
100
AcDbBlockEnd
  0
ENDSEC
  0
SECTION
  2
ENTITIES
  0
SPLINE
  5
100
100
AcDbEntity
  8
Layer_9
 62
1
100
AcDbSpline
 70
8
 71
3
 72
8
 73
4
 74
0
 40
0
 40
0
 40
0
 40
0
 40
1
 40
1
 40
1
 40
1
 10
63.344116
 20
25.153871
 30
0.0
 10
64.484308
 20
24.988106
 30
0.0
 10
61.595532
 20
26.653892
 30
0.0
 10
64.008288
 20
26.436988
 30
0.0
  0
SPLINE
  5
101
100
AcDbEntity
  8
Layer_9
 62
1
100
AcDbSpline
 70
8
 71
3
 72
8
 73
4
 74
0
 40
0
 40
0
 40
0
 40
0
 40
1
 40
1
 40
1
 40
1
 10
64.008288
 20
26.436988
 30
0.0
 10
69.366792
 20
25.955265
 30
0.0
 10
67.686724
 20
22.041562
 30
0.0
 10
69.178162
 20
23.851113
 30
0.0
  0
SPLINE
  5
102
100
AcDbEntity
  8
Layer_9
 62
1
100
AcDbSpline
 70
8
 71
3
 72
8
 73
4
 74
0
 40
0
 40
0
 40
0
 40
0
 40
1
 40
1
 40
1
 40
1
 10
69.178162
 20
23.851113
 30
0.0
 10
70.138748
 20
25.016585
 30
0.0
 10
72.906470
 20
20.372666
 30
0.0
 10
74.271727
 20
19.227684
 30
0.0
  0
SPLINE
  5
103
100
AcDbEntity
  8
Layer_9
 62
1
100
AcDbSpline
 70
8
 71
3
 72
8
 73
4
 74
0
 40
0
 40
0
 40
0
 40
0
 40
1
 40
1
 40
1
 40
1
 10
74.271727
 20
19.227684
 30
0.0
 10
75.636982
 20
18.082703
 30
0.0
 10
76.829042
 20
19.465532
 30
0.0
 10
79.039974
 20
16.795672
 30
0.0
  0
SPLINE
  5
104
100
AcDbEntity
  8
Layer_9
 62
1
100
AcDbSpline
 70
8
 71
3
 72
8
 73
4
 74
0
 40
0
 40
0
 40
0
 40
0
 40
1
 40
1
 40
1
 40
1
 10
79.039974
 20
16.795672
 30
0.0
 10
80.174463
 20
15.425697
 30
0.0
 10
82.357396
 20
16.426318
 30
0.0
 10
83.220493
 20
16.968804
 30
0.0
  0
SPLINE
  5
105
100
AcDbEntity
  8
Layer_9
 62
1
100
AcDbSpline
 70
8
 71
3
 72
8
 73
4
 74
0
 40
0
 40
0
 40
0
 40
0
 40
1
 40
1
 40
1
 40
1
 10
83.220493
 20
16.968804
 30
0.0
 10
83.957383
 20
17.431963
 30
0.0
 10
83.967184
 20
14.713184
 30
0.0
 10
82.959884
 20
13.339541
 30
0.0
  0
SPLINE
  5
106
100
AcDbEntity
  8
Layer_9
 62
1
100
AcDbSpline
 70
8
 71
3
 72
8
 73
4
 74
0
 40
0
 40
0
 40
0
 40
0
 40
1
 40
1
 40
1
 40
1
 10
82.959884
 20
13.339541
 30
0.0
 10
80.867246
 20
10.485836
 30
0.0
 10
80.168678
 20
11.174895
 30
0.0
 10
79.749036
 20
9.355368
 30
0.0
  0
SPLINE
  5
107
100
AcDbEntity
  8
Layer_9
 62
1
100
AcDbSpline
 70
8
 71
3
 72
8
 73
4
 74
0
 40
0
 40
0
 40
0
 40
0
 40
1
 40
1
 40
1
 40
1
 10
79.749036
 20
9.355368
 30
0.0
 10
79.329393
 20
7.535842
 30
0.0
 10
83.203546
 20
6.499625
 30
0.0
 10
80.708954
 20
5.004859
 30
0.0
  0
SPLINE
  5
108
100
AcDbEntity
  8
Layer_9
 62
1
100
AcDbSpline
 70
8
 71
3
 72
8
 73
4
 74
0
 40
0
 40
0
 40
0
 40
0
 40
1
 40
1
 40
1
 40
1
 10
80.708954
 20
5.004859
 30
0.0
 10
78.214363
 20
3.510094
 30
0.0
 10
59.309726
 20
1.230355
 30
0.0
 10
59.835156
 20
6.399178
 30
0.0
  0
SPLINE
  5
109
100
AcDbEntity
  8
Layer_9
 62
1
100
AcDbSpline
 70
8
 71
3
 72
8
 73
4
 74
0
 40
0
 40
0
 40
0
 40
0
 40
1
 40
1
 40
1
 40
1
 10
59.835156
 20
6.399178
 30
0.0
 10
60.360586
 20
11.568002
 30
0.0
 10
63.271143
 20
12.620962
 30
0.0
 10
62.081503
 20
16.115971
 30
0.0
  0
SPLINE
  5
10a
100
AcDbEntity
  8
Layer_9
 62
1
100
AcDbSpline
 70
8
 71
3
 72
8
 73
4
 74
0
 40
0
 40
0
 40
0
 40
0
 40
1
 40
1
 40
1
 40
1
 10
62.081503
 20
16.115971
 30
0.0
 10
60.891863
 20
19.610979
 30
0.0
 10
64.678648
 20
18.952484
 30
0.0
 10
62.747391
 20
19.604364
 30
0.0
  0
SPLINE
  5
10b
100
AcDbEntity
  8
Layer_9
 62
1
100
AcDbSpline
 70
8
 71
3
 72
8
 73
4
 74
0
 40
0
 40
0
 40
0
 40
0
 40
1
 40
1
 40
1
 40
1
 10
62.747391
 20
19.604364
 30
0.0
 10
61.506087
 20
20.023355
 30
0.0
 10
60.978948
 20
21.353853
 30
0.0
 10
61.999854
 20
21.355294
 30
0.0
  0
SPLINE
  5
10c
100
AcDbEntity
  8
Layer_9
 62
1
100
AcDbSpline
 70
8
 71
3
 72
8
 73
4
 74
0
 40
0
 40
0
 40
0
 40
0
 40
1
 40
1
 40
1
 40
1
 10
61.999854
 20
21.355294
 30
0.0
 10
62.870286
 20
21.356523
 30
0.0
 10
60.206478
 20
22.208869
 30
0.0
 10
60.194873
 20
23.144882
 30
0.0
  0
SPLINE
  5
10d
100
AcDbEntity
  8
Layer_9
 62
1
100
AcDbSpline
 70
8
 71
3
 72
8
 73
4
 74
0
 40
0
 40
0
 40
0
 40
0
 40
1
 40
1
 40
1
 40
1
 10
60.194873
 20
23.144882
 30
0.0
 10
60.187523
 20
23.737787
 30
0.0
 10
58.926432
 20
23.109639
 30
0.0
 10
57.522216
 20
25.858786
 30
0.0
  0
SPLINE
  5
10e
100
AcDbEntity
  8
Layer_9
 62
1
100
AcDbSpline
 70
8
 71
3
 72
8
 73
4
 74
0
 40
0
 40
0
 40
0
 40
0
 40
1
 40
1
 40
1
 40
1
 10
57.522216
 20
25.858786
 30
0.0
 10
56.117999
 20
28.607933
 30
0.0
 10
62.230474
 20
25.315774
 30
0.0
 10
63.344116
 20
25.153871
 30
0.0
  0
LWPOLYLINE
  5
10f
100
AcDbEntity
  8
Layer_8
 62
7
100
AcDbPolyline
 90
2
 70
0
 10
79.984031
 20
21.894222
 30
0.0
 10
83.399286
 20
23.296916
 30
0.0
  0
SPLINE
  5
110
100
AcDbEntity
  8
Layer_9
 62
1
100
AcDbSpline
 70
8
 71
3
 72
8
 73
4
 74
0
 40
0
 40
0
 40
0
 40
0
 40
1
 40
1
 40
1
 40
1
 10
71.620182
 20
15.793994
 30
0.0
 10
72.171931
 20
16.917223
 30
0.0
 10
62.642880
 20
16.115971
 30
0.0
 10
64.846042
 20
9.010833
 30
0.0
  0
SPLINE
  5
111
100
AcDbEntity
  8
Layer_9
 62
1
100
AcDbSpline
 70
8
 71
3
 72
8
 73
4
 74
0
 40
0
 40
0
 40
0
 40
0
 40
1
 40
1
 40
1
 40
1
 10
64.846042
 20
9.010833
 30
0.0
 10
67.049203
 20
1.905696
 30
0.0
 10
78.153436
 20
9.577946
 30
0.0
 10
74.888122
 20
9.651806
 30
0.0
  0
SPLINE
  5
112
100
AcDbEntity
  8
Layer_9
 62
1
100
AcDbSpline
 70
8
 71
3
 72
8
 73
4
 74
0
 40
0
 40
0
 40
0
 40
0
 40
1
 40
1
 40
1
 40
1
 10
74.888122
 20
9.651806
 30
0.0
 10
71.622809
 20
9.725666
 30
0.0
 10
71.068433
 20
14.670765
 30
0.0
 10
71.620182
 20
15.793994
 30
0.0
  0
LWPOLYLINE
  5
113
100
AcDbEntity
  8
Layer_9
 62
1
100
AcDbPolyline
 90
2
 70
1
 10
63.344116
 20
25.153871
 30
0.0
 10
63.344116
 20
25.153871
 30
0.0
  0
LWPOLYLINE
  5
114
100
AcDbEntity
  8
Layer_9
 62
1
100
AcDbPolyline
 90
2
 70
1
 10
71.620182
 20
15.793994
 30
0.0
 10
71.620182
 20
15.793994
 30
0.0
  0
LWPOLYLINE
  5
115
100
AcDbEntity
  8
Layer_9
 62
1
100
AcDbPolyline
 90
5
 70
1
 10
67.197892
 20
18.942608
 30
0.0
 10
67.462204
 20
19.565754
 30
0.0
 10
64.277075
 20
20.916751
 30
0.0
 10
64.012763
 20
20.293605
 30
0.0
 10
67.197892
 20
18.942608
 30
0.0
  0
LWPOLYLINE
  5
116
100
AcDbEntity
  8
Layer_9
 62
1
100
AcDbPolyline
 90
5
 70
1
 10
76.436990
 20
5.599726
 30
0.0
 10
77.060136
 20
5.335414
 30
0.0
 10
78.411132
 20
8.520543
 30
0.0
 10
77.787986
 20
8.784856
 30
0.0
 10
76.436990
 20
5.599726
 30
0.0
  0
LWPOLYLINE
  5
117
100
AcDbEntity
  8
Layer_9
 62
1
100
AcDbPolyline
 90
5
 70
1
 10
64.101285
 20
5.553260
 30
0.0
 10
63.478139
 20
5.288947
 30
0.0
 10
62.127142
 20
8.474077
 30
0.0
 10
62.750288
 20
8.738389
 30
0.0
 10
64.101285
 20
5.553260
 30
0.0
  0
SPLINE
  5
118
100
AcDbEntity
  8
Layer_9
 62
1
100
AcDbSpline
 70
8
 71
3
 72
8
 73
4
 74
0
 40
0
 40
0
 40
0
 40
0
 40
1
 40
1
 40
1
 40
1
 10
91.324623
 20
23.716761
 30
0.0
 10
91.156090
 20
23.716761
 30
0.0
 10
91.020413
 20
23.495192
 30
0.0
 10
91.020413
 20
23.219951
 30
0.0
  0
LWPOLYLINE
  5
119
100
AcDbEntity
  8
Layer_9
 62
1
100
AcDbPolyline
 90
5
 70
1
 10
76.627119
 20
10.009164
 30
0.0
 10
76.362807
 20
10.632310
 30
0.0
 10
79.547936
 20
11.983307
 30
0.0
 10
79.812248
 20
11.360161
 30
0.0
 10
76.627119
 20
10.009164
 30
0.0
  0
SPLINE
  5
11a
100
AcDbEntity
  8
Layer_9
 62
1
100
AcDbSpline
 70
8
 71
3
 72
8
 73
4
 74
0
 40
0
 40
0
 40
0
 40
0
 40
1
 40
1
 40
1
 40
1
 10
90.734063
 20
23.008102
 30
0.0
 10
90.565530
 20
23.008102
 30
0.0
 10
90.429853
 20
22.786532
 30
0.0
 10
90.429853
 20
22.511292
 30
0.0
  0
LWPOLYLINE
  5
11b
100
AcDbEntity
  8
Layer_9
 62
1
100
AcDbPolyline
 90
3
 70
1
 10
91.020413
 20
23.219951
 30
0.0
 10
91.020413
 20
23.008102
 30
0.0
 10
90.734063
 20
23.008102
 30
0.0
  0
SPLINE
  5
11c
100
AcDbEntity
  8
Layer_9
 62
1
100
AcDbSpline
 70
8
 71
3
 72
8
 73
4
 74
0
 40
0
 40
0
 40
0
 40
0
 40
1
 40
1
 40
1
 40
1
 10
90.429853
 20
5.000984
 30
0.0
 10
90.429853
 20
4.725744
 30
0.0
 10
90.565530
 20
4.504174
 30
0.0
 10
90.734063
 20
4.504174
 30
0.0
  0
LWPOLYLINE
  5
11d
100
AcDbEntity
  8
Layer_9
 62
1
100
AcDbPolyline
 90
2
 70
1
 10
90.429853
 20
22.511292
 30
0.0
 10
90.429853
 20
5.000984
 30
0.0
  0
SPLINE
  5
11e
100
AcDbEntity
  8
Layer_9
 62
1
100
AcDbSpline
 70
8
 71
3
 72
8
 73
4
 74
0
 40
0
 40
0
 40
0
 40
0
 40
1
 40
1
 40
1
 40
1
 10
91.020413
 20
4.292326
 30
0.0
 10
91.020413
 20
4.017086
 30
0.0
 10
91.156090
 20
3.795516
 30
0.0
 10
91.324623
 20
3.795516
 30
0.0
  0
LWPOLYLINE
  5
11f
100
AcDbEntity
  8
Layer_9
 62
1
100
AcDbPolyline
 90
3
 70
1
 10
90.734063
 20
4.504174
 30
0.0
 10
91.020413
 20
4.504174
 30
0.0
 10
91.020413
 20
4.292326
 30
0.0
  0
SPLINE
  5
120
100
AcDbEntity
  8
Layer_9
 62
1
100
AcDbSpline
 70
8
 71
3
 72
8
 73
4
 74
0
 40
0
 40
0
 40
0
 40
0
 40
1
 40
1
 40
1
 40
1
 10
94.259497
 20
3.795516
 30
0.0
 10
94.428030
 20
3.795516
 30
0.0
 10
94.563707
 20
4.017086
 30
0.0
 10
94.563707
 20
4.292326
 30
0.0
  0
LWPOLYLINE
  5
121
100
AcDbEntity
  8
Layer_9
 62
1
100
AcDbPolyline
 90
2
 70
1
 10
91.324623
 20
3.795516
 30
0.0
 10
94.259497
 20
3.795516
 30
0.0
  0
SPLINE
  5
122
100
AcDbEntity
  8
Layer_9
 62
1
100
AcDbSpline
 70
8
 71
3
 72
8
 73
4
 74
0
 40
0
 40
0
 40
0
 40
0
 40
1
 40
1
 40
1
 40
1
 10
94.850057
 20
4.504174
 30
0.0
 10
95.018590
 20
4.504174
 30
0.0
 10
95.154267
 20
4.725744
 30
0.0
 10
95.154267
 20
5.000984
 30
0.0
  0
LWPOLYLINE
  5
123
100
AcDbEntity
  8
Layer_9
 62
1
100
AcDbPolyline
 90
3
 70
1
 10
94.563707
 20
4.292326
 30
0.0
 10
94.563707
 20
4.504174
 30
0.0
 10
94.850057
 20
4.504174
 30
0.0
  0
SPLINE
  5
124
100
AcDbEntity
  8
Layer_9
 62
1
100
AcDbSpline
 70
8
 71
3
 72
8
 73
4
 74
0
 40
0
 40
0
 40
0
 40
0
 40
1
 40
1
 40
1
 40
1
 10
95.154267
 20
22.511292
 30
0.0
 10
95.154267
 20
22.786532
 30
0.0
 10
95.018590
 20
23.008102
 30
0.0
 10
94.850057
 20
23.008102
 30
0.0
  0
LWPOLYLINE
  5
125
100
AcDbEntity
  8
Layer_9
 62
1
100
AcDbPolyline
 90
2
 70
1
 10
95.154267
 20
5.000984
 30
0.0
 10
95.154267
 20
22.511292
 30
0.0
  0
SPLINE
  5
126
100
AcDbEntity
  8
Layer_9
 62
1
100
AcDbSpline
 70
8
 71
3
 72
8
 73
4
 74
0
 40
0
 40
0
 40
0
 40
0
 40
1
 40
1
 40
1
 40
1
 10
94.563707
 20
23.219951
 30
0.0
 10
94.563707
 20
23.495192
 30
0.0
 10
94.428030
 20
23.716761
 30
0.0
 10
94.259497
 20
23.716761
 30
0.0
  0
LWPOLYLINE
  5
127
100
AcDbEntity
  8
Layer_9
 62
1
100
AcDbPolyline
 90
3
 70
1
 10
94.850057
 20
23.008102
 30
0.0
 10
94.563707
 20
23.008102
 30
0.0
 10
94.563707
 20
23.219951
 30
0.0
  0
SPLINE
  5
128
100
AcDbEntity
  8
Layer_9
 62
1
100
AcDbSpline
 70
8
 71
3
 72
8
 73
4
 74
0
 40
0
 40
0
 40
0
 40
0
 40
1
 40
1
 40
1
 40
1
 10
77.717329
 20
23.020323
 30
0.0
 10
76.577137
 20
23.186087
 30
0.0
 10
79.465912
 20
21.520302
 30
0.0
 10
77.053157
 20
21.737205
 30
0.0
  0
SPLINE
  5
129
100
AcDbEntity
  8
Layer_9
 62
1
100
AcDbSpline
 70
8
 71
3
 72
8
 73
4
 74
0
 40
0
 40
0
 40
0
 40
0
 40
1
 40
1
 40
1
 40
1
 10
77.053157
 20
21.737205
 30
0.0
 10
71.694652
 20
22.218928
 30
0.0
 10
73.374720
 20
26.132632
 30
0.0
 10
71.883282
 20
24.323081
 30
0.0
  0
SPLINE
  5
12a
100
AcDbEntity
  8
Layer_9
 62
1
100
AcDbSpline
 70
8
 71
3
 72
8
 73
4
 74
0
 40
0
 40
0
 40
0
 40
0
 40
1
 40
1
 40
1
 40
1
 10
71.883282
 20
24.323081
 30
0.0
 10
70.922697
 20
23.157608
 30
0.0
 10
68.154974
 20
27.801527
 30
0.0
 10
66.789718
 20
28.946509
 30
0.0
  0
SPLINE
  5
12b
100
AcDbEntity
  8
Layer_9
 62
1
100
AcDbSpline
 70
8
 71
3
 72
8
 73
4
 74
0
 40
0
 40
0
 40
0
 40
0
 40
1
 40
1
 40
1
 40
1
 10
66.789718
 20
28.946509
 30
0.0
 10
65.424462
 20
30.091491
 30
0.0
 10
64.232402
 20
28.708662
 30
0.0
 10
62.021470
 20
31.378522
 30
0.0
  0
SPLINE
  5
12c
100
AcDbEntity
  8
Layer_9
 62
1
100
AcDbSpline
 70
8
 71
3
 72
8
 73
4
 74
0
 40
0
 40
0
 40
0
 40
0
 40
1
 40
1
 40
1
 40
1
 10
62.021470
 20
31.378522
 30
0.0
 10
60.886981
 20
32.748496
 30
0.0
 10
58.704049
 20
31.747875
 30
0.0
 10
57.840951
 20
31.205389
 30
0.0
  0
SPLINE
  5
12d
100
AcDbEntity
  8
Layer_9
 62
1
100
AcDbSpline
 70
8
 71
3
 72
8
 73
4
 74
0
 40
0
 40
0
 40
0
 40
0
 40
1
 40
1
 40
1
 40
1
 10
57.840951
 20
31.205389
 30
0.0
 10
57.104061
 20
30.742231
 30
0.0
 10
57.094260
 20
33.461009
 30
0.0
 10
58.101560
 20
34.834653
 30
0.0
  0
SPLINE
  5
12e
100
AcDbEntity
  8
Layer_9
 62
1
100
AcDbSpline
 70
8
 71
3
 72
8
 73
4
 74
0
 40
0
 40
0
 40
0
 40
0
 40
1
 40
1
 40
1
 40
1
 10
58.101560
 20
34.834653
 30
0.0
 10
60.194199
 20
37.688357
 30
0.0
 10
60.892767
 20
36.999298
 30
0.0
 10
61.312409
 20
38.818825
 30
0.0
  0
SPLINE
  5
12f
100
AcDbEntity
  8
Layer_9
 62
1
100
AcDbSpline
 70
8
 71
3
 72
8
 73
4
 74
0
 40
0
 40
0
 40
0
 40
0
 40
1
 40
1
 40
1
 40
1
 10
61.312409
 20
38.818825
 30
0.0
 10
61.732051
 20
40.638352
 30
0.0
 10
57.857899
 20
41.674568
 30
0.0
 10
60.352490
 20
43.169334
 30
0.0
  0
SPLINE
  5
130
100
AcDbEntity
  8
Layer_9
 62
1
100
AcDbSpline
 70
8
 71
3
 72
8
 73
4
 74
0
 40
0
 40
0
 40
0
 40
0
 40
1
 40
1
 40
1
 40
1
 10
60.352490
 20
43.169334
 30
0.0
 10
62.847081
 20
44.664099
 30
0.0
 10
81.751719
 20
46.943838
 30
0.0
 10
81.226289
 20
41.775015
 30
0.0
  0
SPLINE
  5
131
100
AcDbEntity
  8
Layer_9
 62
1
100
AcDbSpline
 70
8
 71
3
 72
8
 73
4
 74
0
 40
0
 40
0
 40
0
 40
0
 40
1
 40
1
 40
1
 40
1
 10
81.226289
 20
41.775015
 30
0.0
 10
80.700859
 20
36.606192
 30
0.0
 10
77.790301
 20
35.553232
 30
0.0
 10
78.979941
 20
32.058223
 30
0.0
  0
SPLINE
  5
132
100
AcDbEntity
  8
Layer_9
 62
1
100
AcDbSpline
 70
8
 71
3
 72
8
 73
4
 74
0
 40
0
 40
0
 40
0
 40
0
 40
1
 40
1
 40
1
 40
1
 10
78.979941
 20
32.058223
 30
0.0
 10
80.169581
 20
28.563214
 30
0.0
 10
76.382797
 20
29.221709
 30
0.0
 10
78.314053
 20
28.569829
 30
0.0
  0
SPLINE
  5
133
100
AcDbEntity
  8
Layer_9
 62
1
100
AcDbSpline
 70
8
 71
3
 72
8
 73
4
 74
0
 40
0
 40
0
 40
0
 40
0
 40
1
 40
1
 40
1
 40
1
 10
78.314053
 20
28.569829
 30
0.0
 10
79.555358
 20
28.150838
 30
0.0
 10
80.082497
 20
26.820341
 30
0.0
 10
79.061590
 20
26.818899
 30
0.0
  0
SPLINE
  5
134
100
AcDbEntity
  8
Layer_9
 62
1
100
AcDbSpline
 70
8
 71
3
 72
8
 73
4
 74
0
 40
0
 40
0
 40
0
 40
0
 40
1
 40
1
 40
1
 40
1
 10
79.061590
 20
26.818899
 30
0.0
 10
78.191159
 20
26.817671
 30
0.0
 10
80.854967
 20
25.965324
 30
0.0
 10
80.866571
 20
25.029312
 30
0.0
  0
SPLINE
  5
135
100
AcDbEntity
  8
Layer_9
 62
1
100
AcDbSpline
 70
8
 71
3
 72
8
 73
4
 74
0
 40
0
 40
0
 40
0
 40
0
 40
1
 40
1
 40
1
 40
1
 10
80.866571
 20
25.029312
 30
0.0
 10
80.873921
 20
24.436406
 30
0.0
 10
82.135012
 20
25.064554
 30
0.0
 10
83.539229
 20
22.315407
 30
0.0
  0
SPLINE
  5
136
100
AcDbEntity
  8
Layer_9
 62
1
100
AcDbSpline
 70
8
 71
3
 72
8
 73
4
 74
0
 40
0
 40
0
 40
0
 40
0
 40
1
 40
1
 40
1
 40
1
 10
83.539229
 20
22.315407
 30
0.0
 10
84.943446
 20
19.566261
 30
0.0
 10
78.830970
 20
22.858419
 30
0.0
 10
77.717329
 20
23.020323
 30
0.0
  0
LWPOLYLINE
  5
137
100
AcDbEntity
  8
Layer_9
 62
1
100
AcDbPolyline
 90
3
 70
1
 10
94.259497
 20
23.716761
 30
0.0
 10
91.324623
 20
23.716761
 30
0.0
 10
91.324623
 20
23.716761
 30
0.0
  0
SPLINE
  5
138
100
AcDbEntity
  8
Layer_9
 62
1
100
AcDbSpline
 70
8
 71
3
 72
8
 73
4
 74
0
 40
0
 40
0
 40
0
 40
0
 40
1
 40
1
 40
1
 40
1
 10
69.441262
 20
32.380199
 30
0.0
 10
68.889513
 20
31.256971
 30
0.0
 10
78.418564
 20
32.058223
 30
0.0
 10
76.215402
 20
39.163361
 30
0.0
  0
SPLINE
  5
139
100
AcDbEntity
  8
Layer_9
 62
1
100
AcDbSpline
 70
8
 71
3
 72
8
 73
4
 74
0
 40
0
 40
0
 40
0
 40
0
 40
1
 40
1
 40
1
 40
1
 10
76.215402
 20
39.163361
 30
0.0
 10
74.012241
 20
46.268497
 30
0.0
 10
62.908009
 20
38.596247
 30
0.0
 10
66.173322
 20
38.522387
 30
0.0
  0
SPLINE
  5
13a
100
AcDbEntity
  8
Layer_9
 62
1
100
AcDbSpline
 70
8
 71
3
 72
8
 73
4
 74
0
 40
0
 40
0
 40
0
 40
0
 40
1
 40
1
 40
1
 40
1
 10
66.173322
 20
38.522387
 30
0.0
 10
69.438636
 20
38.448527
 30
0.0
 10
69.993011
 20
33.503428
 30
0.0
 10
69.441262
 20
32.380199
 30
0.0
  0
LWPOLYLINE
  5
13b
100
AcDbEntity
  8
Layer_9
 62
1
100
AcDbPolyline
 90
2
 70
1
 10
77.717329
 20
23.020323
 30
0.0
 10
77.717329
 20
23.020323
 30
0.0
  0
LWPOLYLINE
  5
13c
100
AcDbEntity
  8
Layer_9
 62
1
100
AcDbPolyline
 90
2
 70
1
 10
69.441262
 20
32.380199
 30
0.0
 10
69.441262
 20
32.380199
 30
0.0
  0
LWPOLYLINE
  5
13d
100
AcDbEntity
  8
Layer_9
 62
1
100
AcDbPolyline
 90
5
 70
1
 10
73.863552
 20
29.231585
 30
0.0
 10
73.599240
 20
28.608439
 30
0.0
 10
76.784370
 20
27.257443
 30
0.0
 10
77.048682
 20
27.880589
 30
0.0
 10
73.863552
 20
29.231585
 30
0.0
  0
LWPOLYLINE
  5
13e
100
AcDbEntity
  8
Layer_9
 62
1
100
AcDbPolyline
 90
5
 70
1
 10
64.624455
 20
42.574467
 30
0.0
 10
64.001309
 20
42.838779
 30
0.0
 10
62.650312
 20
39.653650
 30
0.0
 10
63.273458
 20
39.389338
 30
0.0
 10
64.624455
 20
42.574467
 30
0.0
  0
LWPOLYLINE
  5
13f
100
AcDbEntity
  8
Layer_9
 62
1
100
AcDbPolyline
 90
5
 70
1
 10
76.960160
 20
42.620934
 30
0.0
 10
77.583306
 20
42.885246
 30
0.0
 10
78.934302
 20
39.700117
 30
0.0
 10
78.311156
 20
39.435804
 30
0.0
 10
76.960160
 20
42.620934
 30
0.0
  0
SPLINE
  5
140
100
AcDbEntity
  8
Layer_9
 62
1
100
AcDbSpline
 70
8
 71
3
 72
8
 73
4
 74
0
 40
0
 40
0
 40
0
 40
0
 40
1
 40
1
 40
1
 40
1
 10
88.738999
 20
24.690003
 30
0.0
 10
88.907532
 20
24.690003
 30
0.0
 10
89.043209
 20
24.911572
 30
0.0
 10
89.043209
 20
25.186813
 30
0.0
  0
LWPOLYLINE
  5
141
100
AcDbEntity
  8
Layer_9
 62
1
100
AcDbPolyline
 90
5
 70
1
 10
64.434325
 20
38.165029
 30
0.0
 10
64.698638
 20
37.541883
 30
0.0
 10
61.513508
 20
36.190886
 30
0.0
 10
61.249196
 20
36.814032
 30
0.0
 10
64.434325
 20
38.165029
 30
0.0
  0
SPLINE
  5
142
100
AcDbEntity
  8
Layer_9
 62
1
100
AcDbSpline
 70
8
 71
3
 72
8
 73
4
 74
0
 40
0
 40
0
 40
0
 40
0
 40
1
 40
1
 40
1
 40
1
 10
89.329559
 20
25.398662
 30
0.0
 10
89.498092
 20
25.398662
 30
0.0
 10
89.633769
 20
25.620232
 30
0.0
 10
89.633769
 20
25.895472
 30
0.0
  0
LWPOLYLINE
  5
143
100
AcDbEntity
  8
Layer_9
 62
1
100
AcDbPolyline
 90
3
 70
1
 10
89.043209
 20
25.186813
 30
0.0
 10
89.043209
 20
25.398662
 30
0.0
 10
89.329559
 20
25.398662
 30
0.0
  0
SPLINE
  5
144
100
AcDbEntity
  8
Layer_9
 62
1
100
AcDbSpline
 70
8
 71
3
 72
8
 73
4
 74
0
 40
0
 40
0
 40
0
 40
0
 40
1
 40
1
 40
1
 40
1
 10
89.633769
 20
43.405780
 30
0.0
 10
89.633769
 20
43.681020
 30
0.0
 10
89.498092
 20
43.902590
 30
0.0
 10
89.329559
 20
43.902590
 30
0.0
  0
LWPOLYLINE
  5
145
100
AcDbEntity
  8
Layer_9
 62
1
100
AcDbPolyline
 90
2
 70
1
 10
89.633769
 20
25.895472
 30
0.0
 10
89.633769
 20
43.405780
 30
0.0
  0
SPLINE
  5
146
100
AcDbEntity
  8
Layer_9
 62
1
100
AcDbSpline
 70
8
 71
3
 72
8
 73
4
 74
0
 40
0
 40
0
 40
0
 40
0
 40
1
 40
1
 40
1
 40
1
 10
89.043209
 20
44.114439
 30
0.0
 10
89.043209
 20
44.389679
 30
0.0
 10
88.907532
 20
44.611249
 30
0.0
 10
88.738999
 20
44.611249
 30
0.0
  0
LWPOLYLINE
  5
147
100
AcDbEntity
  8
Layer_9
 62
1
100
AcDbPolyline
 90
3
 70
1
 10
89.329559
 20
43.902590
 30
0.0
 10
89.043209
 20
43.902590
 30
0.0
 10
89.043209
 20
44.114439
 30
0.0
  0
SPLINE
  5
148
100
AcDbEntity
  8
Layer_9
 62
1
100
AcDbSpline
 70
8
 71
3
 72
8
 73
4
 74
0
 40
0
 40
0
 40
0
 40
0
 40
1
 40
1
 40
1
 40
1
 10
85.804126
 20
44.611249
 30
0.0
 10
85.635592
 20
44.611249
 30
0.0
 10
85.499916
 20
44.389679
 30
0.0
 10
85.499916
 20
44.114439
 30
0.0
  0
LWPOLYLINE
  5
149
100
AcDbEntity
  8
Layer_9
 62
1
100
AcDbPolyline
 90
2
 70
1
 10
88.738999
 20
44.611249
 30
0.0
 10
85.804126
 20
44.611249
 30
0.0
  0
SPLINE
  5
14a
100
AcDbEntity
  8
Layer_9
 62
1
100
AcDbSpline
 70
8
 71
3
 72
8
 73
4
 74
0
 40
0
 40
0
 40
0
 40
0
 40
1
 40
1
 40
1
 40
1
 10
85.213566
 20
43.902590
 30
0.0
 10
85.045032
 20
43.902590
 30
0.0
 10
84.909356
 20
43.681020
 30
0.0
 10
84.909356
 20
43.405780
 30
0.0
  0
LWPOLYLINE
  5
14b
100
AcDbEntity
  8
Layer_9
 62
1
100
AcDbPolyline
 90
3
 70
1
 10
85.499916
 20
44.114439
 30
0.0
 10
85.499916
 20
43.902590
 30
0.0
 10
85.213566
 20
43.902590
 30
0.0
  0
SPLINE
  5
14c
100
AcDbEntity
  8
Layer_9
 62
1
100
AcDbSpline
 70
8
 71
3
 72
8
 73
4
 74
0
 40
0
 40
0
 40
0
 40
0
 40
1
 40
1
 40
1
 40
1
 10
84.909356
 20
25.895472
 30
0.0
 10
84.909356
 20
25.620232
 30
0.0
 10
85.045032
 20
25.398662
 30
0.0
 10
85.213566
 20
25.398662
 30
0.0
  0
LWPOLYLINE
  5
14d
100
AcDbEntity
  8
Layer_9
 62
1
100
AcDbPolyline
 90
2
 70
1
 10
84.909356
 20
43.405780
 30
0.0
 10
84.909356
 20
25.895472
 30
0.0
  0
SPLINE
  5
14e
100
AcDbEntity
  8
Layer_9
 62
1
100
AcDbSpline
 70
8
 71
3
 72
8
 73
4
 74
0
 40
0
 40
0
 40
0
 40
0
 40
1
 40
1
 40
1
 40
1
 10
85.499916
 20
25.186813
 30
0.0
 10
85.499916
 20
24.911572
 30
0.0
 10
85.635592
 20
24.690003
 30
0.0
 10
85.804126
 20
24.690003
 30
0.0
  0
LWPOLYLINE
  5
14f
100
AcDbEntity
  8
Layer_9
 62
1
100
AcDbPolyline
 90
3
 70
1
 10
85.213566
 20
25.398662
 30
0.0
 10
85.499916
 20
25.398662
 30
0.0
 10
85.499916
 20
25.186813
 30
0.0
  0
SPLINE
  5
150
100
AcDbEntity
  8
Layer_9
 62
1
100
AcDbSpline
 70
8
 71
3
 72
8
 73
4
 74
0
 40
0
 40
0
 40
0
 40
0
 40
1
 40
1
 40
1
 40
1
 10
88.738999
 20
3.795516
 30
0.0
 10
88.907532
 20
3.795516
 30
0.0
 10
89.043209
 20
4.017084
 30
0.0
 10
89.043209
 20
4.292326
 30
0.0
  0
LWPOLYLINE
  5
151
100
AcDbEntity
  8
Layer_9
 62
1
100
AcDbPolyline
 90
3
 70
1
 10
85.804126
 20
24.690003
 30
0.0
 10
88.738999
 20
24.690003
 30
0.0
 10
88.738999
 20
24.690003
 30
0.0
  0
SPLINE
  5
152
100
AcDbEntity
  8
Layer_9
 62
1
100
AcDbSpline
 70
8
 71
3
 72
8
 73
4
 74
0
 40
0
 40
0
 40
0
 40
0
 40
1
 40
1
 40
1
 40
1
 10
89.329559
 20
4.504174
 30
0.0
 10
89.498092
 20
4.504174
 30
0.0
 10
89.633769
 20
4.725744
 30
0.0
 10
89.633769
 20
5.000984
 30
0.0
  0
LWPOLYLINE
  5
153
100
AcDbEntity
  8
Layer_9
 62
1
100
AcDbPolyline
 90
3
 70
1
 10
89.043209
 20
4.292326
 30
0.0
 10
89.043209
 20
4.504174
 30
0.0
 10
89.329559
 20
4.504174
 30
0.0
  0
SPLINE
  5
154
100
AcDbEntity
  8
Layer_9
 62
1
100
AcDbSpline
 70
8
 71
3
 72
8
 73
4
 74
0
 40
0
 40
0
 40
0
 40
0
 40
1
 40
1
 40
1
 40
1
 10
89.633769
 20
22.511292
 30
0.0
 10
89.633769
 20
22.786532
 30
0.0
 10
89.498092
 20
23.008102
 30
0.0
 10
89.329559
 20
23.008102
 30
0.0
  0
LWPOLYLINE
  5
155
100
AcDbEntity
  8
Layer_9
 62
1
100
AcDbPolyline
 90
2
 70
1
 10
89.633769
 20
5.000984
 30
0.0
 10
89.633769
 20
22.511292
 30
0.0
  0
SPLINE
  5
156
100
AcDbEntity
  8
Layer_9
 62
1
100
AcDbSpline
 70
8
 71
3
 72
8
 73
4
 74
0
 40
0
 40
0
 40
0
 40
0
 40
1
 40
1
 40
1
 40
1
 10
89.043209
 20
23.219951
 30
0.0
 10
89.043209
 20
23.495191
 30
0.0
 10
88.907532
 20
23.716761
 30
0.0
 10
88.738999
 20
23.716761
 30
0.0
  0
LWPOLYLINE
  5
157
100
AcDbEntity
  8
Layer_9
 62
1
100
AcDbPolyline
 90
3
 70
1
 10
89.329559
 20
23.008102
 30
0.0
 10
89.043209
 20
23.008102
 30
0.0
 10
89.043209
 20
23.219951
 30
0.0
  0
SPLINE
  5
158
100
AcDbEntity
  8
Layer_9
 62
1
100
AcDbSpline
 70
8
 71
3
 72
8
 73
4
 74
0
 40
0
 40
0
 40
0
 40
0
 40
1
 40
1
 40
1
 40
1
 10
85.804126
 20
23.716761
 30
0.0
 10
85.635592
 20
23.716761
 30
0.0
 10
85.499916
 20
23.495191
 30
0.0
 10
85.499916
 20
23.219951
 30
0.0
  0
LWPOLYLINE
  5
159
100
AcDbEntity
  8
Layer_9
 62
1
100
AcDbPolyline
 90
2
 70
1
 10
88.738999
 20
23.716761
 30
0.0
 10
85.804126
 20
23.716761
 30
0.0
  0
SPLINE
  5
15a
100
AcDbEntity
  8
Layer_9
 62
1
100
AcDbSpline
 70
8
 71
3
 72
8
 73
4
 74
0
 40
0
 40
0
 40
0
 40
0
 40
1
 40
1
 40
1
 40
1
 10
85.213566
 20
23.008102
 30
0.0
 10
85.045032
 20
23.008102
 30
0.0
 10
84.909356
 20
22.786532
 30
0.0
 10
84.909356
 20
22.511292
 30
0.0
  0
LWPOLYLINE
  5
15b
100
AcDbEntity
  8
Layer_9
 62
1
100
AcDbPolyline
 90
3
 70
1
 10
85.499916
 20
23.219951
 30
0.0
 10
85.499916
 20
23.008102
 30
0.0
 10
85.213566
 20
23.008102
 30
0.0
  0
SPLINE
  5
15c
100
AcDbEntity
  8
Layer_9
 62
1
100
AcDbSpline
 70
8
 71
3
 72
8
 73
4
 74
0
 40
0
 40
0
 40
0
 40
0
 40
1
 40
1
 40
1
 40
1
 10
84.909356
 20
5.000984
 30
0.0
 10
84.909356
 20
4.725744
 30
0.0
 10
85.045032
 20
4.504174
 30
0.0
 10
85.213566
 20
4.504174
 30
0.0
  0
LWPOLYLINE
  5
15d
100
AcDbEntity
  8
Layer_9
 62
1
100
AcDbPolyline
 90
2
 70
1
 10
84.909356
 20
22.511292
 30
0.0
 10
84.909356
 20
5.000984
 30
0.0
  0
SPLINE
  5
15e
100
AcDbEntity
  8
Layer_9
 62
1
100
AcDbSpline
 70
8
 71
3
 72
8
 73
4
 74
0
 40
0
 40
0
 40
0
 40
0
 40
1
 40
1
 40
1
 40
1
 10
85.499916
 20
4.292326
 30
0.0
 10
85.499916
 20
4.017084
 30
0.0
 10
85.635592
 20
3.795516
 30
0.0
 10
85.804126
 20
3.795516
 30
0.0
  0
LWPOLYLINE
  5
15f
100
AcDbEntity
  8
Layer_9
 62
1
100
AcDbPolyline
 90
3
 70
1
 10
85.213566
 20
4.504174
 30
0.0
 10
85.499916
 20
4.504174
 30
0.0
 10
85.499916
 20
4.292326
 30
0.0
  0
SPLINE
  5
160
100
AcDbEntity
  8
Layer_9
 62
1
100
AcDbSpline
 70
8
 71
3
 72
8
 73
4
 74
0
 40
0
 40
0
 40
0
 40
0
 40
1
 40
1
 40
1
 40
1
 10
91.324623
 20
44.611249
 30
0.0
 10
91.156090
 20
44.611249
 30
0.0
 10
91.020413
 20
44.389680
 30
0.0
 10
91.020413
 20
44.114439
 30
0.0
  0
LWPOLYLINE
  5
161
100
AcDbEntity
  8
Layer_9
 62
1
100
AcDbPolyline
 90
3
 70
1
 10
85.804126
 20
3.795516
 30
0.0
 10
88.738999
 20
3.795516
 30
0.0
 10
88.738999
 20
3.795516
 30
0.0
  0
SPLINE
  5
162
100
AcDbEntity
  8
Layer_9
 62
1
100
AcDbSpline
 70
8
 71
3
 72
8
 73
4
 74
0
 40
0
 40
0
 40
0
 40
0
 40
1
 40
1
 40
1
 40
1
 10
90.734063
 20
43.902590
 30
0.0
 10
90.565530
 20
43.902590
 30
0.0
 10
90.429853
 20
43.681020
 30
0.0
 10
90.429853
 20
43.405780
 30
0.0
  0
LWPOLYLINE
  5
163
100
AcDbEntity
  8
Layer_9
 62
1
100
AcDbPolyline
 90
3
 70
1
 10
91.020413
 20
44.114439
 30
0.0
 10
91.020413
 20
43.902590
 30
0.0
 10
90.734063
 20
43.902590
 30
0.0
  0
SPLINE
  5
164
100
AcDbEntity
  8
Layer_9
 62
1
100
AcDbSpline
 70
8
 71
3
 72
8
 73
4
 74
0
 40
0
 40
0
 40
0
 40
0
 40
1
 40
1
 40
1
 40
1
 10
90.429853
 20
25.895472
 30
0.0
 10
90.429853
 20
25.620232
 30
0.0
 10
90.565530
 20
25.398662
 30
0.0
 10
90.734063
 20
25.398662
 30
0.0
  0
LWPOLYLINE
  5
165
100
AcDbEntity
  8
Layer_9
 62
1
100
AcDbPolyline
 90
2
 70
1
 10
90.429853
 20
43.405780
 30
0.0
 10
90.429853
 20
25.895472
 30
0.0
  0
SPLINE
  5
166
100
AcDbEntity
  8
Layer_9
 62
1
100
AcDbSpline
 70
8
 71
3
 72
8
 73
4
 74
0
 40
0
 40
0
 40
0
 40
0
 40
1
 40
1
 40
1
 40
1
 10
91.020413
 20
25.186813
 30
0.0
 10
91.020413
 20
24.911573
 30
0.0
 10
91.156090
 20
24.690003
 30
0.0
 10
91.324623
 20
24.690003
 30
0.0
  0
LWPOLYLINE
  5
167
100
AcDbEntity
  8
Layer_9
 62
1
100
AcDbPolyline
 90
3
 70
1
 10
90.734063
 20
25.398662
 30
0.0
 10
91.020413
 20
25.398662
 30
0.0
 10
91.020413
 20
25.186813
 30
0.0
  0
SPLINE
  5
168
100
AcDbEntity
  8
Layer_9
 62
1
100
AcDbSpline
 70
8
 71
3
 72
8
 73
4
 74
0
 40
0
 40
0
 40
0
 40
0
 40
1
 40
1
 40
1
 40
1
 10
94.259497
 20
24.690003
 30
0.0
 10
94.428030
 20
24.690003
 30
0.0
 10
94.563707
 20
24.911573
 30
0.0
 10
94.563707
 20
25.186813
 30
0.0
  0
LWPOLYLINE
  5
169
100
AcDbEntity
  8
Layer_9
 62
1
100
AcDbPolyline
 90
2
 70
1
 10
91.324623
 20
24.690003
 30
0.0
 10
94.259497
 20
24.690003
 30
0.0
  0
SPLINE
  5
16a
100
AcDbEntity
  8
Layer_9
 62
1
100
AcDbSpline
 70
8
 71
3
 72
8
 73
4
 74
0
 40
0
 40
0
 40
0
 40
0
 40
1
 40
1
 40
1
 40
1
 10
94.850057
 20
25.398662
 30
0.0
 10
95.018590
 20
25.398662
 30
0.0
 10
95.154267
 20
25.620232
 30
0.0
 10
95.154267
 20
25.895472
 30
0.0
  0
LWPOLYLINE
  5
16b
100
AcDbEntity
  8
Layer_9
 62
1
100
AcDbPolyline
 90
3
 70
1
 10
94.563707
 20
25.186813
 30
0.0
 10
94.563707
 20
25.398662
 30
0.0
 10
94.850057
 20
25.398662
 30
0.0
  0
SPLINE
  5
16c
100
AcDbEntity
  8
Layer_9
 62
1
100
AcDbSpline
 70
8
 71
3
 72
8
 73
4
 74
0
 40
0
 40
0
 40
0
 40
0
 40
1
 40
1
 40
1
 40
1
 10
95.154267
 20
43.405780
 30
0.0
 10
95.154267
 20
43.681020
 30
0.0
 10
95.018590
 20
43.902590
 30
0.0
 10
94.850057
 20
43.902590
 30
0.0
  0
LWPOLYLINE
  5
16d
100
AcDbEntity
  8
Layer_9
 62
1
100
AcDbPolyline
 90
2
 70
1
 10
95.154267
 20
25.895472
 30
0.0
 10
95.154267
 20
43.405780
 30
0.0
  0
SPLINE
  5
16e
100
AcDbEntity
  8
Layer_9
 62
1
100
AcDbSpline
 70
8
 71
3
 72
8
 73
4
 74
0
 40
0
 40
0
 40
0
 40
0
 40
1
 40
1
 40
1
 40
1
 10
94.563707
 20
44.114439
 30
0.0
 10
94.563707
 20
44.389680
 30
0.0
 10
94.428030
 20
44.611249
 30
0.0
 10
94.259497
 20
44.611249
 30
0.0
  0
LWPOLYLINE
  5
16f
100
AcDbEntity
  8
Layer_9
 62
1
100
AcDbPolyline
 90
3
 70
1
 10
94.850057
 20
43.902590
 30
0.0
 10
94.563707
 20
43.902590
 30
0.0
 10
94.563707
 20
44.114439
 30
0.0
  0
LWPOLYLINE
  5
170
100
AcDbEntity
  8
Layer_9
 62
1
100
AcDbPolyline
 90
3
 70
1
 10
94.259497
 20
44.611249
 30
0.0
 10
91.324623
 20
44.611249
 30
0.0
 10
91.324623
 20
44.611249
 30
0.0
  0
ENDSEC
  0
SECTION
  2
OBJECTS
  0
DICTIONARY
  5
C
330
0
100
AcDbDictionary
  3
ACAD_GROUP
350
D
  3
ACAD_MLINESTYLE
350
17
  0
DICTIONARY
  5
D
330
C
100
AcDbDictionary
  0
DICTIONARY
  5
1A
330
C
100
AcDbDictionary
  0
DICTIONARY
  5
17
330
C
100
AcDbDictionary
  3
STANDARD
350
18
  0
DICTIONARY
  5
19
330
C
100
AcDbDictionary
  0
ENDSEC
  0
EOF
