0
SECTION
2
HEADER
9
$INSUNITS
70
4
9
$ACADVER
1
AC1014
9
$HANDSEED
5
FFFF
0
ENDSEC
0
SECTION
2
TABLES
0
TABLE
2
VPORT
5
8
100
AcDbSymbolTable
0
ENDTAB
0
TABLE
2
LTYPE
5
5
100
AcDbSymbolTable
0
LTYPE
5
14
100
AcDbSymbolTableRecord
100
AcDbLinetypeTableRecord
2
BYBLOCK
70
0
0
LTYPE
5
15
100
AcDbSymbolTableRecord
100
AcDbLinetypeTableRecord
2
BYLAYER
70
0
0
ENDTAB
0
TABLE
2
LAYER
5
2
100
AcDbSymbolTable
70
2
0
LAYER
5
50
100
AcDbSymbolTableRecord
100
AcDbLayerTableRecord
2
0
70
0
6
CONTINUOUS
0
ENDTAB
0
TABLE
2
STYLE
5
3
100
AcDbSymbolTable
70
1
0
STYLE
5
11
100
AcDbSymbolTableRecord
100
AcDbTextStyleTableRecord
2
STANDARD
70
0
0
ENDTAB
0
TABLE
2
VIEW
5
6
100
AcDbSymbolTable
70
0
0
ENDTAB
0
TABLE
2
UCS
5
7
100
AcDbSymbolTable
70
0
0
ENDTAB
0
TABLE
2
APPID
5
9
100
AcDbSymbolTable
70
2
0
APPID
5
12
100
AcDbSymbolTableRecord
100
AcDbRegAppTableRecord
2
ACAD
70
0
0
ENDTAB
0
TABLE
2
DIMSTYLE
5
A
100
AcDbSymbolTable
70
1
0
ENDTAB
0
TABLE
2
BLOCK_RECORD
5
1
100
AcDbSymbolTable
70
1
0
BLOCK_RECORD
5
1F
100
AcDbSymbolTableRecord
100
AcDbBlockTableRecord
2
*MODEL_SPACE
0
BLOCK_RECORD
5
1B
100
AcDbSymbolTableRecord
100
AcDbBlockTableRecord
2
*PAPER_SPACE
0
ENDTAB
0
ENDSEC
0
SECTION
2
BLOCKS
0
BLOCK
5
20
100
AcDbEntity
100
AcDbBlockBegin
2
*MODEL_SPACE
0
ENDBLK
5
21
100
AcDbEntity
100
AcDbBlockEnd
0
BLOCK
5
1C
100
AcDbEntity
100
AcDbBlockBegin
2
*PAPER_SPACE
0
ENDBLK
5
1D
100
AcDbEntity
100
AcDbBlockEnd
0
ENDSEC
0
SECTION
2
ENTITIES
0
LWPOLYLINE
5
100
100
AcDbEntity
8
0
100
AcDbPolyline
90
4
70
1
43
0.0
10
25
20
-10
10
10.278020058329478
20
-10
10
10.278020058329478
20
-45.304938079513157
10
25.000000000000004
20
-45.304938079513157
0
LWPOLYLINE
5
101
100
AcDbEntity
8
0
100
AcDbPolyline
90
4
70
1
43
0.0
10
20
20
-19.84349793598377
10
14.686995871967543
20
-19.84349793598377
10
14.686995871967543
20
-35
10
20
20
-35
0
LWPOLYLINE
5
102
100
AcDbEntity
8
0
100
AcDbPolyline
90
12
70
1
43
0.0
10
50
20
-9.5517288297622382
10
35
20
-9.5517288297622382
10
35
20
-45
10
50
20
-45
10
50
20
-30
10
44.68699587196754
20
-30
10
44.68699587196754
20
-35.304938079513164
10
39.68699587196754
20
-35.304938079513164
10
39.68699587196754
20
-19.84349793598377
10
44.68699587196754
20
-19.84349793598377
10
44.68699587196754
20
-25.315555359440232
10
50
20
-25.315555359440232
0
LWPOLYLINE
5
103
100
AcDbEntity
8
0
100
AcDbPolyline
90
16
70
1
43
0.0
10
64.570824050547785
20
-34.991933951480704
10
69.570824050547785
20
-34.991933951480704
10
69.570824050547785
20
-29.686995871967543
10
75
20
-29.68699587196754
10
75
20
-44.68699587196754
10
59.883828178580245
20
-44.68699587196754
10
59.883828178580245
20
-10
10
75
20
-10
10
75
20
-25.002551231407779
10
69.570824050547785
20
-25.002551231407779
10
69.570824050547785
20
-19.530493807951316
10
64.570824050547785
20
-19.530493807951316
10
64.570824050547785
20
-25
10
63.004442799906627
20
-25
10
63.004442799906627
20
-30.167118985522173
10
64.570824050547785
20
-30.167118985522173
0
LWPOLYLINE
5
104
100
AcDbEntity
8
0
100
AcDbPolyline
90
4
70
1
43
0.0
10
14.686995871967543
20
-74.678929823448243
10
19.686995871967543
20
-74.678929823448243
10
19.686995871967543
20
-59.84349793598377
10
14.686995871967543
20
-59.84349793598377
0
LWPOLYLINE
5
105
100
AcDbEntity
8
0
100
AcDbPolyline
90
6
70
1
43
0.0
10
25
20
-50
10
10.278020058329478
20
-50
10
10.278020058329478
20
-85.304938079513164
10
10
20
-125
10
25.000000000000004
20
-125
10
25.000000000000004
20
-85.304938079513164
0
LINE
5
106
100
AcDbEntity
8
0
100
AcDbLine
10
10.278020058329478
20
-85.304938079513164
30
0
11
10
21
-85.304938079513164
31
0
0
LWPOLYLINE
5
107
100
AcDbEntity
8
0
100
AcDbPolyline
90
4
70
1
43
0.0
10
20
20
-115.30493807951316
10
15
20
-115.30493807951316
10
15
20
-99.991933951480704
10
20
20
-99.991933951480704
0
LWPOLYLINE
5
108
100
AcDbEntity
8
0
100
AcDbPolyline
90
22
70
1
43
0.0
10
39.68699587196754
20
-60.330418815817104
10
39.68699587196754
20
-75.791858959346499
10
44.68699587196754
20
-75.791858959346499
10
44.68699587196754
20
-70.486920879833335
10
50
20
-70.486920879833335
10
50
20
-85.486920879833335
10
50
20
-105
10
45
20
-105
10
45
20
-100
10
40
20
-100
10
40
20
-115
10
45
20
-115
10
45
20
-110
10
50
20
-110
10
50
20
-125
10
35
20
-125
10
35
20
-85.486920879833335
10
35
20
-50.038649709595575
10
50
20
-50.038649709595575
10
50
20
-65.802476239273574
10
44.68699587196754
20
-65.802476239273574
10
44.68699587196754
20
-60.330418815817104
0
LWPOLYLINE
5
109
100
AcDbEntity
8
0
100
AcDbPolyline
90
22
70
1
43
0.0
10
89.68699587196754
20
-65.802476239273574
10
89.68699587196754
20
-60.330418815817104
10
84.68699587196754
20
-60.330418815817104
10
84.68699587196754
20
-75.791858959346499
10
89.68699587196754
20
-75.791858959346499
10
89.68699587196754
20
-70.486920879833335
10
95
20
-70.486920879833335
10
95
20
-85.486920879833335
10
95
20
-105
10
90
20
-105
10
90
20
-100
10
85
20
-100
10
85
20
-115
10
90
20
-115
10
90
20
-110
10
95
20
-110
10
95
20
-125
10
80
20
-125
10
80
20
-85.486920879833335
10
80
20
-50.038649709595575
10
95
20
-50.038649709595575
10
95
20
-65.802476239273574
0
LWPOLYLINE
5
110
100
AcDbEntity
8
0
100
AcDbPolyline
90
6
70
1
43
0.0
10
55.278020058329474
20
-50
10
55.278020058329474
20
-85.304938079513164
10
55
20
-125
10
70
20
-125
10
70
20
-85.304938079513164
10
70
20
-50
0
LWPOLYLINE
5
111
100
AcDbEntity
8
0
100
AcDbPolyline
90
4
70
1
43
0.0
10
64.68699587196754
20
-59.84349793598377
10
59.68699587196754
20
-59.84349793598377
10
59.68699587196754
20
-74.678929823448243
10
64.68699587196754
20
-74.678929823448243
0
LWPOLYLINE
5
112
100
AcDbEntity
8
0
100
AcDbPolyline
90
4
70
1
43
0.0
10
65
20
-115.30493807951316
10
60
20
-115.30493807951316
10
60
20
-99.991933951480704
10
65
20
-99.991933951480704
0
LINE
5
113
100
AcDbEntity
8
0
100
AcDbLine
10
55.278020058329474
20
-85.304938079513164
30
0
11
55
21
-85.304938079513164
31
0
0
LWPOLYLINE
5
114
100
AcDbEntity
8
0
100
AcDbPolyline
90
16
70
1
43
0.0
10
84.570824050547785
20
-25
10
83.004442799906627
20
-25
10
83.004442799906627
20
-30.167118985522173
10
84.570824050547785
20
-30.167118985522173
10
84.570824050547785
20
-34.991933951480704
10
89.570824050547785
20
-34.991933951480704
10
89.570824050547785
20
-29.686995871967543
10
95
20
-29.68699587196754
10
95
20
-44.68699587196754
10
79.883828178580245
20
-44.68699587196754
10
79.883828178580245
20
-10
10
95
20
-10
10
95
20
-25.002551231407779
10
89.570824050547785
20
-25.002551231407779
10
89.570824050547785
20
-19.530493807951316
10
84.570824050547785
20
-19.530493807951316
0
LWPOLYLINE
5
115
100
AcDbEntity
8
0
100
AcDbPolyline
90
4
70
1
43
0.0
10
110.18822433484524
20
-74.956409100716797
10
115.18822433484524
20
-74.956409100716797
10
115.18822433484524
20
-60.120977213252324
10
110.18822433484524
20
-60.120977213252324
0
LWPOLYLINE
5
116
100
AcDbEntity
8
0
100
AcDbPolyline
90
4
70
1
43
0.0
10
115.50122846287771
20
-100.26941322874926
10
115.50122846287771
20
-115.58241735678172
10
110.50122846287771
20
-115.58241735678172
10
110.50122846287771
20
-100.26941322874926
0
LWPOLYLINE
5
117
100
AcDbEntity
8
0
100
AcDbPolyline
90
22
70
1
43
0.0
10
130.50122846287769
20
-125.27747927726855
10
130.50122846287769
20
-85.764400157101889
10
130.50122846287769
20
-50.316128986864122
10
145.50122846287769
20
-50.316128986864122
10
145.50122846287769
20
-66.079955516542114
10
140.18822433484524
20
-66.079955516542114
10
140.18822433484524
20
-60.607898093085659
10
135.18822433484524
20
-60.607898093085659
10
135.18822433484524
20
-76.069338236615053
10
140.18822433484524
20
-76.069338236615053
10
140.18822433484524
20
-70.764400157101889
10
145.50122846287769
20
-70.764400157101889
10
145.50122846287769
20
-85.764400157101889
10
145.50122846287769
20
-105.27747927726855
10
140.50122846287769
20
-105.27747927726855
10
140.50122846287769
20
-100.27747927726855
10
135.50122846287769
20
-100.27747927726855
10
135.50122846287769
20
-115.27747927726855
10
140.50122846287769
20
-115.27747927726855
10
140.50122846287769
20
-110.27747927726855
10
145.50122846287769
20
-110.27747927726855
10
145.50122846287769
20
-125.27747927726855
0
LWPOLYLINE
5
118
100
AcDbEntity
8
0
100
AcDbPolyline
90
6
70
1
43
0.0
10
120.50122846287771
20
-85.582417356781718
10
120.50122846287771
20
-125.27747927726855
10
105.50122846287771
20
-125.27747927726855
10
105.77924852120718
20
-85.582417356781718
10
105.77924852120718
20
-50.277479277268554
10
120.50122846287771
20
-50.277479277268554
0
LINE
5
119
100
AcDbEntity
8
0
100
AcDbLine
10
105.77924852120718
20
-85.582417356781718
30
0
11
105.50122846287771
21
-85.582417356781718
31
0
0
LWPOLYLINE
5
120
100
AcDbEntity
8
0
100
AcDbPolyline
90
16
70
1
43
0.0
10
109.57082405054778
20
-19.530493807951316
10
104.57082405054778
20
-19.530493807951316
10
104.57082405054778
20
-25
10
103.00444279990663
20
-25
10
103.00444279990663
20
-30.167118985522173
10
104.57082405054778
20
-30.167118985522173
10
104.57082405054778
20
-34.991933951480704
10
109.57082405054778
20
-34.991933951480704
10
109.57082405054778
20
-29.686995871967543
10
115
20
-29.68699587196754
10
115
20
-44.68699587196754
10
99.883828178580245
20
-44.68699587196754
10
99.883828178580245
20
-10
10
115
20
-10
10
115
20
-25.002551231407779
10
109.57082405054778
20
-25.002551231407779
0
LWPOLYLINE
5
121
100
AcDbEntity
8
0
100
AcDbPolyline
90
16
70
1
43
0.0
10
134.5708240505478
20
-19.530493807951316
10
129.5708240505478
20
-19.530493807951316
10
129.5708240505478
20
-25
10
128.00444279990663
20
-25
10
128.00444279990663
20
-30.167118985522173
10
129.5708240505478
20
-30.167118985522173
10
129.5708240505478
20
-34.991933951480704
10
134.5708240505478
20
-34.991933951480704
10
134.5708240505478
20
-29.686995871967543
10
140
20
-29.68699587196754
10
140
20
-44.68699587196754
10
124.88382817858025
20
-44.68699587196754
10
124.88382817858025
20
-10
10
140
20
-10
10
140
20
-25.002551231407779
10
134.5708240505478
20
-25.002551231407779
0
LWPOLYLINE
5
122
100
AcDbEntity
8
0
100
AcDbPolyline
90
6
70
1
43
0.0
10
24.22190365378324
20
-175.56411424065607
10
24.221903653783237
20
-140.25917616114293
10
9.4999237121127145
20
-140.25917616114293
10
9.4999237121127145
20
-175.56411424065607
10
9.2219036537832366
20
-215.25917616114293
10
24.22190365378324
20
-215.25917616114293
0
LWPOLYLINE
5
123
100
AcDbEntity
8
0
100
AcDbPolyline
90
22
70
1
43
0.0
10
34.221903653783237
20
-140.29782587073851
10
34.221903653783237
20
-175.74609704097625
10
34.221903653783237
20
-215.25917616114293
10
49.221903653783237
20
-215.25917616114293
10
49.221903653783237
20
-200.25917616114293
10
44.221903653783237
20
-200.25917616114293
10
44.221903653783237
20
-205.25917616114293
10
39.221903653783237
20
-205.25917616114293
10
39.221903653783237
20
-190.25917616114293
10
44.221903653783237
20
-190.25917616114293
10
44.221903653783237
20
-195.25917616114293
10
49.221903653783237
20
-195.25917616114293
10
49.221903653783237
20
-175.74609704097625
10
49.221903653783237
20
-160.74609704097625
10
43.908899525750783
20
-160.74609704097625
10
43.908899525750783
20
-166.05103512048942
10
38.908899525750783
20
-166.05103512048942
10
38.908899525750783
20
-150.58959497696003
10
43.908899525750783
20
-150.58959497696003
10
43.908899525750783
20
-156.06165240041648
10
49.221903653783237
20
-156.06165240041648
10
49.221903653783237
20
-140.29782587073851
0
LWPOLYLINE
5
124
100
AcDbEntity
8
0
100
AcDbPolyline
90
4
70
1
43
0.0
10
13.90889952575078
20
-164.93810598459118
10
18.90889952575078
20
-164.93810598459118
10
18.90889952575078
20
-150.10267409712668
10
13.90889952575078
20
-150.10267409712668
0
LINE
5
125
100
AcDbEntity
8
0
100
AcDbLine
10
9.4999237121127145
20
-175.56411424065607
30
0
11
9.2219036537832366
21
-175.56411424065607
31
0
0
LWPOLYLINE
5
126
100
AcDbEntity
8
0
100
AcDbPolyline
90
4
70
1
43
0.0
10
14.221903653783237
20
-190.25111011262362
10
19.221903653783237
20
-190.25111011262362
10
19.221903653783237
20
-205.56411424065607
10
14.221903653783237
20
-205.56411424065607
0
ENDSEC
0
SECTION
2
OBJECTS
0
DICTIONARY
5
C
100
AcDbDictionary
3
ACAD_GROUP
350
D
3
ACAD_MLINESTYLE
350
17
0
DICTIONARY
5
D
100
AcDbDictionary
0
DICTIONARY
5
1A
330
C
100
AcDbDictionary
0
DICTIONARY
5
17
100
AcDbDictionary
0
ENDSEC
0
EOF
