  0
SECTION
  2
HEADER
  9
$ACADVER
  1
AC1024
  9
$ACADMAINTVER
 70
   181
  9
$DWGCODEPAGE
  3
ANSI_1252
  9
$LASTSAVEDBY
  1
Cristiana Giordano
  9
$INSBASE
 10
0.0
 20
0.0
 30
0.0
  9
$EXTMIN
 10
3599.443227424281
 20
1355.9582841424
 30
0.0
  9
$EXTMAX
 10
4199.443227424281
 20
1805.9582841424
 30
0.0
  9
$LIMMIN
 10
0.0
 20
0.0
  9
$LIMMAX
 10
420.0
 20
297.0
  9
$ORTHOMODE
 70
     1
  9
$REGENMODE
 70
     1
  9
$FILLMODE
 70
     1
  9
$QTEXTMODE
 70
     0
  9
$MIRRTEXT
 70
     0
  9
$LTSCALE
 40
1.0
  9
$ATTMODE
 70
     1
  9
$TEXTSIZE
 40
2.5
  9
$TRACEWID
 40
1.0
  9
$TEXTSTYLE
  7
Standard
  9
$CLAYER
  8
marcatura
  9
$CELTYPE
  6
ByLayer
  9
$CECOLOR
 62
   256
  9
$CELTSCALE
 40
1.0
  9
$DISPSILH
 70
     0
  9
$DIMSCALE
 40
1.0
  9
$DIMASZ
 40
2.5
  9
$DIMEXO
 40
0.625
  9
$DIMDLI
 40
3.75
  9
$DIMRND
 40
0.0
  9
$DIMDLE
 40
0.0
  9
$DIMEXE
 40
1.25
  9
$DIMTP
 40
0.0
  9
$DIMTM
 40
0.0
  9
$DIMTXT
 40
2.5
  9
$DIMCEN
 40
2.5
  9
$DIMTSZ
 40
0.0
  9
$DIMTOL
 70
     0
  9
$DIMLIM
 70
     0
  9
$DIMTIH
 70
     0
  9
$DIMTOH
 70
     0
  9
$DIMSE1
 70
     0
  9
$DIMSE2
 70
     0
  9
$DIMTAD
 70
     1
  9
$DIMZIN
 70
     8
  9
$DIMBLK
  1

  9
$DIMASO
 70
     1
  9
$DIMSHO
 70
     1
  9
$DIMPOST
  1

  9
$DIMAPOST
  1

  9
$DIMALT
 70
     0
  9
$DIMALTD
 70
     3
  9
$DIMALTF
 40
0.03937007874016
  9
$DIMLFAC
 40
1.0
  9
$DIMTOFL
 70
     1
  9
$DIMTVP
 40
0.0
  9
$DIMTIX
 70
     0
  9
$DIMSOXD
 70
     0
  9
$DIMSAH
 70
     0
  9
$DIMBLK1
  1

  9
$DIMBLK2
  1

  9
$DIMSTYLE
  2
ISO-25
  9
$DIMCLRD
 70
     0
  9
$DIMCLRE
 70
     0
  9
$DIMCLRT
 70
     0
  9
$DIMTFAC
 40
1.0
  9
$DIMGAP
 40
0.625
  9
$DIMJUST
 70
     0
  9
$DIMSD1
 70
     0
  9
$DIMSD2
 70
     0
  9
$DIMTOLJ
 70
     0
  9
$DIMTZIN
 70
     8
  9
$DIMALTZ
 70
     0
  9
$DIMALTTZ
 70
     0
  9
$DIMUPT
 70
     0
  9
$DIMDEC
 70
     2
  9
$DIMTDEC
 70
     2
  9
$DIMALTU
 70
     2
  9
$DIMALTTD
 70
     3
  9
$DIMTXSTY
  7
Standard
  9
$DIMAUNIT
 70
     0
  9
$DIMADEC
 70
     0
  9
$DIMALTRND
 40
0.0
  9
$DIMAZIN
 70
     0
  9
$DIMDSEP
 70
    44
  9
$DIMATFIT
 70
     3
  9
$DIMFRAC
 70
     0
  9
$DIMLDRBLK
  1

  9
$DIMLUNIT
 70
     2
  9
$DIMLWD
 70
    -2
  9
$DIMLWE
 70
    -2
  9
$DIMTMOVE
 70
     0
  9
$DIMFXL
 40
1.0
  9
$DIMFXLON
 70
     0
  9
$DIMJOGANG
 40
0.7853981633974483
  9
$DIMTFILL
 70
     0
  9
$DIMTFILLCLR
 70
     0
  9
$DIMARCSYM
 70
     0
  9
$DIMLTYPE
  6

  9
$DIMLTEX1
  6

  9
$DIMLTEX2
  6

  9
$DIMTXTDIRECTION
 70
     0
  9
$LUNITS
 70
     2
  9
$LUPREC
 70
     4
  9
$SKETCHINC
 40
1.0
  9
$FILLETRAD
 40
33.0
  9
$AUNITS
 70
     0
  9
$AUPREC
 70
     0
  9
$MENU
  1
.
  9
$ELEVATION
 40
0.0
  9
$PELEVATION
 40
0.0
  9
$THICKNESS
 40
0.0
  9
$LIMCHECK
 70
     0
  9
$CHAMFERA
 40
0.0
  9
$CHAMFERB
 40
0.0
  9
$CHAMFERC
 40
0.0
  9
$CHAMFERD
 40
0.0
  9
$SKPOLY
 70
     0
  9
$TDCREATE
 40
2457797.445345324
  9
$TDUCREATE
 40
2457797.362011991
  9
$TDUPDATE
 40
2457864.581101181
  9
$TDUUPDATE
 40
2457864.497767847
  9
$TDINDWG
 40
0.2799879398
  9
$TDUSRTIMER
 40
0.2799878819
  9
$USRTIMER
 70
     1
  9
$ANGBASE
 50
0.0
  9
$ANGDIR
 70
     0
  9
$PDMODE
 70
     0
  9
$PDSIZE
 40
0.0
  9
$PLINEWID
 40
0.0
  9
$SPLFRAME
 70
     0
  9
$SPLINETYPE
 70
     6
  9
$SPLINESEGS
 70
     8
  9
$HANDSEED
  5
32A0
  9
$SURFTAB1
 70
     6
  9
$SURFTAB2
 70
     6
  9
$SURFTYPE
 70
     6
  9
$SURFU
 70
     6
  9
$SURFV
 70
     6
  9
$UCSBASE
  2

  9
$UCSNAME
  2

  9
$UCSORG
 10
0.0
 20
0.0
 30
0.0
  9
$UCSXDIR
 10
1.0
 20
0.0
 30
0.0
  9
$UCSYDIR
 10
0.0
 20
1.0
 30
0.0
  9
$UCSORTHOREF
  2

  9
$UCSORTHOVIEW
 70
     0
  9
$UCSORGTOP
 10
0.0
 20
0.0
 30
0.0
  9
$UCSORGBOTTOM
 10
0.0
 20
0.0
 30
0.0
  9
$UCSORGLEFT
 10
0.0
 20
0.0
 30
0.0
  9
$UCSORGRIGHT
 10
0.0
 20
0.0
 30
0.0
  9
$UCSORGFRONT
 10
0.0
 20
0.0
 30
0.0
  9
$UCSORGBACK
 10
0.0
 20
0.0
 30
0.0
  9
$PUCSBASE
  2

  9
$PUCSNAME
  2

  9
$PUCSORG
 10
0.0
 20
0.0
 30
0.0
  9
$PUCSXDIR
 10
1.0
 20
0.0
 30
0.0
  9
$PUCSYDIR
 10
0.0
 20
1.0
 30
0.0
  9
$PUCSORTHOREF
  2

  9
$PUCSORTHOVIEW
 70
     0
  9
$PUCSORGTOP
 10
0.0
 20
0.0
 30
0.0
  9
$PUCSORGBOTTOM
 10
0.0
 20
0.0
 30
0.0
  9
$PUCSORGLEFT
 10
0.0
 20
0.0
 30
0.0
  9
$PUCSORGRIGHT
 10
0.0
 20
0.0
 30
0.0
  9
$PUCSORGFRONT
 10
0.0
 20
0.0
 30
0.0
  9
$PUCSORGBACK
 10
0.0
 20
0.0
 30
0.0
  9
$USERI1
 70
     0
  9
$USERI2
 70
     0
  9
$USERI3
 70
     0
  9
$USERI4
 70
     0
  9
$USERI5
 70
     0
  9
$USERR1
 40
0.0
  9
$USERR2
 40
0.0
  9
$USERR3
 40
0.0
  9
$USERR4
 40
0.0
  9
$USERR5
 40
0.0
  9
$WORLDVIEW
 70
     1
  9
$SHADEDGE
 70
     3
  9
$SHADEDIF
 70
    70
  9
$TILEMODE
 70
     1
  9
$MAXACTVP
 70
    64
  9
$PINSBASE
 10
0.0
 20
0.0
 30
0.0
  9
$PLIMCHECK
 70
     0
  9
$PEXTMIN
 10
0.0
 20
0.0
 30
0.0
  9
$PEXTMAX
 10
0.0
 20
0.0
 30
0.0
  9
$PLIMMIN
 10
0.0
 20
0.0
  9
$PLIMMAX
 10
12.0
 20
9.0
  9
$UNITMODE
 70
     0
  9
$VISRETAIN
 70
     1
  9
$PLINEGEN
 70
     0
  9
$PSLTSCALE
 70
     1
  9
$TREEDEPTH
 70
  3020
  9
$CMLSTYLE
  2
Standard
  9
$CMLJUST
 70
     0
  9
$CMLSCALE
 40
20.0
  9
$PROXYGRAPHICS
 70
     1
  9
$MEASUREMENT
 70
     1
  9
$CELWEIGHT
370
    -1
  9
$ENDCAPS
280
     0
  9
$JOINSTYLE
280
     0
  9
$LWDISPLAY
290
     0
  9
$INSUNITS
 70
     4
  9
$HYPERLINKBASE
  1

  9
$STYLESHEET
  1

  9
$XEDIT
290
     1
  9
$CEPSNTYPE
380
     0
  9
$PSTYLEMODE
290
     1
  9
$FINGERPRINTGUID
  2
{5CD1143E-5BA4-4CB6-91EE-7646662DF8C9}
  9
$VERSIONGUID
  2
{7859CFD5-0402-4862-8DAB-C7417737913A}
  9
$EXTNAMES
290
     1
  9
$PSVPSCALE
 40
0.0
  9
$OLESTARTUP
290
     0
  9
$SORTENTS
280
   127
  9
$INDEXCTL
280
     0
  9
$HIDETEXT
280
     1
  9
$XCLIPFRAME
280
     2
  9
$HALOGAP
280
     0
  9
$OBSCOLOR
 70
   257
  9
$OBSLTYPE
280
     0
  9
$INTERSECTIONDISPLAY
280
     0
  9
$INTERSECTIONCOLOR
 70
   257
  9
$DIMASSOC
280
     2
  9
$PROJECTNAME
  1

  9
$CAMERADISPLAY
290
     0
  9
$LENSLENGTH
 40
50.0
  9
$CAMERAHEIGHT
 40
0.0
  9
$STEPSPERSEC
 40
2.0
  9
$STEPSIZE
 40
6.0
  9
$3DDWFPREC
 40
2.0
  9
$PSOLWIDTH
 40
5.0
  9
$PSOLHEIGHT
 40
80.0
  9
$LOFTANG1
 40
1.570796326794896
  9
$LOFTANG2
 40
1.570796326794896
  9
$LOFTMAG1
 40
0.0
  9
$LOFTMAG2
 40
0.0
  9
$LOFTPARAM
 70
     7
  9
$LOFTNORMALS
280
     1
  9
$LATITUDE
 40
37.795
  9
$LONGITUDE
 40
-122.394
  9
$NORTHDIRECTION
 40
0.0
  9
$TIMEZONE
 70
 -8000
  9
$LIGHTGLYPHDISPLAY
280
     1
  9
$TILEMODELIGHTSYNCH
280
     1
  9
$CMATERIAL
347
EC
  9
$SOLIDHIST
280
     0
  9
$SHOWHIST
280
     1
  9
$DWFFRAME
280
     2
  9
$DGNFRAME
280
     0
  9
$REALWORLDSCALE
290
     1
  9
$INTERFERECOLOR
 62
     1
  9
$INTERFEREOBJVS
345
F9
  9
$INTERFEREVPVS
346
F6
  9
$CSHADOW
280
     0
  9
$SHADOWPLANELOCATION
 40
0.0
  0
ENDSEC
  0
SECTION
  2
CLASSES
  0
CLASS
  1
ACDBDICTIONARYWDFLT
  2
AcDbDictionaryWithDefault
  3
ObjectDBX Classes
 90
        0
 91
        1
280
     0
281
     0
  0
CLASS
  1
DICTIONARYVAR
  2
AcDbDictionaryVar
  3
ObjectDBX Classes
 90
        0
 91
       16
280
     0
281
     0
  0
CLASS
  1
TABLESTYLE
  2
AcDbTableStyle
  3
ObjectDBX Classes
 90
     4095
 91
        1
280
     0
281
     0
  0
CLASS
  1
MATERIAL
  2
AcDbMaterial
  3
ObjectDBX Classes
 90
     1153
 91
        3
280
     0
281
     0
  0
CLASS
  1
VISUALSTYLE
  2
AcDbVisualStyle
  3
ObjectDBX Classes
 90
     4095
 91
       24
280
     0
281
     0
  0
CLASS
  1
SCALE
  2
AcDbScale
  3
ObjectDBX Classes
 90
     1153
 91
       17
280
     0
281
     0
  0
CLASS
  1
MLEADERSTYLE
  2
AcDbMLeaderStyle
  3
ACDB_MLEADERSTYLE_CLASS
 90
     4095
 91
        2
280
     0
281
     0
  0
CLASS
  1
CELLSTYLEMAP
  2
AcDbCellStyleMap
  3
ObjectDBX Classes
 90
     1152
 91
        1
280
     0
281
     0
  0
CLASS
  1
EXACXREFPANELOBJECT
  2
ExAcXREFPanelObject
  3
EXAC_ESW
 90
     1025
 91
        0
280
     0
281
     0
  0
CLASS
  1
NPOCOLLECTION
  2
AcDbImpNonPersistentObjectsCollection
  3
ObjectDBX Classes
 90
     1153
 91
        0
280
     0
281
     0
  0
CLASS
  1
LAYER_INDEX
  2
AcDbLayerIndex
  3
ObjectDBX Classes
 90
        0
 91
        0
280
     0
281
     0
  0
CLASS
  1
SPATIAL_INDEX
  2
AcDbSpatialIndex
  3
ObjectDBX Classes
 90
        0
 91
        0
280
     0
281
     0
  0
CLASS
  1
IDBUFFER
  2
AcDbIdBuffer
  3
ObjectDBX Classes
 90
        0
 91
        0
280
     0
281
     0
  0
CLASS
  1
ACDBSECTIONVIEWSTYLE
  2
AcDbSectionViewStyle
  3
ObjectDBX Classes
 90
     1025
 91
        1
280
     0
281
     0
  0
CLASS
  1
ACDBDETAILVIEWSTYLE
  2
AcDbDetailViewStyle
  3
ObjectDBX Classes
 90
     1025
 91
        1
280
     0
281
     0
  0
CLASS
  1
ACDBASSOCNETWORK
  2
AcDbAssocNetwork
  3
ObjectDBX Classes
 90
     1025
 91
        0
280
     0
281
     0
  0
CLASS
  1
ACDBASSOC2DCONSTRAINTGROUP
  2
AcDbAssoc2dConstraintGroup
  3
ObjectDBX Classes
 90
     1025
 91
        0
280
     0
281
     0
  0
CLASS
  1
ACDBASSOCGEOMDEPENDENCY
  2
AcDbAssocGeomDependency
  3
ObjectDBX Classes
 90
     1025
 91
        0
280
     0
281
     0
  0
CLASS
  1
SORTENTSTABLE
  2
AcDbSortentsTable
  3
ObjectDBX Classes
 90
        0
 91
        1
280
     0
281
     0
  0
CLASS
  1
ACDBASSOCVARIABLE
  2
AcDbAssocVariable
  3
ObjectDBX Classes
 90
     1025
 91
        0
280
     0
281
     0
  0
CLASS
  1
ACDBASSOCVALUEDEPENDENCY
  2
AcDbAssocValueDependency
  3
ObjectDBX Classes
 90
     1025
 91
        0
280
     0
281
     0
  0
CLASS
  1
ACDBASSOCDEPENDENCY
  2
AcDbAssocDependency
  3
ObjectDBX Classes
 90
     1025
 91
        0
280
     0
281
     0
  0
CLASS
  1
ASSOCDIMDEPENDENCYBODY
  2
AcDbAssocDimDependencyBody
  3
ObjectDBX Classes
 90
     1025
 91
        0
280
     0
281
     0
  0
ENDSEC
  0
SECTION
  2
TABLES
  0
TABLE
  2
VPORT
  5
8
330
0
100
AcDbSymbolTable
 70
     1
  0
VPORT
  5
EA
330
8
100
AcDbSymbolTableRecord
100
AcDbViewportTableRecord
  2
*Active
 70
     0
 10
0.0
 20
0.0
 11
1.0
 21
1.0
 12
3783.884478734846
 22
1539.079667371979
 13
0.0
 23
0.0
 14
10.0
 24
10.0
 15
10.0
 25
10.0
 16
0.0
 26
0.0
 36
1.0
 17
0.0
 27
0.0
 37
0.0
 40
808.815681344997
 41
2.471048513302034
 42
50.0
 43
0.0
 44
0.0
 50
0.0
 51
0.0
 71
     0
 72
  1000
 73
     1
 74
     3
 75
     0
 76
     1
 77
     0
 78
     0
281
     0
 65
     1
110
0.0
120
0.0
130
0.0
111
1.0
121
0.0
131
0.0
112
0.0
122
1.0
132
0.0
 79
     0
146
0.0
348
F5
 60
     3
 61
     5
292
     1
282
     1
141
0.0
142
0.0
 63
   250
421
  3355443
1001
ACAD_NAV_VCDISPLAY
1070
     3
  0
ENDTAB
  0
TABLE
  2
LTYPE
  5
5
330
0
100
AcDbSymbolTable
 70
     1
  0
LTYPE
  5
14
330
5
100
AcDbSymbolTableRecord
100
AcDbLinetypeTableRecord
  2
ByBlock
 70
     0
  3

 72
    65
 73
     0
 40
0.0
  0
LTYPE
  5
15
330
5
100
AcDbSymbolTableRecord
100
AcDbLinetypeTableRecord
  2
ByLayer
 70
     0
  3

 72
    65
 73
     0
 40
0.0
  0
LTYPE
  5
16
330
5
100
AcDbSymbolTableRecord
100
AcDbLinetypeTableRecord
  2
Continuous
 70
     0
  3
Solid line
 72
    65
 73
     0
 40
0.0
  0
ENDTAB
  0
TABLE
  2
LAYER
  5
2
102
{ACAD_XDICTIONARY
360
1FF
102
}
330
0
100
AcDbSymbolTable
 70
     4
  0
LAYER
  5
10
102
{ACAD_XDICTIONARY
360
13C
102
}
330
2
100
AcDbSymbolTableRecord
100
AcDbLayerTableRecord
  2
0
 70
     0
 62
     7
  6
Continuous
370
    -3
390
F
347
EE
  0
LAYER
  5
486
330
2
100
AcDbSymbolTableRecord
100
AcDbLayerTableRecord
  2
*ADSK_CONSTRAINTS
 70
     0
 62
     7
  6
Continuous
370
    -3
390
F
347
EE
  0
LAYER
  5
22EB
330
2
100
AcDbSymbolTableRecord
100
AcDbLayerTableRecord
  2
taglio
 70
     0
 62
     1
  6
Continuous
370
    -3
390
F
347
EE
1001
AcAecLayerStandard
1000

1000

1001
AcCmTransparency
1071
        0
  0
LAYER
  5
22EE
330
2
100
AcDbSymbolTableRecord
100
AcDbLayerTableRecord
  2
marcatura
 70
     0
 62
     2
  6
Continuous
370
    -3
390
F
347
EE
1001
AcAecLayerStandard
1000

1000

1001
AcCmTransparency
1071
        0
  0
ENDTAB
  0
TABLE
  2
STYLE
  5
3
330
0
100
AcDbSymbolTable
 70
     3
  0
STYLE
  5
11
330
3
100
AcDbSymbolTableRecord
100
AcDbTextStyleTableRecord
  2
Standard
 70
     0
 40
0.0
 41
1.0
 50
0.0
 71
     0
 42
2.5
  3
arial.ttf
  4

1001
ACAD
1000
Arial
1071
       34
  0
STYLE
  5
132
330
3
100
AcDbSymbolTableRecord
100
AcDbTextStyleTableRecord
  2
Annotativa
 70
     0
 40
0.0
 41
1.0
 50
0.0
 71
     0
 42
2.5
  3
arial.ttf
  4

1001
AcadAnnotative
1000
AnnotativeData
1002
{
1070
     1
1070
     1
1002
}
1001
ACAD
1000
Arial
1071
       34
  0
ENDTAB
  0
TABLE
  2
VIEW
  5
6
330
0
100
AcDbSymbolTable
 70
     0
  0
ENDTAB
  0
TABLE
  2
UCS
  5
7
330
0
100
AcDbSymbolTable
 70
     0
  0
ENDTAB
  0
TABLE
  2
APPID
  5
9
330
0
100
AcDbSymbolTable
 70
    15
  0
APPID
  5
12
330
9
100
AcDbSymbolTableRecord
100
AcDbRegAppTableRecord
  2
ACAD
 70
     0
  0
APPID
  5
9E
330
9
100
AcDbSymbolTableRecord
100
AcDbRegAppTableRecord
  2
ACAD_PSEXT
 70
     0
  0
APPID
  5
133
330
9
100
AcDbSymbolTableRecord
100
AcDbRegAppTableRecord
  2
AcadAnnoPO
 70
     0
  0
APPID
  5
134
330
9
100
AcDbSymbolTableRecord
100
AcDbRegAppTableRecord
  2
AcadAnnotative
 70
     0
  0
APPID
  5
135
330
9
100
AcDbSymbolTableRecord
100
AcDbRegAppTableRecord
  2
ACAD_DSTYLE_DIMJAG
 70
     0
  0
APPID
  5
136
330
9
100
AcDbSymbolTableRecord
100
AcDbRegAppTableRecord
  2
ACAD_DSTYLE_DIMTALN
 70
     0
  0
APPID
  5
165
330
9
100
AcDbSymbolTableRecord
100
AcDbRegAppTableRecord
  2
ACAD_MLEADERVER
 70
     0
  0
APPID
  5
217
330
9
100
AcDbSymbolTableRecord
100
AcDbRegAppTableRecord
  2
ACAD_NAV_VCDISPLAY
 70
     0
  0
APPID
  5
250
330
9
100
AcDbSymbolTableRecord
100
AcDbRegAppTableRecord
  2
ACAD_EXEMPT_FROM_CAD_STANDARDS
 70
     0
  0
APPID
  5
48D
330
9
100
AcDbSymbolTableRecord
100
AcDbRegAppTableRecord
  2
ACAD_DSTYLE_DIMINSPECT
 70
     0
  0
APPID
  5
48E
330
9
100
AcDbSymbolTableRecord
100
AcDbRegAppTableRecord
  2
ACAD_DSTYLE_DIMJAG_POSITION
 70
     0
  0
APPID
  5
490
330
9
100
AcDbSymbolTableRecord
100
AcDbRegAppTableRecord
  2
AcadAnnoMonitorAlertIconDisabled
 70
     0
  0
APPID
  5
658
330
9
100
AcDbSymbolTableRecord
100
AcDbRegAppTableRecord
  2
ACAD_OBJECT_NAME
 70
     0
  0
APPID
  5
22EC
330
9
100
AcDbSymbolTableRecord
100
AcDbRegAppTableRecord
  2
AcAecLayerStandard
 70
     0
  0
APPID
  5
22ED
330
9
100
AcDbSymbolTableRecord
100
AcDbRegAppTableRecord
  2
AcCmTransparency
 70
     0
  0
ENDTAB
  0
TABLE
  2
DIMSTYLE
  5
A
330
0
100
AcDbSymbolTable
 70
     4
100
AcDbDimStyleTable
 71
     2
340
27
340
137
  0
DIMSTYLE
105
1B0
330
A
100
AcDbSymbolTableRecord
100
AcDbDimStyleTableRecord
  2
Standard
 70
     0
340
11
  0
DIMSTYLE
105
137
330
A
100
AcDbSymbolTableRecord
100
AcDbDimStyleTableRecord
  2
Annotativa
 70
     0
 40
0.0
 41
2.5
 42
0.625
 43
3.75
 44
1.25
 73
     0
 74
     0
 77
     1
 78
     8
140
2.5
141
2.5
143
0.03937007874016
147
0.625
171
     3
172
     1
271
     2
272
     2
274
     3
278
    44
283
     0
284
     8
340
11
1001
AcadAnnotative
1000
AnnotativeData
1002
{
1070
     1
1070
     1
1002
}
1001
ACAD_DSTYLE_DIMJAG
1070
   388
1040
1.5
1001
ACAD_DSTYLE_DIMTALN
1070
   392
1070
     0
  0
DIMSTYLE
105
27
330
A
100
AcDbSymbolTableRecord
100
AcDbDimStyleTableRecord
  2
ISO-25
 70
     0
 41
2.5
 42
0.625
 43
3.75
 44
1.25
 73
     0
 74
     0
 77
     1
 78
     8
140
2.5
141
2.5
143
0.03937007874016
147
0.625
171
     3
172
     1
271
     2
272
     2
274
     3
278
    44
283
     0
284
     8
340
11
  0
ENDTAB
  0
TABLE
  2
BLOCK_RECORD
  5
1
330
0
100
AcDbSymbolTable
 70
     2
  0
BLOCK_RECORD
  5
1F
102
{ACAD_XDICTIONARY
360
1CE
102
}
330
1
100
AcDbSymbolTableRecord
100
AcDbBlockTableRecord
  2
*Model_Space
340
22
 70
     0
280
     1
281
     0
  0
BLOCK_RECORD
  5
D2
330
1
100
AcDbSymbolTableRecord
100
AcDbBlockTableRecord
  2
*Paper_Space
340
D3
 70
     0
280
     1
281
     0
  0
BLOCK_RECORD
  5
D6
330
1
100
AcDbSymbolTableRecord
100
AcDbBlockTableRecord
  2
*Paper_Space0
340
D7
 70
     0
280
     1
281
     0
  0
BLOCK_RECORD
  5
487
330
1
100
AcDbSymbolTableRecord
100
AcDbBlockTableRecord
  2
_ClosedBlank
340
0
 70
     0
280
     1
281
     0
  0
ENDTAB
  0
ENDSEC
  0
SECTION
  2
BLOCKS
  0
BLOCK
  5
20
330
1F
100
AcDbEntity
  8
0
100
AcDbBlockBegin
  2
*Model_Space
 70
     0
 10
0.0
 20
0.0
 30
0.0
  3
*Model_Space
  1

  0
ENDBLK
  5
21
330
1F
100
AcDbEntity
  8
0
100
AcDbBlockEnd
  0
BLOCK
  5
D4
330
D2
100
AcDbEntity
 67
     1
  8
0
100
AcDbBlockBegin
  2
*Paper_Space
 70
     0
 10
0.0
 20
0.0
 30
0.0
  3
*Paper_Space
  1

  0
ENDBLK
  5
D5
330
D2
100
AcDbEntity
 67
     1
  8
0
100
AcDbBlockEnd
  0
BLOCK
  5
D8
330
D6
100
AcDbEntity
 67
     1
  8
0
100
AcDbBlockBegin
  2
*Paper_Space0
 70
     0
 10
0.0
 20
0.0
 30
0.0
  3
*Paper_Space0
  1

  0
ENDBLK
  5
D9
330
D6
100
AcDbEntity
 67
     1
  8
0
100
AcDbBlockEnd
  0
BLOCK
  5
48B
330
487
100
AcDbEntity
  8
0
100
AcDbBlockBegin
  2
_ClosedBlank
 70
     0
 10
0.0
 20
0.0
 30
0.0
  3
_ClosedBlank
  1

  0
LINE
  5
488
330
487
100
AcDbEntity
  8
0
  6
ByBlock
 62
     0
370
    -2
100
AcDbLine
 10
-1.0
 20
0.1666666666666666
 30
0.0
 11
0.0
 21
0.0
 31
0.0
  0
LINE
  5
489
330
487
100
AcDbEntity
  8
0
  6
ByBlock
 62
     0
370
    -2
100
AcDbLine
 10
0.0
 20
0.0
 30
0.0
 11
-1.0
 21
-0.1666666666666666
 31
0.0
  0
LINE
  5
48A
330
487
100
AcDbEntity
  8
0
  6
ByBlock
 62
     0
370
    -2
100
AcDbLine
 10
-1.0
 20
0.1666666666666666
 30
0.0
 11
-1.0
 21
-0.1666666666666666
 31
0.0
  0
ENDBLK
  5
48C
330
487
100
AcDbEntity
  8
0
100
AcDbBlockEnd
  0
ENDSEC
  0
SECTION
  2
ENTITIES
  0
LINE
  5
DB2
330
1F
100
AcDbEntity
  8
marcatura
100
AcDbLine
 10
4085.424967807353
 20
1725.019119807347
 30
0.0
 11
4185.424967807349
 21
1725.019119807347
 31
0.0
  0
LINE
  5
DB3
330
1F
100
AcDbEntity
  8
marcatura
100
AcDbLine
 10
4085.424967807353
 20
1722.019119807347
 30
0.0
 11
4185.424967807349
 21
1722.019119807347
 31
0.0
  0
LINE
  5
DB4
330
1F
100
AcDbEntity
  8
marcatura
100
AcDbLine
 10
4073.170999553402
 20
1687.685786474014
 30
0.0
 11
4173.170999553415
 21
1687.685786474014
 31
0.0
  0
LINE
  5
DB5
330
1F
100
AcDbEntity
  8
marcatura
100
AcDbLine
 10
4073.170999553402
 20
1690.685786474014
 30
0.0
 11
4173.170999553415
 21
1690.685786474014
 31
0.0
  0
LINE
  5
FEF
330
1F
100
AcDbEntity
  8
marcatura
100
AcDbLine
 10
4085.424967807353
 20
1594.232083293979
 30
0.0
 11
4185.424967807349
 21
1594.232083293979
 31
0.0
  0
LINE
  5
FF0
330
1F
100
AcDbEntity
  8
marcatura
100
AcDbLine
 10
4085.424967807353
 20
1591.232083293979
 30
0.0
 11
4185.424967807349
 21
1591.232083293979
 31
0.0
  0
LINE
  5
FF1
330
1F
100
AcDbEntity
  8
marcatura
100
AcDbLine
 10
4073.170999553402
 20
1556.898749960645
 30
0.0
 11
4173.170999553415
 21
1556.898749960645
 31
0.0
  0
LINE
  5
FF2
330
1F
100
AcDbEntity
  8
marcatura
100
AcDbLine
 10
4073.170999553402
 20
1559.898749960645
 30
0.0
 11
4173.170999553415
 21
1559.898749960645
 31
0.0
  0
LINE
  5
1275
330
1F
100
AcDbEntity
  8
taglio
100
AcDbLine
 10
4178.726555108579
 20
1396.813973870683
 30
0.0
 11
4178.726555108736
 21
1415.078163846243
 31
0.0
  0
LINE
  5
1276
330
1F
100
AcDbEntity
  8
taglio
100
AcDbLine
 10
4173.170999553414
 20
1414.262630167356
 30
0.0
 11
4173.170999553414
 21
1441.671116728688
 31
0.0
  0
ARC
  5
1278
330
1F
100
AcDbEntity
  8
taglio
100
AcDbCircle
 10
4174.028142410544
 20
1441.671116728688
 30
0.0
 40
0.8571428571286974
100
AcDbArc
 50
90.0
 51
180.0
  0
LINE
  5
1279
330
1F
100
AcDbEntity
  8
taglio
100
AcDbLine
 10
4178.726555108958
 20
1440.777860842566
 30
0.0
 11
4178.726555109113
 21
1458.665072677378
 31
0.0
  0
ARC
  5
127A
330
1F
100
AcDbEntity
  8
taglio
100
AcDbCircle
 10
4179.591815971894
 20
1458.665072677371
 30
0.0
 40
0.865260862780679
100
AcDbArc
 50
43.25892518168999
 51
179.9999999995017
  0
LINE
  5
127B
330
1F
100
AcDbEntity
  8
taglio
100
AcDbLine
 10
4178.726555109327
 20
1483.635003699564
 30
0.0
 11
4178.726555109443
 21
1496.813973870685
 31
0.0
  0
ARC
  5
127C
330
1F
100
AcDbEntity
  8
taglio
100
AcDbCircle
 10
4179.583697966251
 20
1483.635003699557
 30
0.0
 40
0.8571428569242788
100
AcDbArc
 50
179.9999999994984
 51
315.1243153897804
  0
LINE
  5
1281
330
1F
100
AcDbEntity
  8
taglio
100
AcDbLine
 10
4176.080940319812
 20
1442.25851367993
 30
0.0
 11
4177.814534621279
 21
1440.416223781333
 31
0.0
  0
ARC
  5
1282
330
1F
100
AcDbEntity
  8
taglio
100
AcDbCircle
 10
4178.198846166553
 20
1440.777860842571
 30
0.0
 40
0.5277089424045645
100
AcDbArc
 50
223.2589251817825
 51
359.9999999995263
  0
LINE
  5
1283
330
1F
100
AcDbEntity
  8
taglio
100
AcDbLine
 10
4174.028142410544
 20
1442.528259585817
 30
0.0
 11
4175.456713839113
 21
1442.528259585817
 31
0.0
  0
ARC
  5
1284
330
1F
100
AcDbEntity
  8
taglio
100
AcDbCircle
 10
4175.456713839113
 20
1441.671116728676
 30
0.0
 40
0.8571428571406292
100
AcDbArc
 50
43.25892518168891
 51
90.0
  0
LINE
  5
1285
330
1F
100
AcDbEntity
  8
taglio
100
AcDbLine
 10
4185.424967807349
 20
1457.918161226744
 30
0.0
 11
4185.424967807349
 21
1484.28121508776
 31
0.0
  0
ARC
  5
1286
330
1F
100
AcDbEntity
  8
taglio
100
AcDbCircle
 10
4184.320780452146
 20
1484.28121508776
 30
0.0
 40
1.104187355203521
100
AcDbArc
 50
0.0
 51
90.0
  0
LINE
  5
1287
330
1F
100
AcDbEntity
  8
taglio
100
AcDbLine
 10
4182.267982542895
 20
1457.08371977743
 30
0.0
 11
4180.221954505698
 21
1459.258032869016
 31
0.0
  0
ARC
  5
1288
330
1F
100
AcDbEntity
  8
taglio
100
AcDbCircle
 10
4182.892209023595
 20
1457.671116728685
 30
0.0
 40
0.8571428571428594
100
AcDbArc
 50
223.2589251816761
 51
270.0
  0
LINE
  5
1289
330
1F
100
AcDbEntity
  8
taglio
100
AcDbLine
 10
4184.320780452148
 20
1456.813973871542
 30
0.0
 11
4182.892209023595
 21
1456.813973871542
 31
0.0
  0
ARC
  5
128A
330
1F
100
AcDbEntity
  8
taglio
100
AcDbCircle
 10
4184.320780452148
 20
1457.918161226744
 30
0.0
 40
1.1041873552019
100
AcDbArc
 50
270.0
 51
0.0
  0
LINE
  5
128B
330
1F
100
AcDbEntity
  8
taglio
100
AcDbLine
 10
4182.284803879915
 20
1485.133034642337
 30
0.0
 11
4180.191103109743
 21
1483.030228643164
 31
0.0
  0
ARC
  5
128C
330
1F
100
AcDbEntity
  8
taglio
100
AcDbCircle
 10
4182.89220902356
 20
1484.528259585789
 30
0.0
 40
0.8571428571428594
100
AcDbArc
 50
90.0
 51
135.1243153897722
  0
LINE
  5
128D
330
1F
100
AcDbEntity
  8
taglio
100
AcDbLine
 10
4184.320780452146
 20
1485.385402442963
 30
0.0
 11
4182.89220902356
 21
1485.385402442932
 31
0.0
  0
LINE
  5
128E
330
1F
100
AcDbEntity
  8
taglio
100
AcDbLine
 10
4078.72655510858
 20
1396.813973871547
 30
0.0
 11
4078.726555108737
 21
1415.078163847108
 31
0.0
  0
LINE
  5
128F
330
1F
100
AcDbEntity
  8
taglio
100
AcDbLine
 10
4073.170999553402
 20
1414.238519447328
 30
0.0
 11
4073.170999553402
 21
1441.671116728675
 31
0.0
  0
ARC
  5
1290
330
1F
100
AcDbEntity
  8
taglio
100
AcDbCircle
 10
4074.004031690517
 20
1414.238519447328
 30
0.0
 40
0.833032137114969
100
AcDbArc
 50
180.0
 51
270.0
  0
ARC
  5
1291
330
1F
100
AcDbEntity
  8
taglio
100
AcDbCircle
 10
4074.028142410543
 20
1441.671116728675
 30
0.0
 40
0.8571428571413006
100
AcDbArc
 50
90.0
 51
180.0
  0
LINE
  5
1292
330
1F
100
AcDbEntity
  8
taglio
100
AcDbLine
 10
4078.726555108959
 20
1440.777860842566
 30
0.0
 11
4078.726555109112
 21
1458.665072677365
 31
0.0
  0
ARC
  5
1293
330
1F
100
AcDbEntity
  8
taglio
100
AcDbCircle
 10
4079.591815971881
 20
1458.665072677357
 30
0.0
 40
0.8652608627693332
100
AcDbArc
 50
43.25892518168953
 51
179.9999999995017
  0
LINE
  5
1294
330
1F
100
AcDbEntity
  8
taglio
100
AcDbLine
 10
4078.726555109327
 20
1483.635003699545
 30
0.0
 11
4078.726555109441
 21
1496.813973871547
 31
0.0
  0
ARC
  5
1295
330
1F
100
AcDbEntity
  8
taglio
100
AcDbCircle
 10
4079.583697966271
 20
1483.635003699538
 30
0.0
 40
0.8571428569434278
100
AcDbArc
 50
179.9999999995147
 51
315.1243153897906
  0
LINE
  5
1296
330
1F
100
AcDbEntity
  8
taglio
100
AcDbLine
 10
4076.040008262732
 20
1413.657855110807
 30
0.0
 11
4077.824890852705
 21
1415.450499920177
 31
0.0
  0
ARC
  5
1297
330
1F
100
AcDbEntity
  8
taglio
100
AcDbCircle
 10
4078.198846166332
 20
1415.078163847113
 30
0.0
 40
0.5277089424045645
100
AcDbArc
 50
359.9999999995049
 51
135.1243153897896
  0
LINE
  5
1298
330
1F
100
AcDbEntity
  8
taglio
100
AcDbLine
 10
4074.004031690517
 20
1413.405487310213
 30
0.0
 11
4075.432603119087
 21
1413.405487310213
 31
0.0
  0
ARC
  5
1299
330
1F
100
AcDbEntity
  8
taglio
100
AcDbCircle
 10
4075.432603119087
 20
1414.262630167353
 30
0.0
 40
0.8571428571406292
100
AcDbArc
 50
270.0
 51
315.1243153897723
  0
LINE
  5
129A
330
1F
100
AcDbEntity
  8
taglio
100
AcDbLine
 10
4076.080940319811
 20
1442.25851367993
 30
0.0
 11
4077.814534621277
 21
1440.416223781333
 31
0.0
  0
ARC
  5
129B
330
1F
100
AcDbEntity
  8
taglio
100
AcDbCircle
 10
4078.198846166554
 20
1440.777860842571
 30
0.0
 40
0.5277089424045645
100
AcDbArc
 50
223.2589251816758
 51
359.9999999995049
  0
LINE
  5
129C
330
1F
100
AcDbEntity
  8
taglio
100
AcDbLine
 10
4074.028142410543
 20
1442.528259585817
 30
0.0
 11
4075.456713839114
 21
1442.528259585817
 31
0.0
  0
ARC
  5
129D
330
1F
100
AcDbEntity
  8
taglio
100
AcDbCircle
 10
4075.456713839114
 20
1441.671116728676
 30
0.0
 40
0.8571428571406292
100
AcDbArc
 50
43.25892518168891
 51
90.0
  0
LINE
  5
129E
330
1F
100
AcDbEntity
  8
taglio
100
AcDbLine
 10
4085.424967807353
 20
1457.918161226745
 30
0.0
 11
4085.424967807353
 21
1484.281215087774
 31
0.0
  0
ARC
  5
129F
330
1F
100
AcDbEntity
  8
taglio
100
AcDbCircle
 10
4084.320780452165
 20
1484.281215087774
 30
0.0
 40
1.104187355188514
100
AcDbArc
 50
0.0
 51
90.0
  0
LINE
  5
12A0
330
1F
100
AcDbEntity
  8
taglio
100
AcDbLine
 10
4082.267982542879
 20
1457.083719777429
 30
0.0
 11
4080.221954505677
 21
1459.258032868994
 31
0.0
  0
ARC
  5
12A1
330
1F
100
AcDbEntity
  8
taglio
100
AcDbCircle
 10
4082.892209023579
 20
1457.671116728685
 30
0.0
 40
0.8571428571428594
100
AcDbArc
 50
223.2589251816901
 51
270.0
  0
LINE
  5
12A2
330
1F
100
AcDbEntity
  8
taglio
100
AcDbLine
 10
4084.32078045215
 20
1456.813973871542
 30
0.0
 11
4082.892209023579
 21
1456.813973871542
 31
0.0
  0
ARC
  5
12A3
330
1F
100
AcDbEntity
  8
taglio
100
AcDbCircle
 10
4084.32078045215
 20
1457.918161226745
 30
0.0
 40
1.104187355202679
100
AcDbArc
 50
270.0
 51
0.0
  0
LINE
  5
12A4
330
1F
100
AcDbEntity
  8
taglio
100
AcDbLine
 10
4082.284803879979
 20
1485.133034642336
 30
0.0
 11
4080.191103109777
 21
1483.030228643131
 31
0.0
  0
ARC
  5
12A5
330
1F
100
AcDbEntity
  8
taglio
100
AcDbCircle
 10
4082.892209023627
 20
1484.528259585789
 30
0.0
 40
0.8571428571428594
100
AcDbArc
 50
90.0
 51
135.1243153897772
  0
LINE
  5
12A6
330
1F
100
AcDbEntity
  8
taglio
100
AcDbLine
 10
4084.320780452165
 20
1485.385402442963
 30
0.0
 11
4082.892209023627
 21
1485.385402442932
 31
0.0
  0
LINE
  5
12A8
330
1F
100
AcDbEntity
  8
marcatura
100
AcDbLine
 10
4085.424967807353
 20
1465.480640537777
 30
0.0
 11
4185.424967807349
 21
1465.480640537777
 31
0.0
  0
LINE
  5
12A9
330
1F
100
AcDbEntity
  8
marcatura
100
AcDbLine
 10
4085.424967807353
 20
1462.480640537777
 30
0.0
 11
4185.424967807349
 21
1462.480640537777
 31
0.0
  0
LINE
  5
12AA
330
1F
100
AcDbEntity
  8
marcatura
100
AcDbLine
 10
4073.170999553402
 20
1428.147307204444
 30
0.0
 11
4173.170999553415
 21
1428.147307204444
 31
0.0
  0
LINE
  5
12AB
330
1F
100
AcDbEntity
  8
marcatura
100
AcDbLine
 10
4073.170999553402
 20
1431.147307204444
 30
0.0
 11
4173.170999553415
 21
1431.147307204444
 31
0.0
  0
LINE
  5
16B9
330
1F
100
AcDbEntity
  8
marcatura
100
AcDbLine
 10
3941.958157472408
 20
1465.480640537777
 30
0.0
 11
3982.49112984085
 21
1465.480640537777
 31
0.0
  0
LINE
  5
16BA
330
1F
100
AcDbEntity
  8
marcatura
100
AcDbLine
 10
3941.958157472408
 20
1462.480640537777
 30
0.0
 11
3982.49112984085
 21
1462.480640537777
 31
0.0
  0
LINE
  5
16BB
330
1F
100
AcDbEntity
  8
marcatura
100
AcDbLine
 10
3929.704189218457
 20
1428.147307204444
 30
0.0
 11
3982.49112984085
 21
1428.147307204444
 31
0.0
  0
LINE
  5
16BC
330
1F
100
AcDbEntity
  8
marcatura
100
AcDbLine
 10
3929.704189218457
 20
1431.147307204444
 30
0.0
 11
3982.49112984085
 21
1431.147307204444
 31
0.0
  0
LINE
  5
1AA1
330
1F
100
AcDbEntity
  8
marcatura
100
AcDbLine
 10
3941.958157472408
 20
1597.11132330333
 30
0.0
 11
3970.926411440737
 21
1597.11132330333
 31
0.0
  0
LINE
  5
1AA2
330
1F
100
AcDbEntity
  8
marcatura
100
AcDbLine
 10
3941.958157472408
 20
1594.11132330333
 30
0.0
 11
3970.926411440737
 21
1594.11132330333
 31
0.0
  0
LINE
  5
1AA3
330
1F
100
AcDbEntity
  8
marcatura
100
AcDbLine
 10
3929.704189218457
 20
1559.777989969997
 30
0.0
 11
3951.593078107404
 21
1559.777989969997
 31
0.0
  0
LINE
  5
1AA4
330
1F
100
AcDbEntity
  8
marcatura
100
AcDbLine
 10
3929.704189218457
 20
1562.777989969997
 30
0.0
 11
3951.593078107404
 21
1562.777989969997
 31
0.0
  0
LINE
  5
1AD7
330
1F
100
AcDbEntity
  8
marcatura
100
AcDbLine
 10
3966.593078107404
 20
1535.143069335012
 30
0.0
 11
3966.593078107404
 21
1544.777989969997
 31
0.0
  0
LINE
  5
1AD8
330
1F
100
AcDbEntity
  8
marcatura
100
AcDbLine
 10
3969.593078107404
 20
1535.143069335012
 30
0.0
 11
3969.593078107404
 21
1544.777989969997
 31
0.0
  0
LINE
  5
1AD9
330
1F
100
AcDbEntity
  8
marcatura
100
AcDbLine
 10
4003.926411440737
 20
1522.88910108106
 30
0.0
 11
4003.926411440737
 21
1564.11132330333
 31
0.0
  0
LINE
  5
1ADB
330
1F
100
AcDbEntity
  8
marcatura
100
AcDbLine
 10
4000.926411440737
 20
1522.88910108106
 30
0.0
 11
4000.926411440737
 21
1564.11132330333
 31
0.0
  0
ARC
  5
1ADC
330
1F
100
AcDbEntity
  8
marcatura
100
AcDbCircle
 10
3970.926411440737
 20
1564.11132330333
 30
0.0
 40
30.0
100
AcDbArc
 50
0.0
 51
90.0
  0
ARC
  5
1ADF
330
1F
100
AcDbEntity
  8
marcatura
100
AcDbCircle
 10
3970.926411440737
 20
1564.11132330333
 30
0.0
 40
33.0
100
AcDbArc
 50
0.0
 51
90.0
  0
ARC
  5
1AE0
330
1F
100
AcDbEntity
  8
marcatura
100
AcDbCircle
 10
3951.593078107404
 20
1544.777989969997
 30
0.0
 40
15.0
100
AcDbArc
 50
0.0
 51
90.0
  0
ARC
  5
1AE1
330
1F
100
AcDbEntity
  8
marcatura
100
AcDbCircle
 10
3951.593078107404
 20
1544.777989969997
 30
0.0
 40
18.0
100
AcDbArc
 50
0.0
 51
90.0
  0
ARC
  5
1AE4
330
1F
100
AcDbEntity
  8
marcatura
100
AcDbCircle
 10
3982.49112984085
 20
1446.813973871111
 30
0.0
 40
15.66666666666659
100
AcDbArc
 50
270.0
 51
90.0
  0
ARC
  5
1AE5
330
1F
100
AcDbEntity
  8
marcatura
100
AcDbCircle
 10
3982.49112984085
 20
1446.81397387111
 30
0.0
 40
18.66666666666663
100
AcDbArc
 50
270.0
 51
90.0
  0
LINE
  5
1AE6
330
1F
100
AcDbEntity
  8
marcatura
100
AcDbLine
 10
3941.958157472408
 20
1725.019119807347
 30
0.0
 11
3985.259744773208
 21
1725.019119807347
 31
0.0
  0
LINE
  5
1AE7
330
1F
100
AcDbEntity
  8
marcatura
100
AcDbLine
 10
3941.958157472408
 20
1722.019119807347
 30
0.0
 11
3985.259744773208
 21
1722.019119807347
 31
0.0
  0
LINE
  5
1AE8
330
1F
100
AcDbEntity
  8
marcatura
100
AcDbLine
 10
3929.704189218457
 20
1687.685786474014
 30
0.0
 11
3985.259744773208
 21
1687.685786474014
 31
0.0
  0
ARC
  5
1AE9
330
1F
100
AcDbEntity
  8
marcatura
100
AcDbCircle
 10
3985.259744773208
 20
1706.352453140679
 30
0.0
 40
18.66666666666663
100
AcDbArc
 50
270.0
 51
90.0
  0
LINE
  5
1AEA
330
1F
100
AcDbEntity
  8
marcatura
100
AcDbLine
 10
3929.704189218457
 20
1690.685786474014
 30
0.0
 11
3985.259744773208
 21
1690.685786474014
 31
0.0
  0
ARC
  5
1AEB
330
1F
100
AcDbEntity
  8
marcatura
100
AcDbCircle
 10
3985.259744773208
 20
1706.35245314068
 30
0.0
 40
15.66666666666659
100
AcDbArc
 50
270.0
 51
90.0
  0
LINE
  5
1EA9
330
1F
100
AcDbEntity
  8
marcatura
100
AcDbLine
 10
4003.926411439875
 20
1750.796897584718
 30
0.0
 11
4003.926411439875
 21
1706.352453140679
 31
0.0
  0
LINE
  5
1EAA
330
1F
100
AcDbEntity
  8
marcatura
100
AcDbLine
 10
4000.926411439875
 20
1750.796897584718
 30
0.0
 11
4000.926411439876
 21
1706.35245314068
 31
0.0
  0
LINE
  5
1EAB
330
1F
100
AcDbEntity
  8
marcatura
100
AcDbLine
 10
3966.593078106542
 20
1763.050865838669
 30
0.0
 11
3966.593078106542
 21
1706.35245314068
 31
0.0
  0
ARC
  5
1EAC
330
1F
100
AcDbEntity
  8
marcatura
100
AcDbCircle
 10
3985.259744773209
 20
1706.35245314068
 30
0.0
 40
18.66666666666663
100
AcDbArc
 50
180.0
 51
0.0
  0
LINE
  5
1EAD
330
1F
100
AcDbEntity
  8
marcatura
100
AcDbLine
 10
3969.593078106542
 20
1763.050865838669
 30
0.0
 11
3969.593078106542
 21
1706.35245314068
 31
0.0
  0
ARC
  5
1EAE
330
1F
100
AcDbEntity
  8
marcatura
100
AcDbCircle
 10
3985.259744773209
 20
1706.35245314068
 30
0.0
 40
15.66666666666659
100
AcDbArc
 50
180.0
 51
0.0
  0
LWPOLYLINE
  5
24E0
330
1F
100
AcDbEntity
  8
0
100
AcDbPolyline
 90
        5
 70
     0
 43
0.0
 10
3599.443227424281
 20
1805.9582841424
 10
3599.443227424281
 20
1355.9582841424
 10
4199.443227424281
 20
1355.9582841424
 10
4199.443227424281
 20
1805.9582841424
 10
3599.443227424281
 20
1805.9582841424
  0
LINE
  5
2712
330
1F
100
AcDbEntity
  8
marcatura
100
AcDbLine
 10
3817.536884334285
 20
1725.019119807347
 30
0.0
 11
3860.938471635085
 21
1725.019119807347
 31
0.0
  0
LINE
  5
2713
330
1F
100
AcDbEntity
  8
marcatura
100
AcDbLine
 10
3817.536884334285
 20
1722.019119807347
 30
0.0
 11
3860.938471635085
 21
1722.019119807347
 31
0.0
  0
LINE
  5
2714
330
1F
100
AcDbEntity
  8
marcatura
100
AcDbLine
 10
3805.282916080334
 20
1687.685786474014
 30
0.0
 11
3860.938471635085
 21
1687.685786474014
 31
0.0
  0
ARC
  5
2715
330
1F
100
AcDbEntity
  8
marcatura
100
AcDbCircle
 10
3860.938471635085
 20
1706.352453140679
 30
0.0
 40
18.66666666666663
100
AcDbArc
 50
270.0
 51
90.0
  0
LINE
  5
2716
330
1F
100
AcDbEntity
  8
marcatura
100
AcDbLine
 10
3805.282916080334
 20
1690.685786474014
 30
0.0
 11
3860.938471635085
 21
1690.685786474014
 31
0.0
  0
ARC
  5
2717
330
1F
100
AcDbEntity
  8
marcatura
100
AcDbCircle
 10
3860.938471635085
 20
1706.35245314068
 30
0.0
 40
15.66666666666659
100
AcDbArc
 50
270.0
 51
90.0
  0
LINE
  5
2719
330
1F
100
AcDbEntity
  8
marcatura
100
AcDbLine
 10
3879.605138301753
 20
1750.896897584718
 30
0.0
 11
3879.605138301753
 21
1706.352453140679
 31
0.0
  0
LINE
  5
271A
330
1F
100
AcDbEntity
  8
marcatura
100
AcDbLine
 10
3876.605138301754
 20
1750.896897584718
 30
0.0
 11
3876.605138301754
 21
1706.35245314068
 31
0.0
  0
LINE
  5
271B
330
1F
100
AcDbEntity
  8
marcatura
100
AcDbLine
 10
3842.271804968419
 20
1763.150865838669
 30
0.0
 11
3842.271804968419
 21
1706.35245314068
 31
0.0
  0
ARC
  5
271C
330
1F
100
AcDbEntity
  8
marcatura
100
AcDbCircle
 10
3860.938471635086
 20
1706.35245314068
 30
0.0
 40
18.66666666666663
100
AcDbArc
 50
180.0
 51
0.0
  0
LINE
  5
271D
330
1F
100
AcDbEntity
  8
marcatura
100
AcDbLine
 10
3845.271804968419
 20
1763.150865838669
 30
0.0
 11
3845.271804968419
 21
1706.35245314068
 31
0.0
  0
ARC
  5
271E
330
1F
100
AcDbEntity
  8
marcatura
100
AcDbCircle
 10
3860.938471635086
 20
1706.35245314068
 30
0.0
 40
15.66666666666659
100
AcDbArc
 50
180.0
 51
0.0
  0
LINE
  5
2720
330
1F
100
AcDbEntity
  8
taglio
100
AcDbLine
 10
3849.834284281176
 20
1763.150865838669
 30
0.0
 11
3823.471230420146
 21
1763.150865838669
 31
0.0
  0
ARC
  5
2721
330
1F
100
AcDbEntity
  8
taglio
100
AcDbCircle
 10
3823.471230420146
 20
1761.946678483481
 30
0.0
 40
1.204187355188514
100
AcDbArc
 50
90.0
 51
180.0
  0
LINE
  5
2722
330
1F
100
AcDbEntity
  8
taglio
100
AcDbLine
 10
3822.267043064957
 20
1761.946678483454
 30
0.0
 11
3822.267043064988
 21
1760.518107054942
 31
0.0
  0
ARC
  5
2723
330
1F
100
AcDbEntity
  8
taglio
100
AcDbCircle
 10
3823.224185922132
 20
1760.518107054942
 30
0.0
 40
0.9571428571428594
100
AcDbArc
 50
180.0
 51
225.1243153897734
  0
LINE
  5
2724
330
1F
100
AcDbEntity
  8
taglio
100
AcDbLine
 10
3822.548853775654
 20
1759.83983797787
 30
0.0
 11
3824.651659774859
 21
1757.746137207667
 31
0.0
  0
ARC
  5
2725
330
1F
100
AcDbEntity
  8
taglio
100
AcDbCircle
 10
3824.117441808382
 20
1757.209595997587
 30
0.0
 40
0.7571428569434279
100
AcDbArc
 50
269.999999999531
 51
45.12431538977341
  0
LINE
  5
2726
330
1F
100
AcDbEntity
  8
taglio
100
AcDbLine
 10
3824.117441808376
 20
1756.452453140644
 30
0.0
 11
3810.838471636375
 21
1756.452453140758
 31
0.0
  0
ARC
  5
2727
330
1F
100
AcDbEntity
  8
taglio
100
AcDbCircle
 10
3849.834284281176
 20
1761.946678483466
 30
0.0
 40
1.204187355202679
100
AcDbArc
 50
0.0
 51
90.0
  0
LINE
  5
2728
330
1F
100
AcDbEntity
  8
taglio
100
AcDbLine
 10
3851.038471636378
 20
1761.946678483466
 30
0.0
 11
3851.038471636378
 21
1760.518107054895
 31
0.0
  0
ARC
  5
2729
330
1F
100
AcDbEntity
  8
taglio
100
AcDbCircle
 10
3850.081328779236
 20
1760.518107054895
 30
0.0
 40
0.9571428571428594
100
AcDbArc
 50
313.2589251816958
 51
0.0
  0
LINE
  5
272A
330
1F
100
AcDbEntity
  8
taglio
100
AcDbLine
 10
3850.737255374804
 20
1759.821054151447
 30
0.0
 11
3848.562942283236
 21
1757.775026114242
 31
0.0
  0
ARC
  5
272B
330
1F
100
AcDbEntity
  8
taglio
100
AcDbCircle
 10
3849.087372830563
 20
1757.217714003198
 30
0.0
 40
0.7652608627693333
100
AcDbArc
 50
133.2589251816958
 51
269.9999999994789
  0
LINE
  5
272C
330
1F
100
AcDbEntity
  8
taglio
100
AcDbLine
 10
3866.974584665354
 20
1756.452453140274
 30
0.0
 11
3849.087372830556
 21
1756.452453140428
 31
0.0
  0
ARC
  5
272D
330
1F
100
AcDbEntity
  8
taglio
100
AcDbCircle
 10
3866.974584665349
 20
1755.82474419787
 30
0.0
 40
0.6277089424045644
100
AcDbArc
 50
313.2589251816578
 51
89.99999999953102
  0
LINE
  5
272E
330
1F
100
AcDbEntity
  8
taglio
100
AcDbLine
 10
3865.562461472303
 20
1753.634011928379
 30
0.0
 11
3867.404751370901
 21
1755.367606229845
 31
0.0
  0
ARC
  5
272F
330
1F
100
AcDbEntity
  8
taglio
100
AcDbCircle
 10
3866.081328779245
 20
1753.082611870429
 30
0.0
 40
0.7571428571406292
100
AcDbArc
 50
133.2589251816958
 51
180.0
  0
LINE
  5
2730
330
1F
100
AcDbEntity
  8
taglio
100
AcDbLine
 10
3865.324185922104
 20
1751.654040441859
 30
0.0
 11
3865.324185922104
 21
1753.082611870429
 31
0.0
  0
ARC
  5
2731
330
1F
100
AcDbEntity
  8
taglio
100
AcDbCircle
 10
3866.081328779245
 20
1751.654040441859
 30
0.0
 40
0.7571428571413007
100
AcDbArc
 50
180.0
 51
270.0
  0
LINE
  5
2732
330
1F
100
AcDbEntity
  8
taglio
100
AcDbLine
 10
3893.513926060592
 20
1750.896897584718
 30
0.0
 11
3866.081328779245
 21
1750.896897584718
 31
0.0
  0
ARC
  5
2733
330
1F
100
AcDbEntity
  8
taglio
100
AcDbCircle
 10
3892.674281660807
 20
1755.824744197648
 30
0.0
 40
0.6277089424045644
100
AcDbArc
 50
90.00000000062263
 51
225.1243153897734
  0
LINE
  5
2734
330
1F
100
AcDbEntity
  8
taglio
100
AcDbLine
 10
3894.024033307183
 20
1753.595042360623
 30
0.0
 11
3892.231388497813
 21
1755.379924950597
 31
0.0
  0
ARC
  5
2735
330
1F
100
AcDbEntity
  8
taglio
100
AcDbCircle
 10
3893.489815340567
 20
1753.058501150403
 30
0.0
 40
0.7571428571406292
100
AcDbArc
 50
0.0
 51
45.12431538977341
  0
LINE
  5
2736
330
1F
100
AcDbEntity
  8
taglio
100
AcDbLine
 10
3894.246958197708
 20
1751.629929721833
 30
0.0
 11
3894.246958197707
 21
1753.058501150403
 31
0.0
  0
ARC
  5
2737
330
1F
100
AcDbEntity
  8
taglio
100
AcDbCircle
 10
3893.513926060592
 20
1751.629929721833
 30
0.0
 40
0.733032137114969
100
AcDbArc
 50
270.0
 51
0.0
  0
LINE
  5
2738
330
1F
100
AcDbEntity
  8
taglio
100
AcDbLine
 10
3892.674281660801
 20
1756.452453140053
 30
0.0
 11
3911.038471636376
 21
1756.452453140256
 31
0.0
  0
LINE
  5
278F
330
1F
100
AcDbEntity
  8
taglio
100
AcDbLine
 10
3810.838471635511
 20
1656.252453141117
 30
0.0
 11
3810.838471635669
 21
1674.616643116679
 31
0.0
  0
LINE
  5
2790
330
1F
100
AcDbEntity
  8
taglio
100
AcDbLine
 10
3806.21594821745
 20
1672.843966579783
 30
0.0
 11
3807.64451964602
 21
1672.843966579783
 31
0.0
  0
ARC
  5
2791
330
1F
100
AcDbEntity
  8
taglio
100
AcDbCircle
 10
3807.64451964602
 20
1673.801109436924
 30
0.0
 40
0.9571428571406292
100
AcDbArc
 50
270.0
 51
315.124315389772
  0
LINE
  5
2792
330
1F
100
AcDbEntity
  8
taglio
100
AcDbLine
 10
3808.322788723091
 20
1673.125777290447
 30
0.0
 11
3810.107671313065
 21
1674.918422099816
 31
0.0
  0
ARC
  5
2793
330
1F
100
AcDbEntity
  8
taglio
100
AcDbCircle
 10
3810.410762693265
 20
1674.616643116683
 30
0.0
 40
0.4277089424045645
100
AcDbArc
 50
359.9999999995062
 51
135.1243153897882
  0
ARC
  5
2794
330
1F
100
AcDbEntity
  8
taglio
100
AcDbCircle
 10
3806.215948217449
 20
1673.776998716897
 30
0.0
 40
0.9330321371149688
100
AcDbArc
 50
180.0
 51
270.0
  0
LINE
  5
2795
330
1F
100
AcDbEntity
  8
taglio
100
AcDbLine
 10
3805.282916080335
 20
1673.776998716897
 30
0.0
 11
3805.282916080335
 21
1701.209595998246
 31
0.0
  0
ARC
  5
2796
330
1F
100
AcDbEntity
  8
taglio
100
AcDbCircle
 10
3806.240058937476
 20
1701.209595998246
 30
0.0
 40
0.9571428571413006
100
AcDbArc
 50
90.0
 51
180.0
  0
LINE
  5
2797
330
1F
100
AcDbEntity
  8
taglio
100
AcDbLine
 10
3806.240058937476
 20
1702.166738855387
 30
0.0
 11
3807.668630366045
 21
1702.166738855387
 31
0.0
  0
ARC
  5
2798
330
1F
100
AcDbEntity
  8
taglio
100
AcDbCircle
 10
3807.668630366046
 20
1701.209595998246
 30
0.0
 40
0.9571428571406292
100
AcDbArc
 50
43.25892518168925
 51
90.0
  0
LINE
  5
2799
330
1F
100
AcDbEntity
  8
taglio
100
AcDbLine
 10
3808.365683269493
 20
1701.865522593814
 30
0.0
 11
3810.099277570959
 21
1700.023232695216
 31
0.0
  0
ARC
  5
279A
330
1F
100
AcDbEntity
  8
taglio
100
AcDbCircle
 10
3810.410762693486
 20
1700.316340112141
 30
0.0
 40
0.4277089424045645
100
AcDbArc
 50
223.2589251816755
 51
359.9999999995062
  0
LINE
  5
279B
330
1F
100
AcDbEntity
  8
taglio
100
AcDbLine
 10
3810.838471635891
 20
1700.316340112137
 30
0.0
 11
3810.838471636045
 21
1718.203551946935
 31
0.0
  0
ARC
  5
279C
330
1F
100
AcDbEntity
  8
taglio
100
AcDbCircle
 10
3811.803732498815
 20
1718.203551946927
 30
0.0
 40
0.9652608627693332
100
AcDbArc
 50
43.25892518168967
 51
179.9999999995031
  0
LINE
  5
279D
330
1F
100
AcDbEntity
  8
taglio
100
AcDbLine
 10
3814.552725492561
 20
1716.690728691312
 30
0.0
 11
3812.506697455358
 21
1718.865041782877
 31
0.0
  0
ARC
  5
279E
330
1F
100
AcDbEntity
  8
taglio
100
AcDbCircle
 10
3815.104125550512
 20
1717.209595998255
 30
0.0
 40
0.7571428571428595
100
AcDbArc
 50
223.2589251816917
 51
270.0
  0
LINE
  5
279F
330
1F
100
AcDbEntity
  8
taglio
100
AcDbLine
 10
3816.532696979083
 20
1716.452453141112
 30
0.0
 11
3815.104125550512
 21
1716.452453141112
 31
0.0
  0
ARC
  5
27A0
330
1F
100
AcDbEntity
  8
taglio
100
AcDbCircle
 10
3816.532696979083
 20
1717.456640496315
 30
0.0
 40
1.004187355202679
100
AcDbArc
 50
270.0
 51
0.0
  0
LINE
  5
27A1
330
1F
100
AcDbEntity
  8
taglio
100
AcDbLine
 10
3817.536884334286
 20
1717.456640496315
 30
0.0
 11
3817.536884334286
 21
1743.819694357344
 31
0.0
  0
ARC
  5
27A2
330
1F
100
AcDbEntity
  8
taglio
100
AcDbCircle
 10
3816.532696979098
 20
1743.819694357344
 30
0.0
 40
1.004187355188514
100
AcDbArc
 50
0.0
 51
90.0
  0
LINE
  5
27A3
330
1F
100
AcDbEntity
  8
taglio
100
AcDbLine
 10
3816.532696979075
 20
1744.823881712533
 30
0.0
 11
3815.104125550559
 21
1744.823881712501
 31
0.0
  0
ARC
  5
27A4
330
1F
100
AcDbEntity
  8
taglio
100
AcDbCircle
 10
3815.104125550559
 20
1744.066738855359
 30
0.0
 40
0.7571428571428595
100
AcDbArc
 50
90.0
 51
135.1243153897768
  0
LINE
  5
27A5
330
1F
100
AcDbEntity
  8
taglio
100
AcDbLine
 10
3814.567584340338
 20
1744.600956821976
 30
0.0
 11
3812.473883570135
 21
1742.49815082277
 31
0.0
  0
ARC
  5
27A6
330
1F
100
AcDbEntity
  8
taglio
100
AcDbCircle
 10
3811.795614493204
 20
1743.173482969108
 30
0.0
 40
0.9571428569434278
100
AcDbArc
 50
179.9999999995137
 51
315.1243153897904
  0
LINE
  5
27A7
330
1F
100
AcDbEntity
  8
taglio
100
AcDbLine
 10
3810.83847163626
 20
1743.173482969116
 30
0.0
 11
3810.838471636375
 21
1756.452453140758
 31
0.0
  0
LINE
  5
2A58
330
1F
100
AcDbEntity
  8
taglio
100
AcDbLine
 10
4178.726555108579
 20
1525.565416624569
 30
0.0
 11
4162.69044207974
 21
1525.56541662471
 31
0.0
  0
LINE
  5
2A59
330
1F
100
AcDbEntity
  8
taglio
100
AcDbLine
 10
4164.127611869337
 20
1519.438432498465
 30
0.0
 11
4132.194538555628
 21
1519.438432498464
 31
0.0
  0
ARC
  5
2A5A
330
1F
100
AcDbEntity
  8
taglio
100
AcDbCircle
 10
4164.127611869337
 20
1520.20316646648
 30
0.0
 40
0.7647339680156882
100
AcDbArc
 50
270.0
 51
0.0
  0
ARC
  5
2A5B
330
1F
100
AcDbEntity
  8
taglio
100
AcDbCircle
 10
4132.194538555628
 20
1520.073958550175
 30
0.0
 40
0.6355260517109781
100
AcDbArc
 50
180.0
 51
270.0
  0
LINE
  5
2A5C
330
1F
100
AcDbEntity
  8
taglio
100
AcDbLine
 10
4132.857419609051
 20
1525.565416624967
 30
0.0
 11
4125.856797883789
 21
1525.565416625028
 31
0.0
  0
ARC
  5
2A5D
330
1F
100
AcDbEntity
  8
taglio
100
AcDbCircle
 10
4125.856797883797
 20
1526.324280995281
 30
0.0
 40
0.7588643702538569
100
AcDbArc
 50
143.6455077364763
 51
269.999999999518
  0
LINE
  5
2A5E
330
1F
100
AcDbEntity
  8
taglio
100
AcDbLine
 10
4094.131607722157
 20
1525.565416625295
 30
0.0
 11
4078.72655510858
 21
1525.565416625433
 31
0.0
  0
LINE
  5
2A60
330
1F
100
AcDbEntity
  8
taglio
100
AcDbLine
 10
4164.585536199594
 20
1522.003159229994
 30
0.0
 11
4162.140108860922
 21
1524.051138145473
 31
0.0
  0
ARC
  5
2A61
330
1F
100
AcDbEntity
  8
taglio
100
AcDbCircle
 10
4162.690442079733
 20
1524.708273767567
 30
0.0
 40
0.8571428571428594
100
AcDbArc
 50
89.99999999951798
 51
230.0547415555979
  0
LINE
  5
2A62
330
1F
100
AcDbEntity
  8
taglio
100
AcDbLine
 10
4164.892345837354
 20
1520.20316646648
 30
0.0
 11
4164.892345837354
 21
1521.346023609127
 31
0.0
  0
LINE
  5
2A63
330
1F
100
AcDbEntity
  8
taglio
100
AcDbLine
 10
4131.725842613451
 20
1521.724912325611
 30
0.0
 11
4133.547732356679
 21
1524.200177135192
 31
0.0
  0
ARC
  5
2A64
330
1F
100
AcDbEntity
  8
taglio
100
AcDbCircle
 10
4132.857419609043
 20
1524.708273767791
 30
0.0
 40
0.8571428571756076
100
AcDbArc
 50
323.645507736477
 51
89.99999999951798
  0
LINE
  5
2A65
330
1F
100
AcDbEntity
  8
taglio
100
AcDbLine
 10
4131.559012503917
 20
1520.073958550175
 30
0.0
 11
4131.559012503917
 21
1521.216815693032
 31
0.0
  0
ARC
  5
2A66
330
1F
100
AcDbEntity
  8
taglio
100
AcDbCircle
 10
4132.416155361059
 20
1521.216815693032
 30
0.0
 40
0.8571428571428594
100
AcDbArc
 50
143.6455077364886
 51
180.0
  0
LINE
  5
2A67
330
1F
100
AcDbEntity
  8
taglio
100
AcDbLine
 10
4126.119013508536
 20
1531.120972181272
 30
0.0
 11
4093.869412252083
 21
1531.12097218155
 31
0.0
  0
LINE
  5
2A69
330
1F
100
AcDbEntity
  8
taglio
100
AcDbLine
 10
4126.809326256137
 20
1528.898589834428
 30
0.0
 11
4125.245635177221
 21
1526.77412016491
 31
0.0
  0
ARC
  5
2A6A
330
1F
100
AcDbEntity
  8
taglio
100
AcDbCircle
 10
4126.119013508521
 20
1529.406686467012
 30
0.0
 40
0.8571428571505252
100
AcDbArc
 50
323.6455077364762
 51
0.0
  0
LINE
  5
2A6B
330
1F
100
AcDbEntity
  8
taglio
100
AcDbLine
 10
4126.976156365672
 20
1530.263829324129
 30
0.0
 11
4126.976156365672
 21
1529.406686467012
 31
0.0
  0
ARC
  5
2A6C
330
1F
100
AcDbEntity
  8
taglio
100
AcDbCircle
 10
4126.119013508529
 20
1530.263829324129
 30
0.0
 40
0.8571428571428594
100
AcDbArc
 50
0.0
 51
89.99999999951798
  0
ARC
  5
2AA2
330
1F
100
AcDbEntity
  8
taglio
100
AcDbCircle
 10
4164.035202981811
 20
1521.346023609127
 30
0.0
 40
0.8571428555423473
100
AcDbArc
 50
0.0
 51
50.05474155559389
  0
ARC
  5
2BA4
330
1F
100
AcDbEntity
  8
taglio
100
AcDbCircle
 10
4094.131627876821
 20
1526.324280995281
 30
0.0
 40
0.7588643702538569
100
AcDbArc
 50
270.000000000469
 51
36.3544922635108
  0
LINE
  5
2BA6
330
1F
100
AcDbEntity
  8
taglio
100
AcDbLine
 10
4093.179099504481
 20
1528.898589834428
 30
0.0
 11
4094.742790583397
 21
1526.77412016491
 31
0.0
  0
ARC
  5
2BA8
330
1F
100
AcDbEntity
  8
taglio
100
AcDbCircle
 10
4093.869412252096
 20
1529.406686467012
 30
0.0
 40
0.8571428571505252
100
AcDbArc
 50
180.0
 51
216.3544922635109
  0
LINE
  5
2BAA
330
1F
100
AcDbEntity
  8
taglio
100
AcDbLine
 10
4093.012269394945
 20
1530.263829324129
 30
0.0
 11
4093.012269394945
 21
1529.406686467012
 31
0.0
  0
ARC
  5
2BAC
330
1F
100
AcDbEntity
  8
taglio
100
AcDbCircle
 10
4093.869412252089
 20
1530.263829324129
 30
0.0
 40
0.8571428571428594
100
AcDbArc
 50
90.00000000046897
 51
180.0
  0
LINE
  5
2C76
330
1F
100
AcDbEntity
  8
taglio
100
AcDbLine
 10
4178.726555109443
 20
1496.81397386837
 30
0.0
 11
4162.690442080603
 21
1496.813973868511
 31
0.0
  0
LINE
  5
2C77
330
1F
100
AcDbEntity
  8
taglio
100
AcDbLine
 10
4164.127611870201
 20
1490.686989742266
 30
0.0
 11
4132.194538556491
 21
1490.686989742265
 31
0.0
  0
ARC
  5
2C78
330
1F
100
AcDbEntity
  8
taglio
100
AcDbCircle
 10
4164.127611870201
 20
1491.451723710281
 30
0.0
 40
0.7647339680156882
100
AcDbArc
 50
270.0
 51
0.0
  0
ARC
  5
2C79
330
1F
100
AcDbEntity
  8
taglio
100
AcDbCircle
 10
4132.194538556491
 20
1491.322515793976
 30
0.0
 40
0.6355260517109781
100
AcDbArc
 50
180.0
 51
270.0
  0
LINE
  5
2C7A
330
1F
100
AcDbEntity
  8
taglio
100
AcDbLine
 10
4132.857419609913
 20
1496.813973868768
 30
0.0
 11
4125.856797884652
 21
1496.813973868828
 31
0.0
  0
ARC
  5
2C7B
330
1F
100
AcDbEntity
  8
taglio
100
AcDbCircle
 10
4125.856797884659
 20
1497.572838239082
 30
0.0
 40
0.7588643702538569
100
AcDbArc
 50
143.6455077364764
 51
269.999999999518
  0
LINE
  5
2C7C
330
1F
100
AcDbEntity
  8
taglio
100
AcDbLine
 10
4094.131607723021
 20
1496.813973869096
 30
0.0
 11
4078.726555109443
 21
1496.813973869234
 31
0.0
  0
LINE
  5
2C7D
330
1F
100
AcDbEntity
  8
taglio
100
AcDbLine
 10
4164.585536200458
 20
1493.251716473795
 30
0.0
 11
4162.140108861785
 21
1495.299695389274
 31
0.0
  0
ARC
  5
2C7E
330
1F
100
AcDbEntity
  8
taglio
100
AcDbCircle
 10
4162.690442080595
 20
1495.956831011368
 30
0.0
 40
0.8571428571428594
100
AcDbArc
 50
89.99999999951798
 51
230.0547415555979
  0
LINE
  5
2C7F
330
1F
100
AcDbEntity
  8
taglio
100
AcDbLine
 10
4164.892345838217
 20
1491.451723710281
 30
0.0
 11
4164.892345838217
 21
1492.594580852928
 31
0.0
  0
LINE
  5
2C80
330
1F
100
AcDbEntity
  8
taglio
100
AcDbLine
 10
4131.725842614313
 20
1492.973469569412
 30
0.0
 11
4133.547732357542
 21
1495.448734378993
 31
0.0
  0
ARC
  5
2C81
330
1F
100
AcDbEntity
  8
taglio
100
AcDbCircle
 10
4132.857419609906
 20
1495.956831011592
 30
0.0
 40
0.8571428571756076
100
AcDbArc
 50
323.645507736477
 51
89.99999999951798
  0
LINE
  5
2C82
330
1F
100
AcDbEntity
  8
taglio
100
AcDbLine
 10
4131.55901250478
 20
1491.322515793976
 30
0.0
 11
4131.55901250478
 21
1492.465372936833
 31
0.0
  0
ARC
  5
2C83
330
1F
100
AcDbEntity
  8
taglio
100
AcDbCircle
 10
4132.416155361922
 20
1492.465372936833
 30
0.0
 40
0.8571428571428594
100
AcDbArc
 50
143.6455077364886
 51
180.0
  0
LINE
  5
2C84
330
1F
100
AcDbEntity
  8
taglio
100
AcDbLine
 10
4126.119013509399
 20
1502.369529425073
 30
0.0
 11
4093.869412252946
 21
1502.369529425351
 31
0.0
  0
LINE
  5
2C85
330
1F
100
AcDbEntity
  8
taglio
100
AcDbLine
 10
4126.809326256999
 20
1500.147147078229
 30
0.0
 11
4125.245635178083
 21
1498.022677408711
 31
0.0
  0
ARC
  5
2C86
330
1F
100
AcDbEntity
  8
taglio
100
AcDbCircle
 10
4126.119013509384
 20
1500.655243710813
 30
0.0
 40
0.8571428571505252
100
AcDbArc
 50
323.6455077364762
 51
0.0
  0
LINE
  5
2C87
330
1F
100
AcDbEntity
  8
taglio
100
AcDbLine
 10
4126.976156366535
 20
1501.51238656793
 30
0.0
 11
4126.976156366535
 21
1500.655243710813
 31
0.0
  0
ARC
  5
2C88
330
1F
100
AcDbEntity
  8
taglio
100
AcDbCircle
 10
4126.119013509391
 20
1501.51238656793
 30
0.0
 40
0.8571428571428594
100
AcDbArc
 50
0.0
 51
89.99999999951798
  0
ARC
  5
2C89
330
1F
100
AcDbEntity
  8
taglio
100
AcDbCircle
 10
4164.035202982674
 20
1492.594580852928
 30
0.0
 40
0.8571428555423473
100
AcDbArc
 50
0.0
 51
50.05474155559385
  0
ARC
  5
2C8A
330
1F
100
AcDbEntity
  8
taglio
100
AcDbCircle
 10
4094.131627877684
 20
1497.572838239082
 30
0.0
 40
0.7588643702538569
100
AcDbArc
 50
270.000000000469
 51
36.35449226351072
  0
LINE
  5
2C8B
330
1F
100
AcDbEntity
  8
taglio
100
AcDbLine
 10
4093.179099505343
 20
1500.147147078229
 30
0.0
 11
4094.742790584259
 21
1498.022677408711
 31
0.0
  0
ARC
  5
2C8C
330
1F
100
AcDbEntity
  8
taglio
100
AcDbCircle
 10
4093.869412252959
 20
1500.655243710813
 30
0.0
 40
0.8571428571505252
100
AcDbArc
 50
180.0
 51
216.3544922635109
  0
LINE
  5
2C8D
330
1F
100
AcDbEntity
  8
taglio
100
AcDbLine
 10
4093.012269395808
 20
1501.51238656793
 30
0.0
 11
4093.012269395808
 21
1500.655243710813
 31
0.0
  0
ARC
  5
2C8E
330
1F
100
AcDbEntity
  8
taglio
100
AcDbCircle
 10
4093.869412252951
 20
1501.51238656793
 30
0.0
 40
0.8571428571428594
100
AcDbArc
 50
90.00000000046897
 51
180.0
  0
LINE
  5
2C8F
330
1F
100
AcDbEntity
  8
taglio
100
AcDbLine
 10
4178.726555109443
 20
1625.565416624572
 30
0.0
 11
4162.690442080603
 21
1625.565416624712
 31
0.0
  0
LINE
  5
2C90
330
1F
100
AcDbEntity
  8
taglio
100
AcDbLine
 10
4164.127611870201
 20
1619.438432498467
 30
0.0
 11
4132.194538556491
 21
1619.438432498467
 31
0.0
  0
ARC
  5
2C91
330
1F
100
AcDbEntity
  8
taglio
100
AcDbCircle
 10
4164.127611870201
 20
1620.203166466482
 30
0.0
 40
0.7647339680156882
100
AcDbArc
 50
270.0
 51
0.0
  0
ARC
  5
2C92
330
1F
100
AcDbEntity
  8
taglio
100
AcDbCircle
 10
4132.194538556491
 20
1620.073958550178
 30
0.0
 40
0.6355260517109781
100
AcDbArc
 50
180.0
 51
270.0
  0
LINE
  5
2C93
330
1F
100
AcDbEntity
  8
taglio
100
AcDbLine
 10
4132.857419609913
 20
1625.565416624969
 30
0.0
 11
4125.856797884652
 21
1625.56541662503
 31
0.0
  0
ARC
  5
2C94
330
1F
100
AcDbEntity
  8
taglio
100
AcDbCircle
 10
4125.856797884659
 20
1626.324280995283
 30
0.0
 40
0.7588643702538569
100
AcDbArc
 50
143.6455077364762
 51
269.999999999518
  0
LINE
  5
2C95
330
1F
100
AcDbEntity
  8
taglio
100
AcDbLine
 10
4094.131607723021
 20
1625.565416625297
 30
0.0
 11
4078.726555109443
 21
1625.565416625436
 31
0.0
  0
LINE
  5
2C96
330
1F
100
AcDbEntity
  8
taglio
100
AcDbLine
 10
4164.585536200458
 20
1622.003159229996
 30
0.0
 11
4162.140108861785
 21
1624.051138145475
 31
0.0
  0
ARC
  5
2C97
330
1F
100
AcDbEntity
  8
taglio
100
AcDbCircle
 10
4162.690442080595
 20
1624.708273767569
 30
0.0
 40
0.8571428571428594
100
AcDbArc
 50
89.99999999951798
 51
230.0547415555977
  0
LINE
  5
2C98
330
1F
100
AcDbEntity
  8
taglio
100
AcDbLine
 10
4164.892345838217
 20
1620.203166466482
 30
0.0
 11
4164.892345838217
 21
1621.346023609129
 31
0.0
  0
LINE
  5
2C99
330
1F
100
AcDbEntity
  8
taglio
100
AcDbLine
 10
4131.725842614313
 20
1621.724912325614
 30
0.0
 11
4133.547732357542
 21
1624.200177135194
 31
0.0
  0
ARC
  5
2C9A
330
1F
100
AcDbEntity
  8
taglio
100
AcDbCircle
 10
4132.857419609906
 20
1624.708273767793
 30
0.0
 40
0.8571428571756076
100
AcDbArc
 50
323.6455077364771
 51
89.99999999951798
  0
LINE
  5
2C9B
330
1F
100
AcDbEntity
  8
taglio
100
AcDbLine
 10
4131.55901250478
 20
1620.073958550178
 30
0.0
 11
4131.55901250478
 21
1621.216815693034
 31
0.0
  0
ARC
  5
2C9C
330
1F
100
AcDbEntity
  8
taglio
100
AcDbCircle
 10
4132.416155361922
 20
1621.216815693034
 30
0.0
 40
0.8571428571428594
100
AcDbArc
 50
143.6455077364884
 51
180.0
  0
LINE
  5
2C9D
330
1F
100
AcDbEntity
  8
taglio
100
AcDbLine
 10
4126.119013509399
 20
1631.120972181274
 30
0.0
 11
4093.869412252946
 21
1631.120972181552
 31
0.0
  0
LINE
  5
2C9E
330
1F
100
AcDbEntity
  8
taglio
100
AcDbLine
 10
4126.809326256999
 20
1628.89858983443
 30
0.0
 11
4125.245635178083
 21
1626.774120164913
 31
0.0
  0
ARC
  5
2C9F
330
1F
100
AcDbEntity
  8
taglio
100
AcDbCircle
 10
4126.119013509384
 20
1629.406686467014
 30
0.0
 40
0.8571428571505252
100
AcDbArc
 50
323.6455077364762
 51
0.0
  0
LINE
  5
2CA0
330
1F
100
AcDbEntity
  8
taglio
100
AcDbLine
 10
4126.976156366535
 20
1630.263829324132
 30
0.0
 11
4126.976156366535
 21
1629.406686467014
 31
0.0
  0
ARC
  5
2CA1
330
1F
100
AcDbEntity
  8
taglio
100
AcDbCircle
 10
4126.119013509391
 20
1630.263829324132
 30
0.0
 40
0.8571428571428594
100
AcDbArc
 50
0.0
 51
89.99999999951798
  0
ARC
  5
2CA2
330
1F
100
AcDbEntity
  8
taglio
100
AcDbCircle
 10
4164.035202982674
 20
1621.346023609129
 30
0.0
 40
0.8571428555423473
100
AcDbArc
 50
0.0
 51
50.05474155559385
  0
ARC
  5
2CA3
330
1F
100
AcDbEntity
  8
taglio
100
AcDbCircle
 10
4094.131627877684
 20
1626.324280995283
 30
0.0
 40
0.7588643702538569
100
AcDbArc
 50
270.000000000469
 51
36.35449226351072
  0
LINE
  5
2CA4
330
1F
100
AcDbEntity
  8
taglio
100
AcDbLine
 10
4093.179099505343
 20
1628.89858983443
 30
0.0
 11
4094.742790584259
 21
1626.774120164913
 31
0.0
  0
ARC
  5
2CA5
330
1F
100
AcDbEntity
  8
taglio
100
AcDbCircle
 10
4093.869412252959
 20
1629.406686467014
 30
0.0
 40
0.8571428571505252
100
AcDbArc
 50
180.0
 51
216.3544922635107
  0
LINE
  5
2CA6
330
1F
100
AcDbEntity
  8
taglio
100
AcDbLine
 10
4093.012269395808
 20
1630.263829324132
 30
0.0
 11
4093.012269395808
 21
1629.406686467014
 31
0.0
  0
ARC
  5
2CA7
330
1F
100
AcDbEntity
  8
taglio
100
AcDbCircle
 10
4093.869412252951
 20
1630.263829324132
 30
0.0
 40
0.8571428571428594
100
AcDbArc
 50
90.00000000046897
 51
180.0
  0
LINE
  5
2CA8
330
1F
100
AcDbEntity
  8
taglio
100
AcDbLine
 10
4178.726555109443
 20
1756.35245313794
 30
0.0
 11
4162.690442080603
 21
1756.35245313808
 31
0.0
  0
LINE
  5
2CA9
330
1F
100
AcDbEntity
  8
taglio
100
AcDbLine
 10
4164.127611870201
 20
1750.225469011835
 30
0.0
 11
4132.194538556491
 21
1750.225469011835
 31
0.0
  0
ARC
  5
2CAA
330
1F
100
AcDbEntity
  8
taglio
100
AcDbCircle
 10
4164.127611870201
 20
1750.990202979851
 30
0.0
 40
0.7647339680156882
100
AcDbArc
 50
270.0
 51
0.0
  0
ARC
  5
2CAB
330
1F
100
AcDbEntity
  8
taglio
100
AcDbCircle
 10
4132.194538556491
 20
1750.860995063546
 30
0.0
 40
0.6355260517109781
100
AcDbArc
 50
180.0
 51
270.0
  0
LINE
  5
2CAC
330
1F
100
AcDbEntity
  8
taglio
100
AcDbLine
 10
4132.857419609913
 20
1756.352453138338
 30
0.0
 11
4125.856797884652
 21
1756.352453138398
 31
0.0
  0
ARC
  5
2CAD
330
1F
100
AcDbEntity
  8
taglio
100
AcDbCircle
 10
4125.856797884659
 20
1757.111317508652
 30
0.0
 40
0.7588643702538569
100
AcDbArc
 50
143.6455077364769
 51
269.999999999518
  0
LINE
  5
2CAE
330
1F
100
AcDbEntity
  8
taglio
100
AcDbLine
 10
4094.131607723021
 20
1756.352453138666
 30
0.0
 11
4078.726555109443
 21
1756.352453138804
 31
0.0
  0
LINE
  5
2CAF
330
1F
100
AcDbEntity
  8
taglio
100
AcDbLine
 10
4164.585536200458
 20
1752.790195743365
 30
0.0
 11
4162.140108861785
 21
1754.838174658844
 31
0.0
  0
ARC
  5
2CB0
330
1F
100
AcDbEntity
  8
taglio
100
AcDbCircle
 10
4162.690442080595
 20
1755.495310280938
 30
0.0
 40
0.8571428571428594
100
AcDbArc
 50
89.99999999951798
 51
230.0547415555983
  0
LINE
  5
2CB1
330
1F
100
AcDbEntity
  8
taglio
100
AcDbLine
 10
4164.892345838217
 20
1750.990202979851
 30
0.0
 11
4164.892345838217
 21
1752.133060122498
 31
0.0
  0
LINE
  5
2CB2
330
1F
100
AcDbEntity
  8
taglio
100
AcDbLine
 10
4131.725842614313
 20
1752.511948838982
 30
0.0
 11
4133.547732357542
 21
1754.987213648563
 31
0.0
  0
ARC
  5
2CB3
330
1F
100
AcDbEntity
  8
taglio
100
AcDbCircle
 10
4132.857419609906
 20
1755.495310281162
 30
0.0
 40
0.8571428571756076
100
AcDbArc
 50
323.6455077364771
 51
89.99999999951798
  0
LINE
  5
2CB4
330
1F
100
AcDbEntity
  8
taglio
100
AcDbLine
 10
4131.55901250478
 20
1750.860995063546
 30
0.0
 11
4131.55901250478
 21
1752.003852206402
 31
0.0
  0
ARC
  5
2CB5
330
1F
100
AcDbEntity
  8
taglio
100
AcDbCircle
 10
4132.416155361922
 20
1752.003852206402
 30
0.0
 40
0.8571428571428594
100
AcDbArc
 50
143.6455077364891
 51
180.0
  0
LINE
  5
2CB6
330
1F
100
AcDbEntity
  8
taglio
100
AcDbLine
 10
4126.119013509399
 20
1761.908008694643
 30
0.0
 11
4093.869412252946
 21
1761.908008694921
 31
0.0
  0
LINE
  5
2CB7
330
1F
100
AcDbEntity
  8
taglio
100
AcDbLine
 10
4126.809326256999
 20
1759.685626347799
 30
0.0
 11
4125.245635178083
 21
1757.561156678281
 31
0.0
  0
ARC
  5
2CB8
330
1F
100
AcDbEntity
  8
taglio
100
AcDbCircle
 10
4126.119013509384
 20
1760.193722980383
 30
0.0
 40
0.8571428571505252
100
AcDbArc
 50
323.6455077364769
 51
0.0
  0
LINE
  5
2CB9
330
1F
100
AcDbEntity
  8
taglio
100
AcDbLine
 10
4126.976156366535
 20
1761.0508658375
 30
0.0
 11
4126.976156366535
 21
1760.193722980383
 31
0.0
  0
ARC
  5
2CBA
330
1F
100
AcDbEntity
  8
taglio
100
AcDbCircle
 10
4126.119013509391
 20
1761.0508658375
 30
0.0
 40
0.8571428571428594
100
AcDbArc
 50
0.0
 51
89.99999999951798
  0
ARC
  5
2CBB
330
1F
100
AcDbEntity
  8
taglio
100
AcDbCircle
 10
4164.035202982674
 20
1752.133060122498
 30
0.0
 40
0.8571428555423473
100
AcDbArc
 50
0.0
 51
50.05474155559385
  0
ARC
  5
2CBC
330
1F
100
AcDbEntity
  8
taglio
100
AcDbCircle
 10
4094.131627877684
 20
1757.111317508652
 30
0.0
 40
0.7588643702538569
100
AcDbArc
 50
270.000000000469
 51
36.35449226351072
  0
LINE
  5
2CBD
330
1F
100
AcDbEntity
  8
taglio
100
AcDbLine
 10
4093.179099505343
 20
1759.685626347799
 30
0.0
 11
4094.742790584259
 21
1757.561156678281
 31
0.0
  0
ARC
  5
2CBE
330
1F
100
AcDbEntity
  8
taglio
100
AcDbCircle
 10
4093.869412252959
 20
1760.193722980383
 30
0.0
 40
0.8571428571505252
100
AcDbArc
 50
180.0
 51
216.3544922635107
  0
LINE
  5
2CBF
330
1F
100
AcDbEntity
  8
taglio
100
AcDbLine
 10
4093.012269395808
 20
1761.0508658375
 30
0.0
 11
4093.012269395808
 21
1760.193722980383
 31
0.0
  0
ARC
  5
2CC0
330
1F
100
AcDbEntity
  8
taglio
100
AcDbCircle
 10
4093.869412252951
 20
1761.0508658375
 30
0.0
 40
0.8571428571428594
100
AcDbArc
 50
90.00000000046897
 51
180.0
  0
LINE
  5
2CC1
330
1F
100
AcDbEntity
  8
taglio
100
AcDbLine
 10
4178.726555108577
 20
1656.352453137938
 30
0.0
 11
4162.690442079738
 21
1656.352453138078
 31
0.0
  0
LINE
  5
2CC2
330
1F
100
AcDbEntity
  8
taglio
100
AcDbLine
 10
4164.127611869336
 20
1650.225469011833
 30
0.0
 11
4132.194538555626
 21
1650.225469011833
 31
0.0
  0
ARC
  5
2CC3
330
1F
100
AcDbEntity
  8
taglio
100
AcDbCircle
 10
4164.127611869336
 20
1650.990202979849
 30
0.0
 40
0.7647339680156882
100
AcDbArc
 50
270.0
 51
0.0
  0
ARC
  5
2CC4
330
1F
100
AcDbEntity
  8
taglio
100
AcDbCircle
 10
4132.194538555626
 20
1650.860995063544
 30
0.0
 40
0.6355260517109781
100
AcDbArc
 50
180.0
 51
270.0
  0
LINE
  5
2CC5
330
1F
100
AcDbEntity
  8
taglio
100
AcDbLine
 10
4132.857419609048
 20
1656.352453138335
 30
0.0
 11
4125.856797883787
 21
1656.352453138396
 31
0.0
  0
ARC
  5
2CC6
330
1F
100
AcDbEntity
  8
taglio
100
AcDbCircle
 10
4125.856797883794
 20
1657.11131750865
 30
0.0
 40
0.7588643702538569
100
AcDbArc
 50
143.6455077364769
 51
269.999999999518
  0
LINE
  5
2CC7
330
1F
100
AcDbEntity
  8
taglio
100
AcDbLine
 10
4094.131607722157
 20
1656.352453138663
 30
0.0
 11
4078.726555108578
 21
1656.352453138802
 31
0.0
  0
LINE
  5
2CC8
330
1F
100
AcDbEntity
  8
taglio
100
AcDbLine
 10
4164.585536199592
 20
1652.790195743363
 30
0.0
 11
4162.14010886092
 21
1654.838174658841
 31
0.0
  0
ARC
  5
2CC9
330
1F
100
AcDbEntity
  8
taglio
100
AcDbCircle
 10
4162.690442079731
 20
1655.495310280936
 30
0.0
 40
0.8571428571428594
100
AcDbArc
 50
89.99999999951798
 51
230.0547415555983
  0
LINE
  5
2CCA
330
1F
100
AcDbEntity
  8
taglio
100
AcDbLine
 10
4164.892345837352
 20
1650.990202979849
 30
0.0
 11
4164.892345837352
 21
1652.133060122496
 31
0.0
  0
LINE
  5
2CCB
330
1F
100
AcDbEntity
  8
taglio
100
AcDbLine
 10
4131.725842613448
 20
1652.51194883898
 30
0.0
 11
4133.547732356677
 21
1654.987213648561
 31
0.0
  0
ARC
  5
2CCC
330
1F
100
AcDbEntity
  8
taglio
100
AcDbCircle
 10
4132.857419609041
 20
1655.49531028116
 30
0.0
 40
0.8571428571756076
100
AcDbArc
 50
323.6455077364771
 51
89.99999999951798
  0
LINE
  5
2CCD
330
1F
100
AcDbEntity
  8
taglio
100
AcDbLine
 10
4131.559012503915
 20
1650.860995063544
 30
0.0
 11
4131.559012503915
 21
1652.0038522064
 31
0.0
  0
ARC
  5
2CCE
330
1F
100
AcDbEntity
  8
taglio
100
AcDbCircle
 10
4132.416155361057
 20
1652.0038522064
 30
0.0
 40
0.8571428571428594
100
AcDbArc
 50
143.6455077364891
 51
180.0
  0
LINE
  5
2CCF
330
1F
100
AcDbEntity
  8
taglio
100
AcDbLine
 10
4126.119013508534
 20
1661.90800869464
 30
0.0
 11
4093.869412252082
 21
1661.908008694919
 31
0.0
  0
LINE
  5
2CD0
330
1F
100
AcDbEntity
  8
taglio
100
AcDbLine
 10
4126.809326256135
 20
1659.685626347796
 30
0.0
 11
4125.245635177218
 21
1657.561156678279
 31
0.0
  0
ARC
  5
2CD1
330
1F
100
AcDbEntity
  8
taglio
100
AcDbCircle
 10
4126.11901350852
 20
1660.19372298038
 30
0.0
 40
0.8571428571505252
100
AcDbArc
 50
323.6455077364769
 51
0.0
  0
LINE
  5
2CD2
330
1F
100
AcDbEntity
  8
taglio
100
AcDbLine
 10
4126.97615636567
 20
1661.050865837498
 30
0.0
 11
4126.97615636567
 21
1660.19372298038
 31
0.0
  0
ARC
  5
2CD3
330
1F
100
AcDbEntity
  8
taglio
100
AcDbCircle
 10
4126.119013508527
 20
1661.050865837498
 30
0.0
 40
0.8571428571428594
100
AcDbArc
 50
0.0
 51
89.99999999951798
  0
ARC
  5
2CD4
330
1F
100
AcDbEntity
  8
taglio
100
AcDbCircle
 10
4164.03520298181
 20
1652.133060122496
 30
0.0
 40
0.8571428555423473
100
AcDbArc
 50
0.0
 51
50.05474155559385
  0
ARC
  5
2CD5
330
1F
100
AcDbEntity
  8
taglio
100
AcDbCircle
 10
4094.131627876818
 20
1657.11131750865
 30
0.0
 40
0.7588643702538569
100
AcDbArc
 50
270.000000000469
 51
36.35449226351072
  0
LINE
  5
2CD6
330
1F
100
AcDbEntity
  8
taglio
100
AcDbLine
 10
4093.179099504478
 20
1659.685626347796
 30
0.0
 11
4094.742790583395
 21
1657.561156678279
 31
0.0
  0
ARC
  5
2CD7
330
1F
100
AcDbEntity
  8
taglio
100
AcDbCircle
 10
4093.869412252093
 20
1660.19372298038
 30
0.0
 40
0.8571428571505252
100
AcDbArc
 50
180.0
 51
216.3544922635107
  0
LINE
  5
2CD8
330
1F
100
AcDbEntity
  8
taglio
100
AcDbLine
 10
4093.012269394943
 20
1661.050865837498
 30
0.0
 11
4093.012269394943
 21
1660.19372298038
 31
0.0
  0
ARC
  5
2CD9
330
1F
100
AcDbEntity
  8
taglio
100
AcDbCircle
 10
4093.869412252086
 20
1661.050865837498
 30
0.0
 40
0.8571428571428594
100
AcDbArc
 50
90.00000000046897
 51
180.0
  0
LINE
  5
2CDA
330
1F
100
AcDbEntity
  8
taglio
100
AcDbLine
 10
4178.726555108579
 20
1396.813973870683
 30
0.0
 11
4162.69044207974
 21
1396.813973870823
 31
0.0
  0
LINE
  5
2CDB
330
1F
100
AcDbEntity
  8
taglio
100
AcDbLine
 10
4164.127611869337
 20
1390.686989744578
 30
0.0
 11
4132.194538555628
 21
1390.686989744578
 31
0.0
  0
ARC
  5
2CDC
330
1F
100
AcDbEntity
  8
taglio
100
AcDbCircle
 10
4164.127611869337
 20
1391.451723712594
 30
0.0
 40
0.7647339680156882
100
AcDbArc
 50
270.0
 51
0.0
  0
ARC
  5
2CDD
330
1F
100
AcDbEntity
  8
taglio
100
AcDbCircle
 10
4132.194538555628
 20
1391.322515796289
 30
0.0
 40
0.6355260517109781
100
AcDbArc
 50
180.0
 51
270.0
  0
LINE
  5
2CDE
330
1F
100
AcDbEntity
  8
taglio
100
AcDbLine
 10
4132.857419609051
 20
1396.81397387108
 30
0.0
 11
4125.856797883789
 21
1396.813973871141
 31
0.0
  0
ARC
  5
2CDF
330
1F
100
AcDbEntity
  8
taglio
100
AcDbCircle
 10
4125.856797883797
 20
1397.572838241394
 30
0.0
 40
0.7588643702538569
100
AcDbArc
 50
143.6455077364769
 51
269.999999999518
  0
LINE
  5
2CE0
330
1F
100
AcDbEntity
  8
taglio
100
AcDbLine
 10
4094.131607722157
 20
1396.813973871408
 30
0.0
 11
4078.72655510858
 21
1396.813973871547
 31
0.0
  0
LINE
  5
2CE1
330
1F
100
AcDbEntity
  8
taglio
100
AcDbLine
 10
4164.585536199594
 20
1393.251716476108
 30
0.0
 11
4162.140108860922
 21
1395.299695391586
 31
0.0
  0
ARC
  5
2CE2
330
1F
100
AcDbEntity
  8
taglio
100
AcDbCircle
 10
4162.690442079733
 20
1395.95683101368
 30
0.0
 40
0.8571428571428594
100
AcDbArc
 50
89.99999999951798
 51
230.0547415555983
  0
LINE
  5
2CE3
330
1F
100
AcDbEntity
  8
taglio
100
AcDbLine
 10
4164.892345837354
 20
1391.451723712594
 30
0.0
 11
4164.892345837354
 21
1392.594580855241
 31
0.0
  0
LINE
  5
2CE4
330
1F
100
AcDbEntity
  8
taglio
100
AcDbLine
 10
4131.725842613451
 20
1392.973469571725
 30
0.0
 11
4133.547732356679
 21
1395.448734381306
 31
0.0
  0
ARC
  5
2CE5
330
1F
100
AcDbEntity
  8
taglio
100
AcDbCircle
 10
4132.857419609043
 20
1395.956831013904
 30
0.0
 40
0.8571428571756076
100
AcDbArc
 50
323.6455077364771
 51
89.99999999951798
  0
LINE
  5
2CE6
330
1F
100
AcDbEntity
  8
taglio
100
AcDbLine
 10
4131.559012503917
 20
1391.322515796289
 30
0.0
 11
4131.559012503917
 21
1392.465372939145
 31
0.0
  0
ARC
  5
2CE7
330
1F
100
AcDbEntity
  8
taglio
100
AcDbCircle
 10
4132.416155361059
 20
1392.465372939145
 30
0.0
 40
0.8571428571428594
100
AcDbArc
 50
143.6455077364891
 51
180.0
  0
LINE
  5
2CE8
330
1F
100
AcDbEntity
  8
taglio
100
AcDbLine
 10
4126.119013508536
 20
1402.369529427385
 30
0.0
 11
4093.869412252083
 21
1402.369529427664
 31
0.0
  0
LINE
  5
2CE9
330
1F
100
AcDbEntity
  8
taglio
100
AcDbLine
 10
4126.809326256137
 20
1400.147147080541
 30
0.0
 11
4125.245635177221
 21
1398.022677411024
 31
0.0
  0
ARC
  5
2CEA
330
1F
100
AcDbEntity
  8
taglio
100
AcDbCircle
 10
4126.119013508521
 20
1400.655243713125
 30
0.0
 40
0.8571428571505252
100
AcDbArc
 50
323.6455077364769
 51
0.0
  0
LINE
  5
2CEB
330
1F
100
AcDbEntity
  8
taglio
100
AcDbLine
 10
4126.976156365672
 20
1401.512386570243
 30
0.0
 11
4126.976156365672
 21
1400.655243713125
 31
0.0
  0
ARC
  5
2CEC
330
1F
100
AcDbEntity
  8
taglio
100
AcDbCircle
 10
4126.119013508529
 20
1401.512386570243
 30
0.0
 40
0.8571428571428594
100
AcDbArc
 50
0.0
 51
89.99999999951798
  0
ARC
  5
2CED
330
1F
100
AcDbEntity
  8
taglio
100
AcDbCircle
 10
4164.035202981811
 20
1392.594580855241
 30
0.0
 40
0.8571428555423473
100
AcDbArc
 50
0.0
 51
50.05474155559385
  0
ARC
  5
2CEE
330
1F
100
AcDbEntity
  8
taglio
100
AcDbCircle
 10
4094.131627876821
 20
1397.572838241394
 30
0.0
 40
0.7588643702538569
100
AcDbArc
 50
270.000000000469
 51
36.35449226351072
  0
LINE
  5
2CEF
330
1F
100
AcDbEntity
  8
taglio
100
AcDbLine
 10
4093.179099504481
 20
1400.147147080541
 30
0.0
 11
4094.742790583397
 21
1398.022677411024
 31
0.0
  0
ARC
  5
2CF0
330
1F
100
AcDbEntity
  8
taglio
100
AcDbCircle
 10
4093.869412252096
 20
1400.655243713125
 30
0.0
 40
0.8571428571505252
100
AcDbArc
 50
180.0
 51
216.3544922635107
  0
LINE
  5
2CF1
330
1F
100
AcDbEntity
  8
taglio
100
AcDbLine
 10
4093.012269394945
 20
1401.512386570243
 30
0.0
 11
4093.012269394945
 21
1400.655243713125
 31
0.0
  0
ARC
  5
2CF2
330
1F
100
AcDbEntity
  8
taglio
100
AcDbCircle
 10
4093.869412252089
 20
1401.512386570243
 30
0.0
 40
0.8571428571428594
100
AcDbArc
 50
90.00000000046897
 51
180.0
  0
LINE
  5
2CF3
330
1F
100
AcDbEntity
  8
taglio
100
AcDbLine
 10
4035.259744774498
 20
1496.813973870685
 30
0.0
 11
4019.223631745658
 21
1496.813973870826
 31
0.0
  0
LINE
  5
2CF4
330
1F
100
AcDbEntity
  8
taglio
100
AcDbLine
 10
4020.660801535256
 20
1490.68698974458
 30
0.0
 11
3988.727728221546
 21
1490.68698974458
 31
0.0
  0
ARC
  5
2CF5
330
1F
100
AcDbEntity
  8
taglio
100
AcDbCircle
 10
4020.660801535256
 20
1491.451723712596
 30
0.0
 40
0.7647339680156882
100
AcDbArc
 50
270.0
 51
0.0
  0
ARC
  5
2CF6
330
1F
100
AcDbEntity
  8
taglio
100
AcDbCircle
 10
3988.727728221546
 20
1491.322515796291
 30
0.0
 40
0.6355260517109781
100
AcDbArc
 50
180.0
 51
270.0
  0
LINE
  5
2CF7
330
1F
100
AcDbEntity
  8
taglio
100
AcDbLine
 10
3989.390609274969
 20
1496.813973871083
 30
0.0
 11
3982.389987549708
 21
1496.813973871143
 31
0.0
  0
ARC
  5
2CF8
330
1F
100
AcDbEntity
  8
taglio
100
AcDbCircle
 10
3982.389987549715
 20
1497.572838241397
 30
0.0
 40
0.7588643702538569
100
AcDbArc
 50
143.6455077364771
 51
269.999999999518
  0
LINE
  5
2CF9
330
1F
100
AcDbEntity
  8
taglio
100
AcDbLine
 10
3950.664797388077
 20
1496.813973871411
 30
0.0
 11
3935.259744774498
 21
1496.813973871549
 31
0.0
  0
LINE
  5
2CFA
330
1F
100
AcDbEntity
  8
taglio
100
AcDbLine
 10
4021.118725865512
 20
1493.25171647611
 30
0.0
 11
4018.67329852684
 21
1495.299695391589
 31
0.0
  0
ARC
  5
2CFB
330
1F
100
AcDbEntity
  8
taglio
100
AcDbCircle
 10
4019.223631745651
 20
1495.956831013683
 30
0.0
 40
0.8571428571428594
100
AcDbArc
 50
89.99999999951798
 51
230.0547415555984
  0
LINE
  5
2CFC
330
1F
100
AcDbEntity
  8
taglio
100
AcDbLine
 10
4021.425535503271
 20
1491.451723712596
 30
0.0
 11
4021.425535503271
 21
1492.594580855243
 31
0.0
  0
LINE
  5
2CFD
330
1F
100
AcDbEntity
  8
taglio
100
AcDbLine
 10
3988.259032279369
 20
1492.973469571727
 30
0.0
 11
3990.080922022598
 21
1495.448734381308
 31
0.0
  0
ARC
  5
2CFE
330
1F
100
AcDbEntity
  8
taglio
100
AcDbCircle
 10
3989.390609274961
 20
1495.956831013907
 30
0.0
 40
0.8571428571756076
100
AcDbArc
 50
323.6455077364771
 51
89.99999999951798
  0
LINE
  5
2CFF
330
1F
100
AcDbEntity
  8
taglio
100
AcDbLine
 10
3988.092202169836
 20
1491.322515796291
 30
0.0
 11
3988.092202169836
 21
1492.465372939148
 31
0.0
  0
ARC
  5
2D00
330
1F
100
AcDbEntity
  8
taglio
100
AcDbCircle
 10
3988.949345026977
 20
1492.465372939148
 30
0.0
 40
0.8571428571428594
100
AcDbArc
 50
143.6455077364888
 51
180.0
  0
LINE
  5
2D01
330
1F
100
AcDbEntity
  8
taglio
100
AcDbLine
 10
3982.652203174455
 20
1502.369529427388
 30
0.0
 11
3950.402601918002
 21
1502.369529427666
 31
0.0
  0
LINE
  5
2D02
330
1F
100
AcDbEntity
  8
taglio
100
AcDbLine
 10
3983.342515922056
 20
1500.147147080543
 30
0.0
 11
3981.778824843139
 21
1498.022677411026
 31
0.0
  0
ARC
  5
2D03
330
1F
100
AcDbEntity
  8
taglio
100
AcDbCircle
 10
3982.65220317444
 20
1500.655243713127
 30
0.0
 40
0.8571428571505252
100
AcDbArc
 50
323.6455077364771
 51
0.0
  0
LINE
  5
2D04
330
1F
100
AcDbEntity
  8
taglio
100
AcDbLine
 10
3983.509346031591
 20
1501.512386570245
 30
0.0
 11
3983.509346031591
 21
1500.655243713127
 31
0.0
  0
ARC
  5
2D05
330
1F
100
AcDbEntity
  8
taglio
100
AcDbCircle
 10
3982.652203174448
 20
1501.512386570245
 30
0.0
 40
0.8571428571428594
100
AcDbArc
 50
0.0
 51
89.99999999951798
  0
ARC
  5
2D06
330
1F
100
AcDbEntity
  8
taglio
100
AcDbCircle
 10
4020.56839264773
 20
1492.594580855243
 30
0.0
 40
0.8571428555423473
100
AcDbArc
 50
0.0
 51
50.05474155559387
  0
ARC
  5
2D07
330
1F
100
AcDbEntity
  8
taglio
100
AcDbCircle
 10
3950.664817542739
 20
1497.572838241397
 30
0.0
 40
0.7588643702538569
100
AcDbArc
 50
270.000000000469
 51
36.35449226351114
  0
LINE
  5
2D08
330
1F
100
AcDbEntity
  8
taglio
100
AcDbLine
 10
3949.712289170399
 20
1500.147147080543
 30
0.0
 11
3951.275980249315
 21
1498.022677411026
 31
0.0
  0
ARC
  5
2D09
330
1F
100
AcDbEntity
  8
taglio
100
AcDbCircle
 10
3950.402601918014
 20
1500.655243713127
 30
0.0
 40
0.8571428571505252
100
AcDbArc
 50
180.0
 51
216.3544922635111
  0
LINE
  5
2D0A
330
1F
100
AcDbEntity
  8
taglio
100
AcDbLine
 10
3949.545459060863
 20
1501.512386570245
 30
0.0
 11
3949.545459060863
 21
1500.655243713127
 31
0.0
  0
ARC
  5
2D0B
330
1F
100
AcDbEntity
  8
taglio
100
AcDbCircle
 10
3950.402601918007
 20
1501.512386570245
 30
0.0
 40
0.8571428571428594
100
AcDbArc
 50
90.00000000046897
 51
180.0
  0
LINE
  5
2D0C
330
1F
100
AcDbEntity
  8
taglio
100
AcDbLine
 10
4035.259744773634
 20
1396.813973870683
 30
0.0
 11
4019.223631744795
 21
1396.813973870823
 31
0.0
  0
LINE
  5
2D0D
330
1F
100
AcDbEntity
  8
taglio
100
AcDbLine
 10
4020.660801534392
 20
1390.686989744578
 30
0.0
 11
3988.727728220683
 21
1390.686989744578
 31
0.0
  0
ARC
  5
2D0E
330
1F
100
AcDbEntity
  8
taglio
100
AcDbCircle
 10
4020.660801534392
 20
1391.451723712594
 30
0.0
 40
0.7647339680156882
100
AcDbArc
 50
270.0
 51
0.0
  0
ARC
  5
2D0F
330
1F
100
AcDbEntity
  8
taglio
100
AcDbCircle
 10
3988.727728220683
 20
1391.322515796289
 30
0.0
 40
0.6355260517109781
100
AcDbArc
 50
180.0
 51
270.0
  0
LINE
  5
2D10
330
1F
100
AcDbEntity
  8
taglio
100
AcDbLine
 10
3989.390609274106
 20
1396.81397387108
 30
0.0
 11
3982.389987548844
 21
1396.813973871141
 31
0.0
  0
ARC
  5
2D11
330
1F
100
AcDbEntity
  8
taglio
100
AcDbCircle
 10
3982.389987548851
 20
1397.572838241394
 30
0.0
 40
0.7588643702538569
100
AcDbArc
 50
143.6455077364769
 51
269.999999999518
  0
LINE
  5
2D12
330
1F
100
AcDbEntity
  8
taglio
100
AcDbLine
 10
3950.664797387214
 20
1396.813973871408
 30
0.0
 11
3935.259744773635
 21
1396.813973871547
 31
0.0
  0
LINE
  5
2D13
330
1F
100
AcDbEntity
  8
taglio
100
AcDbLine
 10
4021.118725864649
 20
1393.251716476108
 30
0.0
 11
4018.673298525976
 21
1395.299695391586
 31
0.0
  0
ARC
  5
2D14
330
1F
100
AcDbEntity
  8
taglio
100
AcDbCircle
 10
4019.223631744788
 20
1395.95683101368
 30
0.0
 40
0.8571428571428594
100
AcDbArc
 50
89.99999999951798
 51
230.0547415555982
  0
LINE
  5
2D15
330
1F
100
AcDbEntity
  8
taglio
100
AcDbLine
 10
4021.425535502408
 20
1391.451723712594
 30
0.0
 11
4021.425535502408
 21
1392.594580855241
 31
0.0
  0
LINE
  5
2D16
330
1F
100
AcDbEntity
  8
taglio
100
AcDbLine
 10
3988.259032278506
 20
1392.973469571725
 30
0.0
 11
3990.080922021735
 21
1395.448734381306
 31
0.0
  0
ARC
  5
2D17
330
1F
100
AcDbEntity
  8
taglio
100
AcDbCircle
 10
3989.390609274098
 20
1395.956831013904
 30
0.0
 40
0.8571428571756076
100
AcDbArc
 50
323.645507736477
 51
89.99999999951798
  0
LINE
  5
2D18
330
1F
100
AcDbEntity
  8
taglio
100
AcDbLine
 10
3988.092202168972
 20
1391.322515796289
 30
0.0
 11
3988.092202168972
 21
1392.465372939145
 31
0.0
  0
ARC
  5
2D19
330
1F
100
AcDbEntity
  8
taglio
100
AcDbCircle
 10
3988.949345026114
 20
1392.465372939145
 30
0.0
 40
0.8571428571428594
100
AcDbArc
 50
143.6455077364887
 51
180.0
  0
LINE
  5
2D1A
330
1F
100
AcDbEntity
  8
taglio
100
AcDbLine
 10
3982.652203173591
 20
1402.369529427385
 30
0.0
 11
3950.402601917139
 21
1402.369529427664
 31
0.0
  0
LINE
  5
2D1B
330
1F
100
AcDbEntity
  8
taglio
100
AcDbLine
 10
3983.342515921192
 20
1400.147147080541
 30
0.0
 11
3981.778824842276
 21
1398.022677411024
 31
0.0
  0
ARC
  5
2D1C
330
1F
100
AcDbEntity
  8
taglio
100
AcDbCircle
 10
3982.652203173577
 20
1400.655243713125
 30
0.0
 40
0.8571428571505252
100
AcDbArc
 50
323.645507736477
 51
0.0
  0
LINE
  5
2D1D
330
1F
100
AcDbEntity
  8
taglio
100
AcDbLine
 10
3983.509346030727
 20
1401.512386570243
 30
0.0
 11
3983.509346030727
 21
1400.655243713125
 31
0.0
  0
ARC
  5
2D1E
330
1F
100
AcDbEntity
  8
taglio
100
AcDbCircle
 10
3982.652203173584
 20
1401.512386570243
 30
0.0
 40
0.8571428571428594
100
AcDbArc
 50
0.0
 51
89.99999999951798
  0
ARC
  5
2D1F
330
1F
100
AcDbEntity
  8
taglio
100
AcDbCircle
 10
4020.568392646866
 20
1392.594580855241
 30
0.0
 40
0.8571428555423473
100
AcDbArc
 50
0.0
 51
50.05474155559389
  0
ARC
  5
2D20
330
1F
100
AcDbEntity
  8
taglio
100
AcDbCircle
 10
3950.664817541876
 20
1397.572838241394
 30
0.0
 40
0.7588643702538569
100
AcDbArc
 50
270.000000000469
 51
36.35449226351117
  0
LINE
  5
2D21
330
1F
100
AcDbEntity
  8
taglio
100
AcDbLine
 10
3949.712289169536
 20
1400.147147080541
 30
0.0
 11
3951.275980248452
 21
1398.022677411024
 31
0.0
  0
ARC
  5
2D22
330
1F
100
AcDbEntity
  8
taglio
100
AcDbCircle
 10
3950.402601917151
 20
1400.655243713125
 30
0.0
 40
0.8571428571505252
100
AcDbArc
 50
180.0
 51
216.3544922635112
  0
LINE
  5
2D23
330
1F
100
AcDbEntity
  8
taglio
100
AcDbLine
 10
3949.545459060001
 20
1401.512386570243
 30
0.0
 11
3949.545459060001
 21
1400.655243713125
 31
0.0
  0
ARC
  5
2D24
330
1F
100
AcDbEntity
  8
taglio
100
AcDbCircle
 10
3950.402601917144
 20
1401.512386570243
 30
0.0
 40
0.8571428571428594
100
AcDbArc
 50
90.00000000046897
 51
180.0
  0
ARC
  5
2D37
330
1F
100
AcDbEntity
  8
taglio
100
AcDbCircle
 10
4174.004031690516
 20
1414.238519446463
 30
0.0
 40
0.833032137114969
100
AcDbArc
 50
180.0
 51
270.0
  0
LINE
  5
2D38
330
1F
100
AcDbEntity
  8
taglio
100
AcDbLine
 10
4176.040008262732
 20
1413.657855109943
 30
0.0
 11
4177.824890852706
 21
1415.450499919313
 31
0.0
  0
ARC
  5
2D39
330
1F
100
AcDbEntity
  8
taglio
100
AcDbCircle
 10
4178.198846166331
 20
1415.078163846249
 30
0.0
 40
0.5277089424045645
100
AcDbArc
 50
359.9999999995049
 51
135.1243153897894
  0
LINE
  5
2D3A
330
1F
100
AcDbEntity
  8
taglio
100
AcDbLine
 10
4174.004031690516
 20
1413.405487309349
 30
0.0
 11
4175.432603119086
 21
1413.405487309349
 31
0.0
  0
ARC
  5
2D3B
330
1F
100
AcDbEntity
  8
taglio
100
AcDbCircle
 10
4175.432603119086
 20
1414.26263016649
 30
0.0
 40
0.8571428571406292
100
AcDbArc
 50
270.0
 51
315.1243153897721
  0
LINE
  5
2D50
330
1F
100
AcDbEntity
  8
taglio
100
AcDbLine
 10
3935.259744773637
 20
1396.813973871549
 30
0.0
 11
3935.259744773794
 21
1415.078163847111
 31
0.0
  0
LINE
  5
2D51
330
1F
100
AcDbEntity
  8
taglio
100
AcDbLine
 10
3929.704189218458
 20
1414.23851944733
 30
0.0
 11
3929.704189218459
 21
1441.671116728677
 31
0.0
  0
ARC
  5
2D52
330
1F
100
AcDbEntity
  8
taglio
100
AcDbCircle
 10
3930.537221355574
 20
1414.23851944733
 30
0.0
 40
0.833032137114969
100
AcDbArc
 50
180.0
 51
270.0
  0
ARC
  5
2D53
330
1F
100
AcDbEntity
  8
taglio
100
AcDbCircle
 10
3930.5613320756
 20
1441.671116728677
 30
0.0
 40
0.8571428571413006
100
AcDbArc
 50
90.0
 51
180.0
  0
LINE
  5
2D54
330
1F
100
AcDbEntity
  8
taglio
100
AcDbLine
 10
3935.259744774015
 20
1440.777860842569
 30
0.0
 11
3935.25974477417
 21
1458.665072677367
 31
0.0
  0
ARC
  5
2D55
330
1F
100
AcDbEntity
  8
taglio
100
AcDbCircle
 10
3936.125005636938
 20
1458.66507267736
 30
0.0
 40
0.8652608627693332
100
AcDbArc
 50
43.25892518168954
 51
179.9999999995017
  0
LINE
  5
2D56
330
1F
100
AcDbEntity
  8
taglio
100
AcDbLine
 10
3935.259744774384
 20
1483.635003699547
 30
0.0
 11
3935.259744774498
 21
1496.813973871549
 31
0.0
  0
ARC
  5
2D57
330
1F
100
AcDbEntity
  8
taglio
100
AcDbCircle
 10
3936.116887631328
 20
1483.63500369954
 30
0.0
 40
0.8571428569434278
100
AcDbArc
 50
179.9999999995147
 51
315.1243153897905
  0
LINE
  5
2D58
330
1F
100
AcDbEntity
  8
taglio
100
AcDbLine
 10
3932.573197927789
 20
1413.65785511081
 30
0.0
 11
3934.358080517763
 21
1415.450499920179
 31
0.0
  0
ARC
  5
2D59
330
1F
100
AcDbEntity
  8
taglio
100
AcDbCircle
 10
3934.732035831389
 20
1415.078163847115
 30
0.0
 40
0.5277089424045645
100
AcDbArc
 50
359.9999999995049
 51
135.12431538979
  0
LINE
  5
2D5A
330
1F
100
AcDbEntity
  8
taglio
100
AcDbLine
 10
3930.537221355574
 20
1413.405487310215
 30
0.0
 11
3931.965792784144
 21
1413.405487310215
 31
0.0
  0
ARC
  5
2D5B
330
1F
100
AcDbEntity
  8
taglio
100
AcDbCircle
 10
3931.965792784144
 20
1414.262630167356
 30
0.0
 40
0.8571428571406292
100
AcDbArc
 50
270.0
 51
315.1243153897721
  0
LINE
  5
2D5C
330
1F
100
AcDbEntity
  8
taglio
100
AcDbLine
 10
3932.614129984868
 20
1442.258513679932
 30
0.0
 11
3934.347724286335
 21
1440.416223781335
 31
0.0
  0
ARC
  5
2D5D
330
1F
100
AcDbEntity
  8
taglio
100
AcDbCircle
 10
3934.73203583161
 20
1440.777860842573
 30
0.0
 40
0.5277089424045645
100
AcDbArc
 50
223.2589251816756
 51
359.9999999995049
  0
LINE
  5
2D5E
330
1F
100
AcDbEntity
  8
taglio
100
AcDbLine
 10
3930.5613320756
 20
1442.528259585819
 30
0.0
 11
3931.98990350417
 21
1442.528259585819
 31
0.0
  0
ARC
  5
2D5F
330
1F
100
AcDbEntity
  8
taglio
100
AcDbCircle
 10
3931.98990350417
 20
1441.671116728679
 30
0.0
 40
0.8571428571406292
100
AcDbArc
 50
43.2589251816892
 51
90.0
  0
LINE
  5
2D60
330
1F
100
AcDbEntity
  8
taglio
100
AcDbLine
 10
3941.95815747241
 20
1457.918161226747
 30
0.0
 11
3941.958157472411
 21
1484.281215087777
 31
0.0
  0
ARC
  5
2D61
330
1F
100
AcDbEntity
  8
taglio
100
AcDbCircle
 10
3940.853970117222
 20
1484.281215087777
 30
0.0
 40
1.104187355188514
100
AcDbArc
 50
0.0
 51
90.0
  0
LINE
  5
2D62
330
1F
100
AcDbEntity
  8
taglio
100
AcDbLine
 10
3938.801172207936
 20
1457.083719777432
 30
0.0
 11
3936.755144170734
 21
1459.258032868996
 31
0.0
  0
ARC
  5
2D63
330
1F
100
AcDbEntity
  8
taglio
100
AcDbCircle
 10
3939.425398688636
 20
1457.671116728687
 30
0.0
 40
0.8571428571428594
100
AcDbArc
 50
223.2589251816898
 51
270.0
  0
LINE
  5
2D64
330
1F
100
AcDbEntity
  8
taglio
100
AcDbLine
 10
3940.853970117208
 20
1456.813973871544
 30
0.0
 11
3939.425398688636
 21
1456.813973871544
 31
0.0
  0
ARC
  5
2D65
330
1F
100
AcDbEntity
  8
taglio
100
AcDbCircle
 10
3940.853970117208
 20
1457.918161226747
 30
0.0
 40
1.104187355202679
100
AcDbArc
 50
270.0
 51
0.0
  0
LINE
  5
2D66
330
1F
100
AcDbEntity
  8
taglio
100
AcDbLine
 10
3938.817993545036
 20
1485.133034642338
 30
0.0
 11
3936.724292774833
 21
1483.030228643133
 31
0.0
  0
ARC
  5
2D67
330
1F
100
AcDbEntity
  8
taglio
100
AcDbCircle
 10
3939.425398688683
 20
1484.528259585791
 30
0.0
 40
0.8571428571428594
100
AcDbArc
 50
90.0
 51
135.1243153897769
  0
LINE
  5
2D68
330
1F
100
AcDbEntity
  8
taglio
100
AcDbLine
 10
3940.853970117222
 20
1485.385402442965
 30
0.0
 11
3939.425398688683
 21
1485.385402442934
 31
0.0
  0
LINE
  5
2D6E
330
1F
100
AcDbEntity
  8
taglio
100
AcDbLine
 10
4035.259744774498
 20
1496.813973870685
 30
0.0
 11
4035.259744774357
 21
1480.777860841846
 31
0.0
  0
LINE
  5
2D6F
330
1F
100
AcDbEntity
  8
taglio
100
AcDbLine
 10
4041.386728900602
 20
1482.215030631443
 30
0.0
 11
4041.386728900603
 21
1450.281957317734
 31
0.0
  0
ARC
  5
2D70
330
1F
100
AcDbEntity
  8
taglio
100
AcDbCircle
 10
4040.621994932586
 20
1482.215030631443
 30
0.0
 40
0.7647339680156882
100
AcDbArc
 50
0.0
 51
90.0
  0
ARC
  5
2D71
330
1F
100
AcDbEntity
  8
taglio
100
AcDbCircle
 10
4040.751202848891
 20
1450.281957317734
 30
0.0
 40
0.6355260517109781
100
AcDbArc
 50
270.0
 51
0.0
  0
LINE
  5
2D72
330
1F
100
AcDbEntity
  8
taglio
100
AcDbLine
 10
4035.2597447741
 20
1450.944838371156
 30
0.0
 11
4035.259744774039
 21
1443.944216645895
 31
0.0
  0
ARC
  5
2D73
330
1F
100
AcDbEntity
  8
taglio
100
AcDbCircle
 10
4034.500880403785
 20
1443.944216645902
 30
0.0
 40
0.7588643702538569
100
AcDbArc
 50
233.6455077364572
 51
359.9999999995049
  0
LINE
  5
2D74
330
1F
100
AcDbEntity
  8
taglio
100
AcDbLine
 10
4035.259744773771
 20
1412.219026484264
 30
0.0
 11
4035.259744773633
 21
1396.813973870685
 31
0.0
  0
LINE
  5
2D75
330
1F
100
AcDbEntity
  8
taglio
100
AcDbLine
 10
4038.822002169073
 20
1482.6729549617
 30
0.0
 11
4036.774023253594
 21
1480.227527623028
 31
0.0
  0
ARC
  5
2D76
330
1F
100
AcDbEntity
  8
taglio
100
AcDbCircle
 10
4036.1168876315
 20
1480.777860841838
 30
0.0
 40
0.8571428571428594
100
AcDbArc
 50
179.9999999995049
 51
320.054741555602
  0
LINE
  5
2D77
330
1F
100
AcDbEntity
  8
taglio
100
AcDbLine
 10
4040.621994932586
 20
1482.97976459946
 30
0.0
 11
4039.47913778994
 21
1482.97976459946
 31
0.0
  0
LINE
  5
2D78
330
1F
100
AcDbEntity
  8
taglio
100
AcDbLine
 10
4039.100249073455
 20
1449.813261375556
 30
0.0
 11
4036.624984263875
 21
1451.635151118785
 31
0.0
  0
ARC
  5
2D79
330
1F
100
AcDbEntity
  8
taglio
100
AcDbCircle
 10
4036.116887631275
 20
1450.944838371149
 30
0.0
 40
0.8571428571756076
100
AcDbArc
 50
53.64550773645725
 51
179.9999999995049
  0
LINE
  5
2D7A
330
1F
100
AcDbEntity
  8
taglio
100
AcDbLine
 10
4040.751202848891
 20
1449.646431266023
 30
0.0
 11
4039.608345706034
 21
1449.646431266023
 31
0.0
  0
ARC
  5
2D7B
330
1F
100
AcDbEntity
  8
taglio
100
AcDbCircle
 10
4039.608345706034
 20
1450.503574123165
 30
0.0
 40
0.8571428571428594
100
AcDbArc
 50
233.6455077364993
 51
270.0
  0
LINE
  5
2D7C
330
1F
100
AcDbEntity
  8
taglio
100
AcDbLine
 10
4029.704189217794
 20
1444.206432270642
 30
0.0
 11
4029.704189217516
 21
1411.956831014189
 31
0.0
  0
LINE
  5
2D7D
330
1F
100
AcDbEntity
  8
taglio
100
AcDbLine
 10
4031.926571564639
 20
1444.896745018243
 30
0.0
 11
4034.051041234157
 21
1443.333053939326
 31
0.0
  0
ARC
  5
2D7E
330
1F
100
AcDbEntity
  8
taglio
100
AcDbCircle
 10
4031.418474932055
 20
1444.206432270627
 30
0.0
 40
0.8571428571505252
100
AcDbArc
 50
53.64550773645725
 51
90.0
  0
LINE
  5
2D7F
330
1F
100
AcDbEntity
  8
taglio
100
AcDbLine
 10
4030.561332074937
 20
1445.063575127778
 30
0.0
 11
4031.418474932055
 21
1445.063575127778
 31
0.0
  0
ARC
  5
2D80
330
1F
100
AcDbEntity
  8
taglio
100
AcDbCircle
 10
4030.561332074937
 20
1444.206432270635
 30
0.0
 40
0.8571428571428594
100
AcDbArc
 50
90.0
 51
179.9999999995049
  0
ARC
  5
2D81
330
1F
100
AcDbEntity
  8
taglio
100
AcDbCircle
 10
4039.47913778994
 20
1482.122621743917
 30
0.0
 40
0.8571428555423473
100
AcDbArc
 50
90.0
 51
140.0547415555811
  0
ARC
  5
2D82
330
1F
100
AcDbEntity
  8
taglio
100
AcDbCircle
 10
4034.500880403785
 20
1412.219046638927
 30
0.0
 40
0.7588643702538569
100
AcDbArc
 50
0.0000000004689919
 51
126.3544922635007
  0
LINE
  5
2D83
330
1F
100
AcDbEntity
  8
taglio
100
AcDbLine
 10
4031.926571564639
 20
1411.266518266586
 30
0.0
 11
4034.051041234157
 21
1412.830209345502
 31
0.0
  0
ARC
  5
2D84
330
1F
100
AcDbEntity
  8
taglio
100
AcDbCircle
 10
4031.418474932055
 20
1411.956831014201
 30
0.0
 40
0.8571428571505252
100
AcDbArc
 50
270.0
 51
306.3544922635007
  0
LINE
  5
2D85
330
1F
100
AcDbEntity
  8
taglio
100
AcDbLine
 10
4030.561332074937
 20
1411.099688157051
 30
0.0
 11
4031.418474932055
 21
1411.099688157051
 31
0.0
  0
ARC
  5
2D86
330
1F
100
AcDbEntity
  8
taglio
100
AcDbCircle
 10
4030.561332074937
 20
1411.956831014194
 30
0.0
 40
0.8571428571428594
100
AcDbArc
 50
180.000000000469
 51
270.0
  0
LINE
  5
2D87
330
1F
100
AcDbEntity
  8
taglio
100
AcDbLine
 10
4178.726555109707
 20
1525.565416626884
 30
0.0
 11
4178.726555109864
 21
1543.829606602444
 31
0.0
  0
LINE
  5
2D88
330
1F
100
AcDbEntity
  8
taglio
100
AcDbLine
 10
4173.170999554542
 20
1543.014072923557
 30
0.0
 11
4173.170999554542
 21
1570.42255948489
 31
0.0
  0
ARC
  5
2D89
330
1F
100
AcDbEntity
  8
taglio
100
AcDbCircle
 10
4174.028142411672
 20
1570.42255948489
 30
0.0
 40
0.8571428571286974
100
AcDbArc
 50
90.0
 51
180.0
  0
LINE
  5
2D8A
330
1F
100
AcDbEntity
  8
taglio
100
AcDbLine
 10
4178.726555110085
 20
1569.529303598768
 30
0.0
 11
4178.72655511024
 21
1587.41651543358
 31
0.0
  0
ARC
  5
2D8B
330
1F
100
AcDbEntity
  8
taglio
100
AcDbCircle
 10
4179.591815973021
 20
1587.416515433572
 30
0.0
 40
0.865260862780679
100
AcDbArc
 50
43.25892518168957
 51
179.9999999995017
  0
LINE
  5
2D8C
330
1F
100
AcDbEntity
  8
taglio
100
AcDbLine
 10
4178.726555110454
 20
1612.386446455766
 30
0.0
 11
4178.726555110571
 21
1625.565416626886
 31
0.0
  0
ARC
  5
2D8D
330
1F
100
AcDbEntity
  8
taglio
100
AcDbCircle
 10
4179.583697967379
 20
1612.386446455758
 30
0.0
 40
0.8571428569242788
100
AcDbArc
 50
179.9999999994984
 51
315.1243153897809
  0
LINE
  5
2D8E
330
1F
100
AcDbEntity
  8
taglio
100
AcDbLine
 10
4176.08094032094
 20
1571.009956436131
 30
0.0
 11
4177.814534622406
 21
1569.167666537534
 31
0.0
  0
ARC
  5
2D8F
330
1F
100
AcDbEntity
  8
taglio
100
AcDbCircle
 10
4178.19884616768
 20
1569.529303598772
 30
0.0
 40
0.5277089424045645
100
AcDbArc
 50
223.2589251817828
 51
359.9999999995261
  0
LINE
  5
2D90
330
1F
100
AcDbEntity
  8
taglio
100
AcDbLine
 10
4174.028142411672
 20
1571.279702342018
 30
0.0
 11
4175.456713840241
 21
1571.279702342018
 31
0.0
  0
ARC
  5
2D91
330
1F
100
AcDbEntity
  8
taglio
100
AcDbCircle
 10
4175.456713840241
 20
1570.422559484878
 30
0.0
 40
0.8571428571406292
100
AcDbArc
 50
43.25892518168906
 51
90.0
  0
LINE
  5
2D92
330
1F
100
AcDbEntity
  8
taglio
100
AcDbLine
 10
4185.424967808477
 20
1586.669603982945
 30
0.0
 11
4185.424967808477
 21
1613.032657843961
 31
0.0
  0
ARC
  5
2D93
330
1F
100
AcDbEntity
  8
taglio
100
AcDbCircle
 10
4184.320780453274
 20
1613.032657843961
 30
0.0
 40
1.104187355203521
100
AcDbArc
 50
0.0
 51
90.0
  0
LINE
  5
2D94
330
1F
100
AcDbEntity
  8
taglio
100
AcDbLine
 10
4182.267982544024
 20
1585.835162533631
 30
0.0
 11
4180.221954506825
 21
1588.009475625217
 31
0.0
  0
ARC
  5
2D95
330
1F
100
AcDbEntity
  8
taglio
100
AcDbCircle
 10
4182.892209024723
 20
1586.422559484886
 30
0.0
 40
0.8571428571428594
100
AcDbArc
 50
223.2589251816759
 51
270.0
  0
LINE
  5
2D96
330
1F
100
AcDbEntity
  8
taglio
100
AcDbLine
 10
4184.320780453275
 20
1585.565416627744
 30
0.0
 11
4182.892209024723
 21
1585.565416627743
 31
0.0
  0
ARC
  5
2D97
330
1F
100
AcDbEntity
  8
taglio
100
AcDbCircle
 10
4184.320780453275
 20
1586.669603982945
 30
0.0
 40
1.1041873552019
100
AcDbArc
 50
270.0
 51
0.0
  0
LINE
  5
2D98
330
1F
100
AcDbEntity
  8
taglio
100
AcDbLine
 10
4182.284803881042
 20
1613.884477398539
 30
0.0
 11
4180.19110311087
 21
1611.781671399365
 31
0.0
  0
ARC
  5
2D99
330
1F
100
AcDbEntity
  8
taglio
100
AcDbCircle
 10
4182.892209024688
 20
1613.27970234199
 30
0.0
 40
0.8571428571428594
100
AcDbArc
 50
90.0
 51
135.1243153897723
  0
LINE
  5
2D9A
330
1F
100
AcDbEntity
  8
taglio
100
AcDbLine
 10
4184.320780453274
 20
1614.136845199164
 30
0.0
 11
4182.892209024688
 21
1614.136845199133
 31
0.0
  0
LINE
  5
2D9B
330
1F
100
AcDbEntity
  8
taglio
100
AcDbLine
 10
4078.726555109708
 20
1525.565416627748
 30
0.0
 11
4078.726555109865
 21
1543.82960660331
 31
0.0
  0
LINE
  5
2D9C
330
1F
100
AcDbEntity
  8
taglio
100
AcDbLine
 10
4073.170999554529
 20
1542.989962203529
 30
0.0
 11
4073.170999554529
 21
1570.422559484877
 31
0.0
  0
ARC
  5
2D9D
330
1F
100
AcDbEntity
  8
taglio
100
AcDbCircle
 10
4074.004031691645
 20
1542.989962203529
 30
0.0
 40
0.833032137114969
100
AcDbArc
 50
180.0
 51
270.0
  0
ARC
  5
2D9E
330
1F
100
AcDbEntity
  8
taglio
100
AcDbCircle
 10
4074.028142411671
 20
1570.422559484877
 30
0.0
 40
0.8571428571413006
100
AcDbArc
 50
90.0
 51
180.0
  0
LINE
  5
2D9F
330
1F
100
AcDbEntity
  8
taglio
100
AcDbLine
 10
4078.726555110086
 20
1569.529303598768
 30
0.0
 11
4078.72655511024
 21
1587.416515433566
 31
0.0
  0
ARC
  5
2DA0
330
1F
100
AcDbEntity
  8
taglio
100
AcDbCircle
 10
4079.591815973009
 20
1587.416515433559
 30
0.0
 40
0.8652608627693332
100
AcDbArc
 50
43.25892518168935
 51
179.9999999995017
  0
LINE
  5
2DA1
330
1F
100
AcDbEntity
  8
taglio
100
AcDbLine
 10
4078.726555110455
 20
1612.386446455746
 30
0.0
 11
4078.726555110569
 21
1625.565416627748
 31
0.0
  0
ARC
  5
2DA2
330
1F
100
AcDbEntity
  8
taglio
100
AcDbCircle
 10
4079.583697967399
 20
1612.386446455739
 30
0.0
 40
0.8571428569434278
100
AcDbArc
 50
179.9999999995147
 51
315.1243153897906
  0
LINE
  5
2DA3
330
1F
100
AcDbEntity
  8
taglio
100
AcDbLine
 10
4076.04000826386
 20
1542.409297867009
 30
0.0
 11
4077.824890853833
 21
1544.201942676379
 31
0.0
  0
ARC
  5
2DA4
330
1F
100
AcDbEntity
  8
taglio
100
AcDbCircle
 10
4078.19884616746
 20
1543.829606603314
 30
0.0
 40
0.5277089424045645
100
AcDbArc
 50
359.9999999995049
 51
135.1243153897901
  0
LINE
  5
2DA5
330
1F
100
AcDbEntity
  8
taglio
100
AcDbLine
 10
4074.004031691645
 20
1542.156930066414
 30
0.0
 11
4075.432603120215
 21
1542.156930066414
 31
0.0
  0
ARC
  5
2DA6
330
1F
100
AcDbEntity
  8
taglio
100
AcDbCircle
 10
4075.432603120215
 20
1543.014072923555
 30
0.0
 40
0.8571428571406292
100
AcDbArc
 50
270.0
 51
315.1243153897723
  0
LINE
  5
2DA7
330
1F
100
AcDbEntity
  8
taglio
100
AcDbLine
 10
4076.080940320939
 20
1571.009956436131
 30
0.0
 11
4077.814534622405
 21
1569.167666537534
 31
0.0
  0
ARC
  5
2DA8
330
1F
100
AcDbEntity
  8
taglio
100
AcDbCircle
 10
4078.198846167682
 20
1569.529303598773
 30
0.0
 40
0.5277089424045645
100
AcDbArc
 50
223.2589251816758
 51
359.9999999995049
  0
LINE
  5
2DA9
330
1F
100
AcDbEntity
  8
taglio
100
AcDbLine
 10
4074.028142411671
 20
1571.279702342018
 30
0.0
 11
4075.456713840241
 21
1571.279702342018
 31
0.0
  0
ARC
  5
2DAA
330
1F
100
AcDbEntity
  8
taglio
100
AcDbCircle
 10
4075.456713840241
 20
1570.422559484878
 30
0.0
 40
0.8571428571406292
100
AcDbArc
 50
43.25892518168906
 51
90.0
  0
LINE
  5
2DAB
330
1F
100
AcDbEntity
  8
taglio
100
AcDbLine
 10
4085.424967808481
 20
1586.669603982946
 30
0.0
 11
4085.424967808481
 21
1613.032657843976
 31
0.0
  0
ARC
  5
2DAC
330
1F
100
AcDbEntity
  8
taglio
100
AcDbCircle
 10
4084.320780453293
 20
1613.032657843976
 30
0.0
 40
1.104187355188514
100
AcDbArc
 50
0.0
 51
90.0
  0
LINE
  5
2DAD
330
1F
100
AcDbEntity
  8
taglio
100
AcDbLine
 10
4082.267982544007
 20
1585.835162533631
 30
0.0
 11
4080.221954506805
 21
1588.009475625195
 31
0.0
  0
ARC
  5
2DAE
330
1F
100
AcDbEntity
  8
taglio
100
AcDbCircle
 10
4082.892209024707
 20
1586.422559484886
 30
0.0
 40
0.8571428571428594
100
AcDbArc
 50
223.2589251816896
 51
270.0
  0
LINE
  5
2DAF
330
1F
100
AcDbEntity
  8
taglio
100
AcDbLine
 10
4084.320780453278
 20
1585.565416627743
 30
0.0
 11
4082.892209024707
 21
1585.565416627743
 31
0.0
  0
ARC
  5
2DB0
330
1F
100
AcDbEntity
  8
taglio
100
AcDbCircle
 10
4084.320780453278
 20
1586.669603982946
 30
0.0
 40
1.104187355202679
100
AcDbArc
 50
270.0
 51
0.0
  0
LINE
  5
2DB1
330
1F
100
AcDbEntity
  8
taglio
100
AcDbLine
 10
4082.284803881107
 20
1613.884477398537
 30
0.0
 11
4080.191103110904
 21
1611.781671399332
 31
0.0
  0
ARC
  5
2DB2
330
1F
100
AcDbEntity
  8
taglio
100
AcDbCircle
 10
4082.892209024755
 20
1613.27970234199
 30
0.0
 40
0.8571428571428594
100
AcDbArc
 50
90.0
 51
135.124315389777
  0
LINE
  5
2DB3
330
1F
100
AcDbEntity
  8
taglio
100
AcDbLine
 10
4084.320780453293
 20
1614.136845199164
 30
0.0
 11
4082.892209024755
 21
1614.136845199133
 31
0.0
  0
ARC
  5
2DB4
330
1F
100
AcDbEntity
  8
taglio
100
AcDbCircle
 10
4174.004031691644
 20
1542.989962202665
 30
0.0
 40
0.833032137114969
100
AcDbArc
 50
180.0
 51
270.0
  0
LINE
  5
2DB5
330
1F
100
AcDbEntity
  8
taglio
100
AcDbLine
 10
4176.04000826386
 20
1542.409297866145
 30
0.0
 11
4177.824890853833
 21
1544.201942675514
 31
0.0
  0
ARC
  5
2DB6
330
1F
100
AcDbEntity
  8
taglio
100
AcDbCircle
 10
4178.198846167459
 20
1543.82960660245
 30
0.0
 40
0.5277089424045645
100
AcDbArc
 50
359.9999999995049
 51
135.1243153897889
  0
LINE
  5
2DB7
330
1F
100
AcDbEntity
  8
taglio
100
AcDbLine
 10
4174.004031691644
 20
1542.15693006555
 30
0.0
 11
4175.432603120214
 21
1542.15693006555
 31
0.0
  0
ARC
  5
2DB8
330
1F
100
AcDbEntity
  8
taglio
100
AcDbCircle
 10
4175.432603120214
 20
1543.014072922691
 30
0.0
 40
0.8571428571406292
100
AcDbArc
 50
270.0
 51
315.1243153897722
  0
LINE
  5
2DB9
330
1F
100
AcDbEntity
  8
taglio
100
AcDbLine
 10
3935.259744773633
 20
1528.444656636738
 30
0.0
 11
3935.259744773789
 21
1546.708846612298
 31
0.0
  0
LINE
  5
2DBA
330
1F
100
AcDbEntity
  8
taglio
100
AcDbLine
 10
3929.704189218469
 20
1545.893312933411
 30
0.0
 11
3929.704189218469
 21
1573.301799494744
 31
0.0
  0
ARC
  5
2DBB
330
1F
100
AcDbEntity
  8
taglio
100
AcDbCircle
 10
3930.561332075598
 20
1573.301799494744
 30
0.0
 40
0.8571428571286974
100
AcDbArc
 50
90.0
 51
180.0
  0
LINE
  5
2DBC
330
1F
100
AcDbEntity
  8
taglio
100
AcDbLine
 10
3935.259744774011
 20
1572.408543608622
 30
0.0
 11
3935.259744774167
 21
1590.295755443434
 31
0.0
  0
ARC
  5
2DBD
330
1F
100
AcDbEntity
  8
taglio
100
AcDbCircle
 10
3936.125005636948
 20
1590.295755443426
 30
0.0
 40
0.865260862780679
100
AcDbArc
 50
43.25892518168937
 51
179.9999999995017
  0
LINE
  5
2DBE
330
1F
100
AcDbEntity
  8
taglio
100
AcDbLine
 10
3935.259744774381
 20
1615.26568646562
 30
0.0
 11
3935.259744774496
 21
1628.44465663674
 31
0.0
  0
ARC
  5
2DBF
330
1F
100
AcDbEntity
  8
taglio
100
AcDbCircle
 10
3936.116887631305
 20
1615.265686465612
 30
0.0
 40
0.8571428569242788
100
AcDbArc
 50
179.9999999994984
 51
315.1243153897813
  0
LINE
  5
2DC0
330
1F
100
AcDbEntity
  8
taglio
100
AcDbLine
 10
3932.614129984866
 20
1573.889196445986
 30
0.0
 11
3934.347724286332
 21
1572.046906547388
 31
0.0
  0
ARC
  5
2DC1
330
1F
100
AcDbEntity
  8
taglio
100
AcDbCircle
 10
3934.732035831607
 20
1572.408543608626
 30
0.0
 40
0.5277089424045645
100
AcDbArc
 50
223.2589251817827
 51
359.9999999995261
  0
LINE
  5
2DC2
330
1F
100
AcDbEntity
  8
taglio
100
AcDbLine
 10
3930.561332075598
 20
1574.158942351872
 30
0.0
 11
3931.989903504168
 21
1574.158942351872
 31
0.0
  0
ARC
  5
2DC3
330
1F
100
AcDbEntity
  8
taglio
100
AcDbCircle
 10
3931.989903504168
 20
1573.301799494732
 30
0.0
 40
0.8571428571406292
100
AcDbArc
 50
43.25892518168937
 51
90.0
  0
LINE
  5
2DC4
330
1F
100
AcDbEntity
  8
taglio
100
AcDbLine
 10
3941.958157472403
 20
1589.548843992799
 30
0.0
 11
3941.958157472403
 21
1615.911897853815
 31
0.0
  0
ARC
  5
2DC5
330
1F
100
AcDbEntity
  8
taglio
100
AcDbCircle
 10
3940.853970117199
 20
1615.911897853815
 30
0.0
 40
1.104187355203521
100
AcDbArc
 50
0.0
 51
90.0
  0
LINE
  5
2DC6
330
1F
100
AcDbEntity
  8
taglio
100
AcDbLine
 10
3938.80117220795
 20
1588.714402543485
 30
0.0
 11
3936.755144170751
 21
1590.888715635071
 31
0.0
  0
ARC
  5
2DC7
330
1F
100
AcDbEntity
  8
taglio
100
AcDbCircle
 10
3939.425398688649
 20
1589.30179949474
 30
0.0
 40
0.8571428571428594
100
AcDbArc
 50
223.2589251816755
 51
270.0
  0
LINE
  5
2DC8
330
1F
100
AcDbEntity
  8
taglio
100
AcDbLine
 10
3940.853970117202
 20
1588.444656637598
 30
0.0
 11
3939.425398688649
 21
1588.444656637597
 31
0.0
  0
ARC
  5
2DC9
330
1F
100
AcDbEntity
  8
taglio
100
AcDbCircle
 10
3940.853970117202
 20
1589.548843992799
 30
0.0
 40
1.1041873552019
100
AcDbArc
 50
270.0
 51
0.0
  0
LINE
  5
2DCA
330
1F
100
AcDbEntity
  8
taglio
100
AcDbLine
 10
3938.817993544969
 20
1616.763717408392
 30
0.0
 11
3936.724292774798
 21
1614.660911409219
 31
0.0
  0
ARC
  5
2DCB
330
1F
100
AcDbEntity
  8
taglio
100
AcDbCircle
 10
3939.425398688615
 20
1616.158942351844
 30
0.0
 40
0.8571428571428594
100
AcDbArc
 50
90.0
 51
135.1243153897721
  0
LINE
  5
2DCC
330
1F
100
AcDbEntity
  8
taglio
100
AcDbLine
 10
3940.853970117199
 20
1617.016085209018
 30
0.0
 11
3939.425398688615
 21
1617.016085208987
 31
0.0
  0
ARC
  5
2DCD
330
1F
100
AcDbEntity
  8
taglio
100
AcDbCircle
 10
3930.53722135557
 20
1545.869202212519
 30
0.0
 40
0.833032137114969
100
AcDbArc
 50
180.0
 51
270.0
  0
LINE
  5
2DCE
330
1F
100
AcDbEntity
  8
taglio
100
AcDbLine
 10
3932.573197927786
 20
1545.288537875999
 30
0.0
 11
3934.35808051776
 21
1547.081182685368
 31
0.0
  0
ARC
  5
2DCF
330
1F
100
AcDbEntity
  8
taglio
100
AcDbCircle
 10
3934.732035831385
 20
1546.708846612304
 30
0.0
 40
0.5277089424045645
100
AcDbArc
 50
359.9999999995049
 51
135.1243153897894
  0
LINE
  5
2DD0
330
1F
100
AcDbEntity
  8
taglio
100
AcDbLine
 10
3930.53722135557
 20
1545.036170075404
 30
0.0
 11
3931.96579278414
 21
1545.036170075404
 31
0.0
  0
ARC
  5
2DD1
330
1F
100
AcDbEntity
  8
taglio
100
AcDbCircle
 10
3931.96579278414
 20
1545.893312932545
 30
0.0
 40
0.8571428571406292
100
AcDbArc
 50
270.0
 51
315.1243153897721
  0
LINE
  5
2DD2
330
1F
100
AcDbEntity
  8
taglio
100
AcDbLine
 10
4035.259744775631
 20
1628.444656635879
 30
0.0
 11
4035.25974477549
 21
1612.408543607039
 31
0.0
  0
LINE
  5
2DD3
330
1F
100
AcDbEntity
  8
taglio
100
AcDbLine
 10
4041.386728901736
 20
1613.845713396637
 30
0.0
 11
4041.386728901737
 21
1581.912640082928
 31
0.0
  0
ARC
  5
2DD4
330
1F
100
AcDbEntity
  8
taglio
100
AcDbCircle
 10
4040.62199493372
 20
1613.845713396637
 30
0.0
 40
0.7647339680156882
100
AcDbArc
 50
0.0
 51
90.0
  0
ARC
  5
2DD5
330
1F
100
AcDbEntity
  8
taglio
100
AcDbCircle
 10
4040.751202850025
 20
1581.912640082928
 30
0.0
 40
0.6355260517109781
100
AcDbArc
 50
270.0
 51
0.0
  0
LINE
  5
2DD6
330
1F
100
AcDbEntity
  8
taglio
100
AcDbLine
 10
4035.259744775234
 20
1582.57552113635
 30
0.0
 11
4035.259744775173
 21
1575.574899411089
 31
0.0
  0
ARC
  5
2DD7
330
1F
100
AcDbEntity
  8
taglio
100
AcDbCircle
 10
4034.50088040492
 20
1575.574899411096
 30
0.0
 40
0.7588643702538569
100
AcDbArc
 50
233.6455077364574
 51
359.9999999995049
  0
LINE
  5
2DD8
330
1F
100
AcDbEntity
  8
taglio
100
AcDbLine
 10
4035.259744774905
 20
1543.849709249458
 30
0.0
 11
4035.259744774767
 21
1528.444656635879
 31
0.0
  0
LINE
  5
2DD9
330
1F
100
AcDbEntity
  8
taglio
100
AcDbLine
 10
4038.822002170206
 20
1614.303637726894
 30
0.0
 11
4036.774023254728
 21
1611.858210388221
 31
0.0
  0
ARC
  5
2DDA
330
1F
100
AcDbEntity
  8
taglio
100
AcDbCircle
 10
4036.116887632634
 20
1612.408543607032
 30
0.0
 40
0.8571428571428594
100
AcDbArc
 50
179.9999999995049
 51
320.0547415556022
  0
LINE
  5
2DDB
330
1F
100
AcDbEntity
  8
taglio
100
AcDbLine
 10
4040.62199493372
 20
1614.610447364653
 30
0.0
 11
4039.479137791073
 21
1614.610447364653
 31
0.0
  0
LINE
  5
2DDC
330
1F
100
AcDbEntity
  8
taglio
100
AcDbLine
 10
4039.100249074588
 20
1581.44394414075
 30
0.0
 11
4036.624984265009
 21
1583.265833883979
 31
0.0
  0
ARC
  5
2DDD
330
1F
100
AcDbEntity
  8
taglio
100
AcDbCircle
 10
4036.116887632409
 20
1582.575521136342
 30
0.0
 40
0.8571428571756076
100
AcDbArc
 50
53.64550773645744
 51
179.9999999995049
  0
LINE
  5
2DDE
330
1F
100
AcDbEntity
  8
taglio
100
AcDbLine
 10
4040.751202850025
 20
1581.277114031216
 30
0.0
 11
4039.608345707168
 21
1581.277114031216
 31
0.0
  0
ARC
  5
2DDF
330
1F
100
AcDbEntity
  8
taglio
100
AcDbCircle
 10
4039.608345707168
 20
1582.134256888359
 30
0.0
 40
0.8571428571428594
100
AcDbArc
 50
233.6455077364992
 51
270.0
  0
LINE
  5
2DE0
330
1F
100
AcDbEntity
  8
taglio
100
AcDbLine
 10
4029.704189218928
 20
1575.837115035836
 30
0.0
 11
4029.704189218651
 21
1543.587513779383
 31
0.0
  0
LINE
  5
2DE1
330
1F
100
AcDbEntity
  8
taglio
100
AcDbLine
 10
4031.926571565773
 20
1576.527427783436
 30
0.0
 11
4034.051041235291
 21
1574.96373670452
 31
0.0
  0
ARC
  5
2DE2
330
1F
100
AcDbEntity
  8
taglio
100
AcDbCircle
 10
4031.418474933189
 20
1575.837115035821
 30
0.0
 40
0.8571428571505252
100
AcDbArc
 50
53.64550773645744
 51
90.0
  0
LINE
  5
2DE3
330
1F
100
AcDbEntity
  8
taglio
100
AcDbLine
 10
4030.561332076072
 20
1576.694257892971
 30
0.0
 11
4031.418474933189
 21
1576.694257892971
 31
0.0
  0
ARC
  5
2DE4
330
1F
100
AcDbEntity
  8
taglio
100
AcDbCircle
 10
4030.561332076072
 20
1575.837115035828
 30
0.0
 40
0.8571428571428594
100
AcDbArc
 50
90.0
 51
179.9999999995049
  0
ARC
  5
2DE5
330
1F
100
AcDbEntity
  8
taglio
100
AcDbCircle
 10
4039.479137791073
 20
1613.753304509111
 30
0.0
 40
0.8571428555423473
100
AcDbArc
 50
90.0
 51
140.0547415555812
  0
ARC
  5
2DE6
330
1F
100
AcDbEntity
  8
taglio
100
AcDbCircle
 10
4034.50088040492
 20
1543.84972940412
 30
0.0
 40
0.7588643702538569
100
AcDbArc
 50
0.0000000004689919
 51
126.3544922635008
  0
LINE
  5
2DE7
330
1F
100
AcDbEntity
  8
taglio
100
AcDbLine
 10
4031.926571565773
 20
1542.89720103178
 30
0.0
 11
4034.051041235291
 21
1544.460892110696
 31
0.0
  0
ARC
  5
2DE8
330
1F
100
AcDbEntity
  8
taglio
100
AcDbCircle
 10
4031.418474933189
 20
1543.587513779395
 30
0.0
 40
0.8571428571505252
100
AcDbArc
 50
270.0
 51
306.3544922635009
  0
LINE
  5
2DE9
330
1F
100
AcDbEntity
  8
taglio
100
AcDbLine
 10
4030.561332076072
 20
1542.730370922244
 30
0.0
 11
4031.418474933189
 21
1542.730370922244
 31
0.0
  0
ARC
  5
2DEA
330
1F
100
AcDbEntity
  8
taglio
100
AcDbCircle
 10
4030.561332076072
 20
1543.587513779388
 30
0.0
 40
0.8571428571428594
100
AcDbArc
 50
180.000000000469
 51
270.0
  0
LINE
  5
2DEB
330
1F
100
AcDbEntity
  8
taglio
100
AcDbLine
 10
4035.259744774772
 20
1528.444656634745
 30
0.0
 11
4016.995554799212
 21
1528.444656634902
 31
0.0
  0
LINE
  5
2DEC
330
1F
100
AcDbEntity
  8
taglio
100
AcDbLine
 10
4017.8110884781
 20
1522.88910107958
 30
0.0
 11
3990.402601916768
 21
1522.88910107958
 31
0.0
  0
ARC
  5
2DED
330
1F
100
AcDbEntity
  8
taglio
100
AcDbCircle
 10
3990.402601916768
 20
1523.74624393671
 30
0.0
 40
0.8571428571286974
100
AcDbArc
 50
180.0
 51
270.0
  0
LINE
  5
2DEE
330
1F
100
AcDbEntity
  8
taglio
100
AcDbLine
 10
3991.295857802889
 20
1528.444656635124
 30
0.0
 11
3973.408645968078
 21
1528.444656635278
 31
0.0
  0
ARC
  5
2DEF
330
1F
100
AcDbEntity
  8
taglio
100
AcDbCircle
 10
3973.408645968085
 20
1529.30991749806
 30
0.0
 40
0.865260862780679
100
AcDbArc
 50
133.2589251816945
 51
269.9999999994789
  0
LINE
  5
2DF0
330
1F
100
AcDbEntity
  8
taglio
100
AcDbLine
 10
3948.438714945891
 20
1528.444656635493
 30
0.0
 11
3935.25974477477
 21
1528.444656635608
 31
0.0
  0
ARC
  5
2DF1
330
1F
100
AcDbEntity
  8
taglio
100
AcDbCircle
 10
3948.438714945899
 20
1529.301799492418
 30
0.0
 40
0.8571428569242788
100
AcDbArc
 50
269.9999999994789
 51
45.12431538977269
  0
LINE
  5
2DF2
330
1F
100
AcDbEntity
  8
taglio
100
AcDbLine
 10
3989.815204965525
 20
1525.799041845978
 30
0.0
 11
3991.657494864123
 21
1527.532636147444
 31
0.0
  0
ARC
  5
2DF3
330
1F
100
AcDbEntity
  8
taglio
100
AcDbCircle
 10
3991.295857802884
 20
1527.916947692719
 30
0.0
 40
0.5277089424045645
100
AcDbArc
 50
313.2589251817873
 51
89.99999999953102
  0
LINE
  5
2DF4
330
1F
100
AcDbEntity
  8
taglio
100
AcDbLine
 10
3989.545459059639
 20
1523.74624393671
 30
0.0
 11
3989.545459059639
 21
1525.174815365279
 31
0.0
  0
ARC
  5
2DF5
330
1F
100
AcDbEntity
  8
taglio
100
AcDbCircle
 10
3990.402601916779
 20
1525.174815365279
 30
0.0
 40
0.8571428571406292
100
AcDbArc
 50
133.2589251816945
 51
180.0
  0
LINE
  5
2DF6
330
1F
100
AcDbEntity
  8
taglio
100
AcDbLine
 10
3974.155557418712
 20
1535.143069333515
 30
0.0
 11
3947.792503557696
 21
1535.143069333515
 31
0.0
  0
ARC
  5
2DF7
330
1F
100
AcDbEntity
  8
taglio
100
AcDbCircle
 10
3947.792503557696
 20
1534.038881978311
 30
0.0
 40
1.104187355203521
100
AcDbArc
 50
90.0
 51
180.0
  0
LINE
  5
2DF8
330
1F
100
AcDbEntity
  8
taglio
100
AcDbLine
 10
3974.989998868026
 20
1531.986084069062
 30
0.0
 11
3972.81568577644
 21
1529.940056031863
 31
0.0
  0
ARC
  5
2DF9
330
1F
100
AcDbEntity
  8
taglio
100
AcDbCircle
 10
3974.40260191677
 20
1532.610310549761
 30
0.0
 40
0.8571428571428594
100
AcDbArc
 50
313.2589251816577
 51
0.0
  0
LINE
  5
2DFA
330
1F
100
AcDbEntity
  8
taglio
100
AcDbLine
 10
3975.259744773913
 20
1534.038881978313
 30
0.0
 11
3975.259744773913
 21
1532.610310549761
 31
0.0
  0
ARC
  5
2DFB
330
1F
100
AcDbEntity
  8
taglio
100
AcDbCircle
 10
3974.155557418712
 20
1534.038881978313
 30
0.0
 40
1.1041873552019
100
AcDbArc
 50
0.0
 51
90.0
  0
LINE
  5
2DFC
330
1F
100
AcDbEntity
  8
taglio
100
AcDbLine
 10
3946.940684003119
 20
1532.00290540608
 30
0.0
 11
3949.043490002292
 21
1529.909204635909
 31
0.0
  0
ARC
  5
2DFD
330
1F
100
AcDbEntity
  8
taglio
100
AcDbCircle
 10
3947.545459059666
 20
1532.610310549726
 30
0.0
 40
0.8571428571428594
100
AcDbArc
 50
180.0
 51
225.1243153897727
  0
LINE
  5
2DFE
330
1F
100
AcDbEntity
  8
taglio
100
AcDbLine
 10
3946.688316202492
 20
1534.038881978311
 30
0.0
 11
3946.688316202523
 21
1532.610310549726
 31
0.0
  0
ARC
  5
2DFF
330
1F
100
AcDbEntity
  8
taglio
100
AcDbCircle
 10
4017.835199198992
 20
1523.722133216681
 30
0.0
 40
0.833032137114969
100
AcDbArc
 50
270.0
 51
0.0
  0
LINE
  5
2E00
330
1F
100
AcDbEntity
  8
taglio
100
AcDbLine
 10
4018.415863535511
 20
1525.758109788898
 30
0.0
 11
4016.623218726141
 21
1527.542992378871
 31
0.0
  0
ARC
  5
2E01
330
1F
100
AcDbEntity
  8
taglio
100
AcDbCircle
 10
4016.995554799206
 20
1527.916947692497
 30
0.0
 40
0.5277089424045645
100
AcDbArc
 50
89.9999999994789
 51
225.1243153897727
  0
LINE
  5
2E02
330
1F
100
AcDbEntity
  8
taglio
100
AcDbLine
 10
4018.668231336106
 20
1523.722133216681
 30
0.0
 11
4018.668231336106
 21
1525.150704645252
 31
0.0
  0
ARC
  5
2E03
330
1F
100
AcDbEntity
  8
taglio
100
AcDbCircle
 10
4017.811088478965
 20
1525.150704645252
 30
0.0
 40
0.8571428571406292
100
AcDbArc
 50
0.0
 51
45.12431538977269
  0
LINE
  5
2E04
330
1F
100
AcDbEntity
  8
taglio
100
AcDbLine
 10
3935.259744775633
 20
1628.444656636743
 30
0.0
 11
3951.295857804472
 21
1628.444656636603
 31
0.0
  0
LINE
  5
2E05
330
1F
100
AcDbEntity
  8
taglio
100
AcDbLine
 10
3949.858688014874
 20
1634.571640762848
 30
0.0
 11
3981.791761328583
 21
1634.571640762848
 31
0.0
  0
ARC
  5
2E06
330
1F
100
AcDbEntity
  8
taglio
100
AcDbCircle
 10
3949.858688014874
 20
1633.806906794833
 30
0.0
 40
0.7647339680156882
100
AcDbArc
 50
90.0
 51
180.0
  0
ARC
  5
2E07
330
1F
100
AcDbEntity
  8
taglio
100
AcDbCircle
 10
3981.791761328583
 20
1633.936114711138
 30
0.0
 40
0.6355260517109781
100
AcDbArc
 50
0.0
 51
90.0
  0
LINE
  5
2E08
330
1F
100
AcDbEntity
  8
taglio
100
AcDbLine
 10
3981.128880275161
 20
1628.444656636346
 30
0.0
 11
3988.129502000422
 21
1628.444656636284
 31
0.0
  0
ARC
  5
2E09
330
1F
100
AcDbEntity
  8
taglio
100
AcDbCircle
 10
3988.129502000415
 20
1627.685792266031
 30
0.0
 40
0.7588643702538569
100
AcDbArc
 50
323.6455077364425
 51
89.9999999994789
  0
LINE
  5
2E0A
330
1F
100
AcDbEntity
  8
taglio
100
AcDbLine
 10
4019.854692162053
 20
1628.444656636017
 30
0.0
 11
4035.259744775631
 21
1628.444656635879
 31
0.0
  0
LINE
  5
2E0B
330
1F
100
AcDbEntity
  8
taglio
100
AcDbLine
 10
3949.400763684617
 20
1632.006914031319
 30
0.0
 11
3951.846191023289
 21
1629.958935115839
 31
0.0
  0
ARC
  5
2E0C
330
1F
100
AcDbEntity
  8
taglio
100
AcDbCircle
 10
3951.295857804479
 20
1629.301799493745
 30
0.0
 40
0.8571428571428594
100
AcDbArc
 50
269.9999999994789
 51
50.05474155558167
  0
LINE
  5
2E0D
330
1F
100
AcDbEntity
  8
taglio
100
AcDbLine
 10
3949.093954046857
 20
1633.806906794833
 30
0.0
 11
3949.093954046857
 21
1632.664049652185
 31
0.0
  0
LINE
  5
2E0E
330
1F
100
AcDbEntity
  8
taglio
100
AcDbLine
 10
3982.260457270761
 20
1632.285160935701
 30
0.0
 11
3980.438567527532
 21
1629.80989612612
 31
0.0
  0
ARC
  5
2E0F
330
1F
100
AcDbEntity
  8
taglio
100
AcDbCircle
 10
3981.128880275168
 20
1629.301799493522
 30
0.0
 40
0.8571428571756076
100
AcDbArc
 50
143.6455077364426
 51
269.9999999994789
  0
LINE
  5
2E10
330
1F
100
AcDbEntity
  8
taglio
100
AcDbLine
 10
3982.427287380295
 20
1633.936114711138
 30
0.0
 11
3982.427287380295
 21
1632.793257568281
 31
0.0
  0
ARC
  5
2E11
330
1F
100
AcDbEntity
  8
taglio
100
AcDbCircle
 10
3981.570144523152
 20
1632.793257568281
 30
0.0
 40
0.8571428571428594
100
AcDbArc
 50
323.6455077365149
 51
0.0
  0
LINE
  5
2E12
330
1F
100
AcDbEntity
  8
taglio
100
AcDbLine
 10
3987.867286375676
 20
1622.88910108004
 30
0.0
 11
4020.116887632127
 21
1622.889101079762
 31
0.0
  0
LINE
  5
2E13
330
1F
100
AcDbEntity
  8
taglio
100
AcDbLine
 10
3987.176973628075
 20
1625.111483426885
 30
0.0
 11
3988.740664706991
 21
1627.235953096403
 31
0.0
  0
ARC
  5
2E14
330
1F
100
AcDbEntity
  8
taglio
100
AcDbCircle
 10
3987.86728637569
 20
1624.603386794301
 30
0.0
 40
0.8571428571505252
100
AcDbArc
 50
143.6455077364426
 51
180.0
  0
LINE
  5
2E15
330
1F
100
AcDbEntity
  8
taglio
100
AcDbLine
 10
3987.01014351854
 20
1623.746243937183
 30
0.0
 11
3987.01014351854
 21
1624.603386794301
 31
0.0
  0
ARC
  5
2E16
330
1F
100
AcDbEntity
  8
taglio
100
AcDbCircle
 10
3987.867286375683
 20
1623.746243937183
 30
0.0
 40
0.8571428571428594
100
AcDbArc
 50
180.0
 51
269.9999999994789
  0
ARC
  5
2E17
330
1F
100
AcDbEntity
  8
taglio
100
AcDbCircle
 10
3949.9510969024
 20
1632.664049652185
 30
0.0
 40
0.8571428555423473
100
AcDbArc
 50
180.0
 51
230.0547415555817
  0
ARC
  5
2E18
330
1F
100
AcDbEntity
  8
taglio
100
AcDbCircle
 10
4019.85467200739
 20
1627.685792266031
 30
0.0
 40
0.7588643702538569
100
AcDbArc
 50
90.00000000046897
 51
216.3544922634851
  0
LINE
  5
2E19
330
1F
100
AcDbEntity
  8
taglio
100
AcDbLine
 10
4020.807200379731
 20
1625.111483426885
 30
0.0
 11
4019.243509300815
 21
1627.235953096403
 31
0.0
  0
ARC
  5
2E1A
330
1F
100
AcDbEntity
  8
taglio
100
AcDbCircle
 10
4020.116887632116
 20
1624.603386794301
 30
0.0
 40
0.8571428571505252
100
AcDbArc
 50
0.0
 51
36.3544922634851
  0
LINE
  5
2E1B
330
1F
100
AcDbEntity
  8
taglio
100
AcDbLine
 10
4020.974030489266
 20
1623.746243937183
 30
0.0
 11
4020.974030489266
 21
1624.603386794301
 31
0.0
  0
ARC
  5
2E1C
330
1F
100
AcDbEntity
  8
taglio
100
AcDbCircle
 10
4020.116887632123
 20
1623.746243937183
 30
0.0
 40
0.8571428571428594
100
AcDbArc
 50
270.000000000469
 51
0.0
  0
LINE
  5
2E1D
330
1F
100
AcDbEntity
  8
taglio
100
AcDbLine
 10
4035.259744774498
 20
1756.352453140255
 30
0.0
 11
4016.995554798937
 21
1756.352453140411
 31
0.0
  0
LINE
  5
2E1E
330
1F
100
AcDbEntity
  8
taglio
100
AcDbLine
 10
4017.811088477824
 20
1750.79689758509
 30
0.0
 11
3990.402601916493
 21
1750.79689758509
 31
0.0
  0
ARC
  5
2E1F
330
1F
100
AcDbEntity
  8
taglio
100
AcDbCircle
 10
3990.402601916493
 20
1751.65404044222
 30
0.0
 40
0.8571428571286974
100
AcDbArc
 50
180.0
 51
270.0
  0
LINE
  5
2E20
330
1F
100
AcDbEntity
  8
taglio
100
AcDbLine
 10
3991.295857802614
 20
1756.352453140634
 30
0.0
 11
3973.408645967802
 21
1756.352453140788
 31
0.0
  0
ARC
  5
2E21
330
1F
100
AcDbEntity
  8
taglio
100
AcDbCircle
 10
3973.40864596781
 20
1757.21771400357
 30
0.0
 40
0.865260862780679
100
AcDbArc
 50
133.2589251816944
 51
269.9999999994789
  0
LINE
  5
2E22
330
1F
100
AcDbEntity
  8
taglio
100
AcDbLine
 10
3948.438714945616
 20
1756.352453141003
 30
0.0
 11
3935.259744774495
 21
1756.352453141117
 31
0.0
  0
ARC
  5
2E23
330
1F
100
AcDbEntity
  8
taglio
100
AcDbCircle
 10
3948.438714945623
 20
1757.209595997927
 30
0.0
 40
0.8571428569242788
100
AcDbArc
 50
269.9999999994789
 51
45.12431538977231
  0
LINE
  5
2E24
330
1F
100
AcDbEntity
  8
taglio
100
AcDbLine
 10
3989.81520496525
 20
1753.706838351488
 30
0.0
 11
3991.657494863847
 21
1755.440432652953
 31
0.0
  0
ARC
  5
2E25
330
1F
100
AcDbEntity
  8
taglio
100
AcDbCircle
 10
3991.295857802609
 20
1755.824744198228
 30
0.0
 40
0.5277089424045645
100
AcDbArc
 50
313.2589251817871
 51
89.99999999953102
  0
LINE
  5
2E26
330
1F
100
AcDbEntity
  8
taglio
100
AcDbLine
 10
3989.545459059364
 20
1751.65404044222
 30
0.0
 11
3989.545459059364
 21
1753.082611870789
 31
0.0
  0
ARC
  5
2E27
330
1F
100
AcDbEntity
  8
taglio
100
AcDbCircle
 10
3990.402601916504
 20
1753.082611870789
 30
0.0
 40
0.8571428571406292
100
AcDbArc
 50
133.2589251816944
 51
180.0
  0
LINE
  5
2E28
330
1F
100
AcDbEntity
  8
taglio
100
AcDbLine
 10
3974.155557418437
 20
1763.050865839025
 30
0.0
 11
3947.792503557421
 21
1763.050865839025
 31
0.0
  0
ARC
  5
2E29
330
1F
100
AcDbEntity
  8
taglio
100
AcDbCircle
 10
3947.792503557421
 20
1761.946678483821
 30
0.0
 40
1.104187355203521
100
AcDbArc
 50
90.0
 51
180.0
  0
LINE
  5
2E2A
330
1F
100
AcDbEntity
  8
taglio
100
AcDbLine
 10
3974.989998867751
 20
1759.893880574572
 30
0.0
 11
3972.815685776164
 21
1757.847852537373
 31
0.0
  0
ARC
  5
2E2B
330
1F
100
AcDbEntity
  8
taglio
100
AcDbCircle
 10
3974.402601916495
 20
1760.51810705527
 30
0.0
 40
0.8571428571428594
100
AcDbArc
 50
313.2589251816581
 51
0.0
  0
LINE
  5
2E2C
330
1F
100
AcDbEntity
  8
taglio
100
AcDbLine
 10
3975.259744773638
 20
1761.946678483823
 30
0.0
 11
3975.259744773638
 21
1760.51810705527
 31
0.0
  0
ARC
  5
2E2D
330
1F
100
AcDbEntity
  8
taglio
100
AcDbCircle
 10
3974.155557418437
 20
1761.946678483823
 30
0.0
 40
1.1041873552019
100
AcDbArc
 50
0.0
 51
90.0
  0
LINE
  5
2E2E
330
1F
100
AcDbEntity
  8
taglio
100
AcDbLine
 10
3946.940684002843
 20
1759.91070191159
 30
0.0
 11
3949.043490002016
 21
1757.817001141419
 31
0.0
  0
ARC
  5
2E2F
330
1F
100
AcDbEntity
  8
taglio
100
AcDbCircle
 10
3947.545459059391
 20
1760.518107055236
 30
0.0
 40
0.8571428571428594
100
AcDbArc
 50
180.0
 51
225.1243153897723
  0
LINE
  5
2E30
330
1F
100
AcDbEntity
  8
taglio
100
AcDbLine
 10
3946.688316202217
 20
1761.946678483821
 30
0.0
 11
3946.688316202248
 21
1760.518107055236
 31
0.0
  0
ARC
  5
2E31
330
1F
100
AcDbEntity
  8
taglio
100
AcDbCircle
 10
4017.835199198716
 20
1751.629929722191
 30
0.0
 40
0.833032137114969
100
AcDbArc
 50
270.0
 51
0.0
  0
LINE
  5
2E32
330
1F
100
AcDbEntity
  8
taglio
100
AcDbLine
 10
4018.415863535237
 20
1753.665906294408
 30
0.0
 11
4016.623218725866
 21
1755.450788884381
 31
0.0
  0
ARC
  5
2E33
330
1F
100
AcDbEntity
  8
taglio
100
AcDbCircle
 10
4016.99555479893
 20
1755.824744198006
 30
0.0
 40
0.5277089424045645
100
AcDbArc
 50
89.9999999994789
 51
225.1243153897723
  0
LINE
  5
2E34
330
1F
100
AcDbEntity
  8
taglio
100
AcDbLine
 10
4018.668231335832
 20
1751.629929722191
 30
0.0
 11
4018.668231335832
 21
1753.058501150762
 31
0.0
  0
ARC
  5
2E35
330
1F
100
AcDbEntity
  8
taglio
100
AcDbCircle
 10
4017.81108847869
 20
1753.058501150762
 30
0.0
 40
0.8571428571406292
100
AcDbArc
 50
0.0
 51
45.12431538977231
  0
LINE
  5
2E36
330
1F
100
AcDbEntity
  8
taglio
100
AcDbLine
 10
4178.726555110854
 20
1656.352453140253
 30
0.0
 11
4178.72655511101
 21
1674.616643115813
 31
0.0
  0
LINE
  5
2E37
330
1F
100
AcDbEntity
  8
taglio
100
AcDbLine
 10
4173.170999555689
 20
1673.801109436926
 30
0.0
 11
4173.170999555689
 21
1701.209595998258
 31
0.0
  0
ARC
  5
2E38
330
1F
100
AcDbEntity
  8
taglio
100
AcDbCircle
 10
4174.028142412819
 20
1701.209595998258
 30
0.0
 40
0.8571428571286974
100
AcDbArc
 50
90.0
 51
180.0
  0
LINE
  5
2E39
330
1F
100
AcDbEntity
  8
taglio
100
AcDbLine
 10
4178.726555111232
 20
1700.316340112136
 30
0.0
 11
4178.726555111388
 21
1718.203551946948
 31
0.0
  0
ARC
  5
2E3A
330
1F
100
AcDbEntity
  8
taglio
100
AcDbCircle
 10
4179.591815974169
 20
1718.203551946941
 30
0.0
 40
0.865260862780679
100
AcDbArc
 50
43.25892518168937
 51
179.9999999995017
  0
LINE
  5
2E3B
330
1F
100
AcDbEntity
  8
taglio
100
AcDbLine
 10
4178.726555111601
 20
1743.173482969134
 30
0.0
 11
4178.726555111717
 21
1756.352453140255
 31
0.0
  0
ARC
  5
2E3C
330
1F
100
AcDbEntity
  8
taglio
100
AcDbCircle
 10
4179.583697968526
 20
1743.173482969127
 30
0.0
 40
0.8571428569242788
100
AcDbArc
 50
179.9999999994984
 51
315.1243153897812
  0
LINE
  5
2E3D
330
1F
100
AcDbEntity
  8
taglio
100
AcDbLine
 10
4176.080940322087
 20
1701.7969929495
 30
0.0
 11
4177.814534623553
 21
1699.954703050902
 31
0.0
  0
ARC
  5
2E3E
330
1F
100
AcDbEntity
  8
taglio
100
AcDbCircle
 10
4178.198846168828
 20
1700.316340112141
 30
0.0
 40
0.5277089424045645
100
AcDbArc
 50
223.258925181783
 51
359.9999999995261
  0
LINE
  5
2E3F
330
1F
100
AcDbEntity
  8
taglio
100
AcDbLine
 10
4174.028142412819
 20
1702.066738855387
 30
0.0
 11
4175.456713841389
 21
1702.066738855387
 31
0.0
  0
ARC
  5
2E40
330
1F
100
AcDbEntity
  8
taglio
100
AcDbCircle
 10
4175.456713841389
 20
1701.209595998246
 30
0.0
 40
0.8571428571406292
100
AcDbArc
 50
43.25892518168913
 51
90.0
  0
LINE
  5
2E41
330
1F
100
AcDbEntity
  8
taglio
100
AcDbLine
 10
4185.424967809623
 20
1717.456640496314
 30
0.0
 11
4185.424967809623
 21
1743.819694357329
 31
0.0
  0
ARC
  5
2E42
330
1F
100
AcDbEntity
  8
taglio
100
AcDbCircle
 10
4184.32078045442
 20
1743.819694357329
 30
0.0
 40
1.104187355203521
100
AcDbArc
 50
0.0
 51
90.0
  0
LINE
  5
2E43
330
1F
100
AcDbEntity
  8
taglio
100
AcDbLine
 10
4182.26798254517
 20
1716.622199046999
 30
0.0
 11
4180.221954507972
 21
1718.796512138586
 31
0.0
  0
ARC
  5
2E44
330
1F
100
AcDbEntity
  8
taglio
100
AcDbCircle
 10
4182.89220902587
 20
1717.209595998255
 30
0.0
 40
0.8571428571428594
100
AcDbArc
 50
223.2589251816758
 51
270.0
  0
LINE
  5
2E45
330
1F
100
AcDbEntity
  8
taglio
100
AcDbLine
 10
4184.320780454423
 20
1716.352453141112
 30
0.0
 11
4182.89220902587
 21
1716.352453141112
 31
0.0
  0
ARC
  5
2E46
330
1F
100
AcDbEntity
  8
taglio
100
AcDbCircle
 10
4184.320780454423
 20
1717.456640496314
 30
0.0
 40
1.1041873552019
100
AcDbArc
 50
270.0
 51
0.0
  0
LINE
  5
2E47
330
1F
100
AcDbEntity
  8
taglio
100
AcDbLine
 10
4182.284803882189
 20
1744.671513911907
 30
0.0
 11
4180.191103112018
 21
1742.568707912734
 31
0.0
  0
ARC
  5
2E48
330
1F
100
AcDbEntity
  8
taglio
100
AcDbCircle
 10
4182.892209025836
 20
1744.066738855359
 30
0.0
 40
0.8571428571428594
100
AcDbArc
 50
90.0
 51
135.1243153897723
  0
LINE
  5
2E49
330
1F
100
AcDbEntity
  8
taglio
100
AcDbLine
 10
4184.32078045442
 20
1744.923881712533
 30
0.0
 11
4182.892209025836
 21
1744.923881712502
 31
0.0
  0
LINE
  5
2E4A
330
1F
100
AcDbEntity
  8
taglio
100
AcDbLine
 10
4078.726555110854
 20
1656.352453141117
 30
0.0
 11
4078.726555111011
 21
1674.616643116678
 31
0.0
  0
LINE
  5
2E4B
330
1F
100
AcDbEntity
  8
taglio
100
AcDbLine
 10
4073.170999555676
 20
1673.776998716897
 30
0.0
 11
4073.170999555677
 21
1701.209595998246
 31
0.0
  0
ARC
  5
2E4C
330
1F
100
AcDbEntity
  8
taglio
100
AcDbCircle
 10
4074.004031692791
 20
1673.776998716897
 30
0.0
 40
0.833032137114969
100
AcDbArc
 50
180.0
 51
270.0
  0
ARC
  5
2E4D
330
1F
100
AcDbEntity
  8
taglio
100
AcDbCircle
 10
4074.028142412817
 20
1701.209595998246
 30
0.0
 40
0.8571428571413006
100
AcDbArc
 50
90.0
 51
180.0
  0
LINE
  5
2E4E
330
1F
100
AcDbEntity
  8
taglio
100
AcDbLine
 10
4078.726555111233
 20
1700.316340112136
 30
0.0
 11
4078.726555111387
 21
1718.203551946935
 31
0.0
  0
ARC
  5
2E4F
330
1F
100
AcDbEntity
  8
taglio
100
AcDbCircle
 10
4079.591815974157
 20
1718.203551946927
 30
0.0
 40
0.8652608627693332
100
AcDbArc
 50
43.25892518168926
 51
179.9999999995017
  0
LINE
  5
2E50
330
1F
100
AcDbEntity
  8
taglio
100
AcDbLine
 10
4078.726555111602
 20
1743.173482969115
 30
0.0
 11
4078.726555111717
 21
1756.352453141117
 31
0.0
  0
ARC
  5
2E51
330
1F
100
AcDbEntity
  8
taglio
100
AcDbCircle
 10
4079.583697968546
 20
1743.173482969108
 30
0.0
 40
0.8571428569434278
100
AcDbArc
 50
179.9999999995147
 51
315.1243153897906
  0
LINE
  5
2E52
330
1F
100
AcDbEntity
  8
taglio
100
AcDbLine
 10
4076.040008265007
 20
1673.196334380377
 30
0.0
 11
4077.82489085498
 21
1674.988979189747
 31
0.0
  0
ARC
  5
2E53
330
1F
100
AcDbEntity
  8
taglio
100
AcDbCircle
 10
4078.198846168606
 20
1674.616643116683
 30
0.0
 40
0.5277089424045645
100
AcDbArc
 50
359.9999999995049
 51
135.1243153897904
  0
LINE
  5
2E54
330
1F
100
AcDbEntity
  8
taglio
100
AcDbLine
 10
4074.004031692791
 20
1672.943966579782
 30
0.0
 11
4075.432603121361
 21
1672.943966579783
 31
0.0
  0
ARC
  5
2E55
330
1F
100
AcDbEntity
  8
taglio
100
AcDbCircle
 10
4075.432603121361
 20
1673.801109436924
 30
0.0
 40
0.8571428571406292
100
AcDbArc
 50
270.0
 51
315.1243153897723
  0
LINE
  5
2E56
330
1F
100
AcDbEntity
  8
taglio
100
AcDbLine
 10
4076.080940322086
 20
1701.7969929495
 30
0.0
 11
4077.814534623552
 21
1699.954703050902
 31
0.0
  0
ARC
  5
2E57
330
1F
100
AcDbEntity
  8
taglio
100
AcDbCircle
 10
4078.198846168828
 20
1700.316340112141
 30
0.0
 40
0.5277089424045645
100
AcDbArc
 50
223.2589251816758
 51
359.9999999995049
  0
LINE
  5
2E58
330
1F
100
AcDbEntity
  8
taglio
100
AcDbLine
 10
4074.028142412817
 20
1702.066738855387
 30
0.0
 11
4075.456713841388
 21
1702.066738855387
 31
0.0
  0
ARC
  5
2E59
330
1F
100
AcDbEntity
  8
taglio
100
AcDbCircle
 10
4075.456713841388
 20
1701.209595998246
 30
0.0
 40
0.8571428571406292
100
AcDbArc
 50
43.25892518168913
 51
90.0
  0
LINE
  5
2E5A
330
1F
100
AcDbEntity
  8
taglio
100
AcDbLine
 10
4085.424967809628
 20
1717.456640496315
 30
0.0
 11
4085.424967809628
 21
1743.819694357344
 31
0.0
  0
ARC
  5
2E5B
330
1F
100
AcDbEntity
  8
taglio
100
AcDbCircle
 10
4084.320780454439
 20
1743.819694357344
 30
0.0
 40
1.104187355188514
100
AcDbArc
 50
0.0
 51
90.0
  0
LINE
  5
2E5C
330
1F
100
AcDbEntity
  8
taglio
100
AcDbLine
 10
4082.267982545154
 20
1716.622199046999
 30
0.0
 11
4080.221954507952
 21
1718.796512138564
 31
0.0
  0
ARC
  5
2E5D
330
1F
100
AcDbEntity
  8
taglio
100
AcDbCircle
 10
4082.892209025853
 20
1717.209595998255
 30
0.0
 40
0.8571428571428594
100
AcDbArc
 50
223.2589251816893
 51
270.0
  0
LINE
  5
2E5E
330
1F
100
AcDbEntity
  8
taglio
100
AcDbLine
 10
4084.320780454425
 20
1716.352453141112
 30
0.0
 11
4082.892209025853
 21
1716.352453141112
 31
0.0
  0
ARC
  5
2E5F
330
1F
100
AcDbEntity
  8
taglio
100
AcDbCircle
 10
4084.320780454425
 20
1717.456640496315
 30
0.0
 40
1.104187355202679
100
AcDbArc
 50
270.0
 51
0.0
  0
LINE
  5
2E60
330
1F
100
AcDbEntity
  8
taglio
100
AcDbLine
 10
4082.284803882254
 20
1744.671513911906
 30
0.0
 11
4080.191103112052
 21
1742.568707912701
 31
0.0
  0
ARC
  5
2E61
330
1F
100
AcDbEntity
  8
taglio
100
AcDbCircle
 10
4082.892209025901
 20
1744.066738855359
 30
0.0
 40
0.8571428571428594
100
AcDbArc
 50
90.0
 51
135.124315389777
  0
LINE
  5
2E62
330
1F
100
AcDbEntity
  8
taglio
100
AcDbLine
 10
4084.320780454439
 20
1744.923881712533
 30
0.0
 11
4082.892209025901
 21
1744.923881712502
 31
0.0
  0
ARC
  5
2E63
330
1F
100
AcDbEntity
  8
taglio
100
AcDbCircle
 10
4174.004031692791
 20
1673.776998716034
 30
0.0
 40
0.833032137114969
100
AcDbArc
 50
180.0
 51
270.0
  0
LINE
  5
2E64
330
1F
100
AcDbEntity
  8
taglio
100
AcDbLine
 10
4176.040008265006
 20
1673.196334379514
 30
0.0
 11
4177.824890854981
 21
1674.988979188883
 31
0.0
  0
ARC
  5
2E65
330
1F
100
AcDbEntity
  8
taglio
100
AcDbCircle
 10
4178.198846168606
 20
1674.616643115819
 30
0.0
 40
0.5277089424045645
100
AcDbArc
 50
359.9999999995049
 51
135.1243153897886
  0
LINE
  5
2E66
330
1F
100
AcDbEntity
  8
taglio
100
AcDbLine
 10
4174.004031692791
 20
1672.943966578919
 30
0.0
 11
4175.432603121361
 21
1672.943966578919
 31
0.0
  0
ARC
  5
2E67
330
1F
100
AcDbEntity
  8
taglio
100
AcDbCircle
 10
4175.432603121361
 20
1673.80110943606
 30
0.0
 40
0.8571428571406292
100
AcDbArc
 50
270.0
 51
315.1243153897723
  0
LINE
  5
2E68
330
1F
100
AcDbEntity
  8
taglio
100
AcDbLine
 10
3935.259744773633
 20
1656.352453141117
 30
0.0
 11
3935.259744773791
 21
1674.616643116679
 31
0.0
  0
LINE
  5
2E69
330
1F
100
AcDbEntity
  8
taglio
100
AcDbLine
 10
3929.704189218455
 20
1673.776998716898
 30
0.0
 11
3929.704189218456
 21
1701.209595998246
 31
0.0
  0
ARC
  5
2E6A
330
1F
100
AcDbEntity
  8
taglio
100
AcDbCircle
 10
3930.53722135557
 20
1673.776998716898
 30
0.0
 40
0.833032137114969
100
AcDbArc
 50
180.0
 51
270.0
  0
ARC
  5
2E6B
330
1F
100
AcDbEntity
  8
taglio
100
AcDbCircle
 10
3930.561332075597
 20
1701.209595998246
 30
0.0
 40
0.8571428571413006
100
AcDbArc
 50
90.0
 51
180.0
  0
LINE
  5
2E6C
330
1F
100
AcDbEntity
  8
taglio
100
AcDbLine
 10
3935.259744774011
 20
1700.316340112137
 30
0.0
 11
3935.259744774166
 21
1718.203551946935
 31
0.0
  0
ARC
  5
2E6D
330
1F
100
AcDbEntity
  8
taglio
100
AcDbCircle
 10
3936.125005636935
 20
1718.203551946928
 30
0.0
 40
0.8652608627693332
100
AcDbArc
 50
43.25892518168941
 51
179.9999999995017
  0
LINE
  5
2E6E
330
1F
100
AcDbEntity
  8
taglio
100
AcDbLine
 10
3935.259744774381
 20
1743.173482969115
 30
0.0
 11
3935.259744774495
 21
1756.352453141117
 31
0.0
  0
ARC
  5
2E6F
330
1F
100
AcDbEntity
  8
taglio
100
AcDbCircle
 10
3936.116887631325
 20
1743.173482969108
 30
0.0
 40
0.8571428569434278
100
AcDbArc
 50
179.9999999995147
 51
315.1243153897905
  0
LINE
  5
2E70
330
1F
100
AcDbEntity
  8
taglio
100
AcDbLine
 10
3932.573197927786
 20
1673.196334380378
 30
0.0
 11
3934.35808051776
 21
1674.988979189748
 31
0.0
  0
ARC
  5
2E71
330
1F
100
AcDbEntity
  8
taglio
100
AcDbCircle
 10
3934.732035831386
 20
1674.616643116683
 30
0.0
 40
0.5277089424045645
100
AcDbArc
 50
359.9999999995049
 51
135.1243153897904
  0
LINE
  5
2E72
330
1F
100
AcDbEntity
  8
taglio
100
AcDbLine
 10
3930.53722135557
 20
1672.943966579783
 30
0.0
 11
3931.96579278414
 21
1672.943966579783
 31
0.0
  0
ARC
  5
2E73
330
1F
100
AcDbEntity
  8
taglio
100
AcDbCircle
 10
3931.96579278414
 20
1673.801109436924
 30
0.0
 40
0.8571428571406292
100
AcDbArc
 50
270.0
 51
315.1243153897721
  0
LINE
  5
2E74
330
1F
100
AcDbEntity
  8
taglio
100
AcDbLine
 10
3932.614129984865
 20
1701.7969929495
 30
0.0
 11
3934.347724286331
 21
1699.954703050903
 31
0.0
  0
ARC
  5
2E75
330
1F
100
AcDbEntity
  8
taglio
100
AcDbCircle
 10
3934.732035831607
 20
1700.316340112141
 30
0.0
 40
0.5277089424045645
100
AcDbArc
 50
223.2589251816755
 51
359.9999999995049
  0
LINE
  5
2E76
330
1F
100
AcDbEntity
  8
taglio
100
AcDbLine
 10
3930.561332075597
 20
1702.066738855387
 30
0.0
 11
3931.989903504167
 21
1702.066738855387
 31
0.0
  0
ARC
  5
2E77
330
1F
100
AcDbEntity
  8
taglio
100
AcDbCircle
 10
3931.989903504167
 20
1701.209595998246
 30
0.0
 40
0.8571428571406292
100
AcDbArc
 50
43.25892518168933
 51
90.0
  0
LINE
  5
2E78
330
1F
100
AcDbEntity
  8
taglio
100
AcDbLine
 10
3941.958157472407
 20
1717.456640496315
 30
0.0
 11
3941.958157472407
 21
1743.819694357345
 31
0.0
  0
ARC
  5
2E79
330
1F
100
AcDbEntity
  8
taglio
100
AcDbCircle
 10
3940.853970117218
 20
1743.819694357345
 30
0.0
 40
1.104187355188514
100
AcDbArc
 50
0.0
 51
90.0
  0
LINE
  5
2E7A
330
1F
100
AcDbEntity
  8
taglio
100
AcDbLine
 10
3938.801172207933
 20
1716.622199047
 30
0.0
 11
3936.755144170732
 21
1718.796512138564
 31
0.0
  0
ARC
  5
2E7B
330
1F
100
AcDbEntity
  8
taglio
100
AcDbCircle
 10
3939.425398688633
 20
1717.209595998255
 30
0.0
 40
0.8571428571428594
100
AcDbArc
 50
223.2589251816894
 51
270.0
  0
LINE
  5
2E7C
330
1F
100
AcDbEntity
  8
taglio
100
AcDbLine
 10
3940.853970117204
 20
1716.352453141112
 30
0.0
 11
3939.425398688633
 21
1716.352453141112
 31
0.0
  0
ARC
  5
2E7D
330
1F
100
AcDbEntity
  8
taglio
100
AcDbCircle
 10
3940.853970117204
 20
1717.456640496315
 30
0.0
 40
1.104187355202679
100
AcDbArc
 50
270.0
 51
0.0
  0
LINE
  5
2E7E
330
1F
100
AcDbEntity
  8
taglio
100
AcDbLine
 10
3938.817993545033
 20
1744.671513911907
 30
0.0
 11
3936.72429277483
 21
1742.568707912701
 31
0.0
  0
ARC
  5
2E7F
330
1F
100
AcDbEntity
  8
taglio
100
AcDbCircle
 10
3939.42539868868
 20
1744.066738855359
 30
0.0
 40
0.8571428571428594
100
AcDbArc
 50
90.0
 51
135.1243153897767
  0
LINE
  5
2E80
330
1F
100
AcDbEntity
  8
taglio
100
AcDbLine
 10
3940.853970117218
 20
1744.923881712534
 30
0.0
 11
3939.42539868868
 21
1744.923881712502
 31
0.0
  0
LINE
  5
2E81
330
1F
100
AcDbEntity
  8
taglio
100
AcDbLine
 10
4035.259744776727
 20
1756.352453140255
 30
0.0
 11
4035.259744776587
 21
1740.316340111416
 31
0.0
  0
LINE
  5
2E82
330
1F
100
AcDbEntity
  8
taglio
100
AcDbLine
 10
4041.386728902831
 20
1741.753509901013
 30
0.0
 11
4041.386728902832
 21
1709.820436587304
 31
0.0
  0
ARC
  5
2E83
330
1F
100
AcDbEntity
  8
taglio
100
AcDbCircle
 10
4040.621994934816
 20
1741.753509901013
 30
0.0
 40
0.7647339680156882
100
AcDbArc
 50
0.0
 51
90.0
  0
ARC
  5
2E84
330
1F
100
AcDbEntity
  8
taglio
100
AcDbCircle
 10
4040.751202851121
 20
1709.820436587304
 30
0.0
 40
0.6355260517109781
100
AcDbArc
 50
270.0
 51
0.0
  0
LINE
  5
2E85
330
1F
100
AcDbEntity
  8
taglio
100
AcDbLine
 10
4035.259744776329
 20
1710.483317640726
 30
0.0
 11
4035.259744776269
 21
1703.482695915465
 31
0.0
  0
ARC
  5
2E86
330
1F
100
AcDbEntity
  8
taglio
100
AcDbCircle
 10
4034.500880406016
 20
1703.482695915472
 30
0.0
 40
0.7588643702538569
100
AcDbArc
 50
233.6455077364575
 51
359.9999999995049
  0
LINE
  5
2E87
330
1F
100
AcDbEntity
  8
taglio
100
AcDbLine
 10
4035.259744776001
 20
1671.757505753834
 30
0.0
 11
4035.259744775863
 21
1656.352453140256
 31
0.0
  0
LINE
  5
2E88
330
1F
100
AcDbEntity
  8
taglio
100
AcDbLine
 10
4038.822002171303
 20
1742.21143423127
 30
0.0
 11
4036.774023255824
 21
1739.766006892597
 31
0.0
  0
ARC
  5
2E89
330
1F
100
AcDbEntity
  8
taglio
100
AcDbCircle
 10
4036.11688763373
 20
1740.316340111408
 30
0.0
 40
0.8571428571428594
100
AcDbArc
 50
179.9999999995049
 51
320.0547415556024
  0
LINE
  5
2E8A
330
1F
100
AcDbEntity
  8
taglio
100
AcDbLine
 10
4040.621994934816
 20
1742.518243869029
 30
0.0
 11
4039.479137792169
 21
1742.518243869029
 31
0.0
  0
LINE
  5
2E8B
330
1F
100
AcDbEntity
  8
taglio
100
AcDbLine
 10
4039.100249075685
 20
1709.351740645126
 30
0.0
 11
4036.624984266104
 21
1711.173630388355
 31
0.0
  0
ARC
  5
2E8C
330
1F
100
AcDbEntity
  8
taglio
100
AcDbCircle
 10
4036.116887633506
 20
1710.483317640719
 30
0.0
 40
0.8571428571756076
100
AcDbArc
 50
53.64550773645756
 51
179.9999999995049
  0
LINE
  5
2E8D
330
1F
100
AcDbEntity
  8
taglio
100
AcDbLine
 10
4040.751202851121
 20
1709.184910535593
 30
0.0
 11
4039.608345708264
 21
1709.184910535593
 31
0.0
  0
ARC
  5
2E8E
330
1F
100
AcDbEntity
  8
taglio
100
AcDbCircle
 10
4039.608345708264
 20
1710.042053392735
 30
0.0
 40
0.8571428571428594
100
AcDbArc
 50
233.645507736499
 51
270.0
  0
LINE
  5
2E8F
330
1F
100
AcDbEntity
  8
taglio
100
AcDbLine
 10
4029.704189220025
 20
1703.744911540212
 30
0.0
 11
4029.704189219746
 21
1671.495310283759
 31
0.0
  0
LINE
  5
2E90
330
1F
100
AcDbEntity
  8
taglio
100
AcDbLine
 10
4031.926571566869
 20
1704.435224287813
 30
0.0
 11
4034.051041236387
 21
1702.871533208897
 31
0.0
  0
ARC
  5
2E91
330
1F
100
AcDbEntity
  8
taglio
100
AcDbCircle
 10
4031.418474934286
 20
1703.744911540197
 30
0.0
 40
0.8571428571505252
100
AcDbArc
 50
53.64550773645756
 51
90.0
  0
LINE
  5
2E92
330
1F
100
AcDbEntity
  8
taglio
100
AcDbLine
 10
4030.561332077168
 20
1704.602054397348
 30
0.0
 11
4031.418474934286
 21
1704.602054397348
 31
0.0
  0
ARC
  5
2E93
330
1F
100
AcDbEntity
  8
taglio
100
AcDbCircle
 10
4030.561332077168
 20
1703.744911540205
 30
0.0
 40
0.8571428571428594
100
AcDbArc
 50
90.0
 51
179.9999999995049
  0
ARC
  5
2E94
330
1F
100
AcDbEntity
  8
taglio
100
AcDbCircle
 10
4039.479137792169
 20
1741.661101013487
 30
0.0
 40
0.8571428555423473
100
AcDbArc
 50
90.0
 51
140.0547415555812
  0
ARC
  5
2E95
330
1F
100
AcDbEntity
  8
taglio
100
AcDbCircle
 10
4034.500880406016
 20
1671.757525908496
 30
0.0
 40
0.7588643702538569
100
AcDbArc
 50
0.0000000004689919
 51
126.3544922635009
  0
LINE
  5
2E96
330
1F
100
AcDbEntity
  8
taglio
100
AcDbLine
 10
4031.926571566869
 20
1670.804997536156
 30
0.0
 11
4034.051041236387
 21
1672.368688615072
 31
0.0
  0
ARC
  5
2E97
330
1F
100
AcDbEntity
  8
taglio
100
AcDbCircle
 10
4031.418474934286
 20
1671.495310283771
 30
0.0
 40
0.8571428571505252
100
AcDbArc
 50
270.0
 51
306.3544922635009
  0
LINE
  5
2E98
330
1F
100
AcDbEntity
  8
taglio
100
AcDbLine
 10
4030.561332077168
 20
1670.638167426621
 30
0.0
 11
4031.418474934286
 21
1670.638167426621
 31
0.0
  0
ARC
  5
2E99
330
1F
100
AcDbEntity
  8
taglio
100
AcDbCircle
 10
4030.561332077168
 20
1671.495310283764
 30
0.0
 40
0.8571428571428594
100
AcDbArc
 50
180.000000000469
 51
270.0
  0
LINE
  5
2E9A
330
1F
100
AcDbEntity
  8
taglio
100
AcDbLine
 10
3935.259744773633
 20
1656.352453141117
 30
0.0
 11
3951.295857802472
 21
1656.352453140977
 31
0.0
  0
LINE
  5
2E9B
330
1F
100
AcDbEntity
  8
taglio
100
AcDbLine
 10
3949.858688012875
 20
1662.479437267223
 30
0.0
 11
3981.791761326584
 21
1662.479437267223
 31
0.0
  0
ARC
  5
2E9C
330
1F
100
AcDbEntity
  8
taglio
100
AcDbCircle
 10
3949.858688012875
 20
1661.714703299207
 30
0.0
 40
0.7647339680156882
100
AcDbArc
 50
90.0
 51
180.0
  0
ARC
  5
2E9D
330
1F
100
AcDbEntity
  8
taglio
100
AcDbCircle
 10
3981.791761326584
 20
1661.843911215513
 30
0.0
 40
0.6355260517109781
100
AcDbArc
 50
0.0
 51
90.0
  0
LINE
  5
2E9E
330
1F
100
AcDbEntity
  8
taglio
100
AcDbLine
 10
3981.128880273162
 20
1656.35245314072
 30
0.0
 11
3988.129501998423
 21
1656.352453140659
 31
0.0
  0
ARC
  5
2E9F
330
1F
100
AcDbEntity
  8
taglio
100
AcDbCircle
 10
3988.129501998416
 20
1655.593588770406
 30
0.0
 40
0.7588643702538569
100
AcDbArc
 50
323.6455077364425
 51
89.9999999994789
  0
LINE
  5
2EA0
330
1F
100
AcDbEntity
  8
taglio
100
AcDbLine
 10
4019.854692160055
 20
1656.352453140392
 30
0.0
 11
4035.259744773632
 21
1656.352453140253
 31
0.0
  0
LINE
  5
2EA1
330
1F
100
AcDbEntity
  8
taglio
100
AcDbLine
 10
3949.400763682618
 20
1659.914710535694
 30
0.0
 11
3951.846191021291
 21
1657.866731620214
 31
0.0
  0
ARC
  5
2EA2
330
1F
100
AcDbEntity
  8
taglio
100
AcDbCircle
 10
3951.29585780248
 20
1657.20959599812
 30
0.0
 40
0.8571428571428594
100
AcDbArc
 50
269.9999999994789
 51
50.05474155558168
  0
LINE
  5
2EA3
330
1F
100
AcDbEntity
  8
taglio
100
AcDbLine
 10
3949.093954044858
 20
1661.714703299207
 30
0.0
 11
3949.093954044858
 21
1660.57184615656
 31
0.0
  0
LINE
  5
2EA4
330
1F
100
AcDbEntity
  8
taglio
100
AcDbLine
 10
3982.260457268762
 20
1660.192957440075
 30
0.0
 11
3980.438567525533
 21
1657.717692630495
 31
0.0
  0
ARC
  5
2EA5
330
1F
100
AcDbEntity
  8
taglio
100
AcDbCircle
 10
3981.12888027317
 20
1657.209595997897
 30
0.0
 40
0.8571428571756076
100
AcDbArc
 50
143.6455077364426
 51
269.9999999994789
  0
LINE
  5
2EA6
330
1F
100
AcDbEntity
  8
taglio
100
AcDbLine
 10
3982.427287378295
 20
1661.843911215513
 30
0.0
 11
3982.427287378295
 21
1660.701054072656
 31
0.0
  0
ARC
  5
2EA7
330
1F
100
AcDbEntity
  8
taglio
100
AcDbCircle
 10
3981.570144521153
 20
1660.701054072656
 30
0.0
 40
0.8571428571428594
100
AcDbArc
 50
323.6455077365148
 51
0.0
  0
LINE
  5
2EA8
330
1F
100
AcDbEntity
  8
taglio
100
AcDbLine
 10
3987.867286373676
 20
1650.796897584415
 30
0.0
 11
4020.116887630129
 21
1650.796897584136
 31
0.0
  0
LINE
  5
2EA9
330
1F
100
AcDbEntity
  8
taglio
100
AcDbLine
 10
3987.176973626075
 20
1653.01927993126
 30
0.0
 11
3988.740664704991
 21
1655.143749600777
 31
0.0
  0
ARC
  5
2EAA
330
1F
100
AcDbEntity
  8
taglio
100
AcDbCircle
 10
3987.867286373691
 20
1652.511183298675
 30
0.0
 40
0.8571428571505252
100
AcDbArc
 50
143.6455077364426
 51
180.0
  0
LINE
  5
2EAB
330
1F
100
AcDbEntity
  8
taglio
100
AcDbLine
 10
3987.01014351654
 20
1651.654040441558
 30
0.0
 11
3987.01014351654
 21
1652.511183298675
 31
0.0
  0
ARC
  5
2EAC
330
1F
100
AcDbEntity
  8
taglio
100
AcDbCircle
 10
3987.867286373683
 20
1651.654040441558
 30
0.0
 40
0.8571428571428594
100
AcDbArc
 50
180.0
 51
269.9999999994789
  0
ARC
  5
2EAD
330
1F
100
AcDbEntity
  8
taglio
100
AcDbCircle
 10
3949.951096900401
 20
1660.57184615656
 30
0.0
 40
0.8571428555423473
100
AcDbArc
 50
180.0
 51
230.0547415555817
  0
ARC
  5
2EAE
330
1F
100
AcDbEntity
  8
taglio
100
AcDbCircle
 10
4019.854672005391
 20
1655.593588770406
 30
0.0
 40
0.7588643702538569
100
AcDbArc
 50
90.00000000046897
 51
216.3544922634851
  0
LINE
  5
2EAF
330
1F
100
AcDbEntity
  8
taglio
100
AcDbLine
 10
4020.807200377731
 20
1653.01927993126
 30
0.0
 11
4019.243509298815
 21
1655.143749600777
 31
0.0
  0
ARC
  5
2EB0
330
1F
100
AcDbEntity
  8
taglio
100
AcDbCircle
 10
4020.116887630116
 20
1652.511183298675
 30
0.0
 40
0.8571428571505252
100
AcDbArc
 50
0.0
 51
36.35449226348514
  0
LINE
  5
2EB1
330
1F
100
AcDbEntity
  8
taglio
100
AcDbLine
 10
4020.974030487267
 20
1651.654040441558
 30
0.0
 11
4020.974030487267
 21
1652.511183298675
 31
0.0
  0
ARC
  5
2EB2
330
1F
100
AcDbEntity
  8
taglio
100
AcDbCircle
 10
4020.116887630123
 20
1651.654040441558
 30
0.0
 40
0.8571428571428594
100
AcDbArc
 50
270.000000000469
 51
0.0
  0
LINE
  5
2FF8
330
1F
100
AcDbEntity
  8
marcatura
100
AcDbLine
 10
3809.482003006174
 20
1594.232083293979
 30
0.0
 11
3909.68200300617
 21
1594.232083293978
 31
0.0
  0
LINE
  5
2FF9
330
1F
100
AcDbEntity
  8
marcatura
100
AcDbLine
 10
3809.482003006174
 20
1591.232083293979
 30
0.0
 11
3909.68200300617
 21
1591.232083293979
 31
0.0
  0
LINE
  5
2FFA
330
1F
100
AcDbEntity
  8
marcatura
100
AcDbLine
 10
3797.228034752222
 20
1556.898749960645
 30
0.0
 11
3897.428034752235
 21
1556.898749960645
 31
0.0
  0
LINE
  5
2FFB
330
1F
100
AcDbEntity
  8
marcatura
100
AcDbLine
 10
3797.228034752222
 20
1559.898749960645
 30
0.0
 11
3897.428034752235
 21
1559.898749960645
 31
0.0
  0
LINE
  5
301B
330
1F
100
AcDbEntity
  8
taglio
100
AcDbLine
 10
3818.288642920713
 20
1625.565416625297
 30
0.0
 11
3802.883590307135
 21
1625.565416625436
 31
0.0
  0
LINE
  5
3060
330
1F
100
AcDbEntity
  8
taglio
100
AcDbLine
 10
3802.783590308148
 20
1612.386446453793
 30
0.0
 11
3802.783590308262
 21
1625.665416625437
 31
0.0
  0
LINE
  5
3061
330
1F
100
AcDbEntity
  8
taglio
100
AcDbLine
 10
3818.288641991156
 20
1625.665416625367
 30
0.0
 11
3802.783590308262
 21
1625.665416625437
 31
0.0
  0
LINE
  5
307B
330
1F
100
AcDbEntity
  8
taglio
100
AcDbLine
 10
3902.9835903074
 20
1525.465416624932
 30
0.0
 11
3902.983590307562
 21
1544.356734731301
 31
0.0
  0
LINE
  5
307C
330
1F
100
AcDbEntity
  8
taglio
100
AcDbLine
 10
3897.428034752235
 20
1543.014072921604
 30
0.0
 11
3897.428034752235
 21
1570.422559482936
 31
0.0
  0
ARC
  5
307D
330
1F
100
AcDbEntity
  8
taglio
100
AcDbCircle
 10
3898.185177609378
 20
1543.014072921604
 30
0.0
 40
0.7571428571426623
100
AcDbArc
 50
180.0
 51
270.0
  0
ARC
  5
307E
330
1F
100
AcDbEntity
  8
taglio
100
AcDbCircle
 10
3898.185177609364
 20
1570.422559482936
 30
0.0
 40
0.7571428571286975
100
AcDbArc
 50
90.0
 51
180.0
  0
LINE
  5
307F
330
1F
100
AcDbEntity
  8
taglio
100
AcDbLine
 10
3902.98359030778
 20
1569.529303596814
 30
0.0
 11
3902.983590307933
 21
1587.416515431626
 31
0.0
  0
ARC
  5
3080
330
1F
100
AcDbEntity
  8
taglio
100
AcDbCircle
 10
3903.748851170714
 20
1587.416515431619
 30
0.0
 40
0.7652608627806791
100
AcDbArc
 50
43.25892518169152
 51
179.9999999995033
  0
LINE
  5
3081
330
1F
100
AcDbEntity
  8
taglio
100
AcDbLine
 10
3902.983590308148
 20
1612.386446453811
 30
0.0
 11
3902.983590308263
 21
1625.665416624934
 31
0.0
  0
ARC
  5
3082
330
1F
100
AcDbEntity
  8
taglio
100
AcDbCircle
 10
3903.740733165072
 20
1612.386446453804
 30
0.0
 40
0.757142856924279
100
AcDbArc
 50
179.9999999995131
 51
315.1243153897768
  0
LINE
  5
3083
330
1F
100
AcDbEntity
  8
taglio
100
AcDbLine
 10
3900.218918967663
 20
1542.559062303826
 30
0.0
 11
3901.854165509328
 21
1544.73396107766
 31
0.0
  0
ARC
  5
3084
330
1F
100
AcDbEntity
  8
taglio
100
AcDbCircle
 10
3902.355881365158
 20
1544.356734731306
 30
0.0
 40
0.6277089424045644
100
AcDbArc
 50
359.9999999995066
 51
143.0615014009843
  0
LINE
  5
3085
330
1F
100
AcDbEntity
  8
taglio
100
AcDbLine
 10
3898.185177609378
 20
1542.256930064461
 30
0.0
 11
3899.613749037948
 21
1542.256930064461
 31
0.0
  0
ARC
  5
3086
330
1F
100
AcDbEntity
  8
taglio
100
AcDbCircle
 10
3899.613749037948
 20
1543.014072921602
 30
0.0
 40
0.7571428571406292
100
AcDbArc
 50
270.0
 51
323.0615014009826
  0
LINE
  5
3087
330
1F
100
AcDbEntity
  8
taglio
100
AcDbLine
 10
3900.165149095883
 20
1570.941426789865
 30
0.0
 11
3901.898743397351
 21
1569.099136891268
 31
0.0
  0
ARC
  5
3088
330
1F
100
AcDbEntity
  8
taglio
100
AcDbCircle
 10
3902.355881365375
 20
1569.52930359682
 30
0.0
 40
0.6277089424045644
100
AcDbArc
 50
223.2589251816961
 51
359.9999999995066
  0
LINE
  5
3089
330
1F
100
AcDbEntity
  8
taglio
100
AcDbLine
 10
3898.185177609364
 20
1571.179702340065
 30
0.0
 11
3899.613749037934
 21
1571.179702340065
 31
0.0
  0
ARC
  5
308A
330
1F
100
AcDbEntity
  8
taglio
100
AcDbCircle
 10
3899.613749037934
 20
1570.422559482924
 30
0.0
 40
0.7571428571406292
100
AcDbArc
 50
43.25892518168923
 51
90.0
  0
LINE
  5
308B
330
1F
100
AcDbEntity
  8
taglio
100
AcDbLine
 10
3909.68200300617
 20
1586.669603980992
 30
0.0
 11
3909.682003006169
 21
1613.032657842008
 31
0.0
  0
ARC
  5
308C
330
1F
100
AcDbEntity
  8
taglio
100
AcDbCircle
 10
3908.477815650967
 20
1613.032657842008
 30
0.0
 40
1.204187355203521
100
AcDbArc
 50
0.0
 51
90.0
  0
LINE
  5
308D
330
1F
100
AcDbEntity
  8
taglio
100
AcDbLine
 10
3906.352191318968
 20
1585.766632887364
 30
0.0
 11
3904.30616328177
 21
1587.940945978951
 31
0.0
  0
ARC
  5
308E
330
1F
100
AcDbEntity
  8
taglio
100
AcDbCircle
 10
3907.049244222416
 20
1586.422559482933
 30
0.0
 40
0.9571428571428594
100
AcDbArc
 50
223.2589251816777
 51
270.0
  0
LINE
  5
308F
330
1F
100
AcDbEntity
  8
taglio
100
AcDbLine
 10
3908.477815650967
 20
1585.46541662579
 30
0.0
 11
3907.049244222416
 21
1585.46541662579
 31
0.0
  0
ARC
  5
3090
330
1F
100
AcDbEntity
  8
taglio
100
AcDbCircle
 10
3908.477815650968
 20
1586.669603980992
 30
0.0
 40
1.2041873552019
100
AcDbArc
 50
270.0
 51
0.0
  0
LINE
  5
3091
330
1F
100
AcDbEntity
  8
taglio
100
AcDbLine
 10
3906.370975145308
 20
1613.955034486515
 30
0.0
 11
3904.277274375139
 21
1611.852228487341
 31
0.0
  0
ARC
  5
3092
330
1F
100
AcDbEntity
  8
taglio
100
AcDbCircle
 10
3907.049244222381
 20
1613.279702340037
 30
0.0
 40
0.9571428571428594
100
AcDbArc
 50
90.0
 51
135.1243153897721
  0
LINE
  5
3093
330
1F
100
AcDbEntity
  8
taglio
100
AcDbLine
 10
3908.477815650967
 20
1614.236845197211
 30
0.0
 11
3907.049244222381
 21
1614.236845197179
 31
0.0
  0
LINE
  5
3094
330
1F
100
AcDbEntity
  8
taglio
100
AcDbLine
 10
3802.783590307399
 20
1525.465416625796
 30
0.0
 11
3802.783590307557
 21
1543.829606601357
 31
0.0
  0
LINE
  5
3095
330
1F
100
AcDbEntity
  8
taglio
100
AcDbLine
 10
3797.228034752222
 20
1542.989962201575
 30
0.0
 11
3797.228034752222
 21
1570.422559482923
 31
0.0
  0
ARC
  5
3096
330
1F
100
AcDbEntity
  8
taglio
100
AcDbCircle
 10
3798.161066889337
 20
1542.989962201575
 30
0.0
 40
0.9330321371149688
100
AcDbArc
 50
180.0
 51
270.0
  0
ARC
  5
3097
330
1F
100
AcDbEntity
  8
taglio
100
AcDbCircle
 10
3798.185177609364
 20
1570.422559482923
 30
0.0
 40
0.9571428571413006
100
AcDbArc
 50
90.0
 51
180.0
  0
LINE
  5
3098
330
1F
100
AcDbEntity
  8
taglio
100
AcDbLine
 10
3802.783590307778
 20
1569.529303596816
 30
0.0
 11
3802.783590307932
 21
1587.416515431613
 31
0.0
  0
ARC
  5
3099
330
1F
100
AcDbEntity
  8
taglio
100
AcDbCircle
 10
3803.748851170702
 20
1587.416515431605
 30
0.0
 40
0.9652608627693332
100
AcDbArc
 50
43.25892518168943
 51
179.9999999995033
  0
ARC
  5
309B
330
1F
100
AcDbEntity
  8
taglio
100
AcDbCircle
 10
3803.740733165091
 20
1612.386446453785
 30
0.0
 40
0.9571428569434278
100
AcDbArc
 50
179.9999999995131
 51
315.1243153897905
  0
LINE
  5
309C
330
1F
100
AcDbEntity
  8
taglio
100
AcDbLine
 10
3800.267907394978
 20
1542.338740775125
 30
0.0
 11
3802.052789984952
 21
1544.131385584494
 31
0.0
  0
ARC
  5
309D
330
1F
100
AcDbEntity
  8
taglio
100
AcDbCircle
 10
3802.355881365152
 20
1543.829606601361
 30
0.0
 40
0.4277089424045645
100
AcDbArc
 50
359.9999999995066
 51
135.1243153897883
  0
LINE
  5
309E
330
1F
100
AcDbEntity
  8
taglio
100
AcDbLine
 10
3798.161066889337
 20
1542.056930064461
 30
0.0
 11
3799.589638317907
 21
1542.056930064461
 31
0.0
  0
ARC
  5
309F
330
1F
100
AcDbEntity
  8
taglio
100
AcDbCircle
 10
3799.589638317907
 20
1543.014072921602
 30
0.0
 40
0.9571428571406292
100
AcDbArc
 50
270.0
 51
315.1243153897722
  0
LINE
  5
30A0
330
1F
100
AcDbEntity
  8
taglio
100
AcDbLine
 10
3800.31080194138
 20
1571.078486078492
 30
0.0
 11
3802.044396242846
 21
1569.236196179894
 31
0.0
  0
ARC
  5
30A1
330
1F
100
AcDbEntity
  8
taglio
100
AcDbCircle
 10
3802.355881365374
 20
1569.529303596819
 30
0.0
 40
0.4277089424045645
100
AcDbArc
 50
223.2589251816757
 51
359.9999999995066
  0
LINE
  5
30A2
330
1F
100
AcDbEntity
  8
taglio
100
AcDbLine
 10
3798.185177609364
 20
1571.379702340065
 30
0.0
 11
3799.613749037933
 21
1571.379702340065
 31
0.0
  0
ARC
  5
30A3
330
1F
100
AcDbEntity
  8
taglio
100
AcDbCircle
 10
3799.613749037933
 20
1570.422559482924
 30
0.0
 40
0.9571428571406292
100
AcDbArc
 50
43.25892518168923
 51
90.0
  0
LINE
  5
30A4
330
1F
100
AcDbEntity
  8
taglio
100
AcDbLine
 10
3809.482003006174
 20
1586.669603980993
 30
0.0
 11
3809.482003006174
 21
1613.032657842023
 31
0.0
  0
ARC
  5
30A5
330
1F
100
AcDbEntity
  8
taglio
100
AcDbCircle
 10
3808.477815650985
 20
1613.032657842023
 30
0.0
 40
1.004187355188514
100
AcDbArc
 50
0.0
 51
90.0
  0
LINE
  5
30A6
330
1F
100
AcDbEntity
  8
taglio
100
AcDbLine
 10
3806.497844164448
 20
1585.903692175991
 30
0.0
 11
3804.451816127246
 21
1588.078005267555
 31
0.0
  0
ARC
  5
30A7
330
1F
100
AcDbEntity
  8
taglio
100
AcDbCircle
 10
3807.0492442224
 20
1586.422559482933
 30
0.0
 40
0.7571428571428595
100
AcDbArc
 50
223.2589251816915
 51
270.0
  0
LINE
  5
30A8
330
1F
100
AcDbEntity
  8
taglio
100
AcDbLine
 10
3808.477815650972
 20
1585.66541662579
 30
0.0
 11
3807.0492442224
 21
1585.66541662579
 31
0.0
  0
ARC
  5
30A9
330
1F
100
AcDbEntity
  8
taglio
100
AcDbCircle
 10
3808.477815650971
 20
1586.669603980993
 30
0.0
 40
1.004187355202679
100
AcDbArc
 50
270.0
 51
0.0
  0
LINE
  5
30AA
330
1F
100
AcDbEntity
  8
taglio
100
AcDbLine
 10
3806.512703012225
 20
1613.813920306654
 30
0.0
 11
3804.419002242023
 21
1611.711114307448
 31
0.0
  0
ARC
  5
30AB
330
1F
100
AcDbEntity
  8
taglio
100
AcDbCircle
 10
3807.049244222446
 20
1613.279702340037
 30
0.0
 40
0.7571428571428595
100
AcDbArc
 50
90.0
 51
135.1243153897769
  0
LINE
  5
30AC
330
1F
100
AcDbEntity
  8
taglio
100
AcDbLine
 10
3808.477815650962
 20
1614.036845197211
 30
0.0
 11
3807.049244222446
 21
1614.036845197179
 31
0.0
  0
ARC
  5
30AD
330
1F
100
AcDbEntity
  8
taglio
100
AcDbCircle
 10
3818.026447450643
 20
1630.263829324132
 30
0.0
 40
0.9571428571428594
100
AcDbArc
 50
90.00000000046897
 51
180.0
  0
LINE
  5
30AE
330
1F
100
AcDbEntity
  8
taglio
100
AcDbLine
 10
3817.069304593501
 20
1630.263829324132
 30
0.0
 11
3817.069304593501
 21
1629.406686467014
 31
0.0
  0
ARC
  5
30AF
330
1F
100
AcDbEntity
  8
taglio
100
AcDbCircle
 10
3818.02644745065
 20
1629.406686467014
 30
0.0
 40
0.9571428571505252
100
AcDbArc
 50
180.0
 51
216.3544922635112
  0
LINE
  5
30B0
330
1F
100
AcDbEntity
  8
taglio
100
AcDbLine
 10
3817.255598215814
 20
1628.839311893962
 30
0.0
 11
3818.81928929473
 21
1626.714842224445
 31
0.0
  0
ARC
  5
30B1
330
1F
100
AcDbEntity
  8
taglio
100
AcDbCircle
 10
3818.288663075376
 20
1626.324280995283
 30
0.0
 40
0.6588643702538569
100
AcDbArc
 50
270.000000000469
 51
36.35449226351117
  0
LINE
  5
30B2
330
1F
100
AcDbEntity
  8
taglio
100
AcDbLine
 10
3850.276048707092
 20
1631.220972181274
 30
0.0
 11
3818.026447450643
 21
1631.220972181274
 31
0.0
  0
ARC
  5
30B3
330
1F
100
AcDbEntity
  8
taglio
100
AcDbCircle
 10
3850.276048707084
 20
1630.263829324132
 30
0.0
 40
0.9571428571428594
100
AcDbArc
 50
0.0
 51
89.99999999951798
  0
LINE
  5
30B4
330
1F
100
AcDbEntity
  8
taglio
100
AcDbLine
 10
3851.233191564227
 20
1630.263829324132
 30
0.0
 11
3851.233191564227
 21
1629.406686467014
 31
0.0
  0
ARC
  5
30B5
330
1F
100
AcDbEntity
  8
taglio
100
AcDbCircle
 10
3850.276048707076
 20
1629.406686467014
 30
0.0
 40
0.9571428571505252
100
AcDbArc
 50
323.6455077364765
 51
0.0
  0
LINE
  5
30B6
330
1F
100
AcDbEntity
  8
taglio
100
AcDbLine
 10
3851.046897941913
 20
1628.839311893963
 30
0.0
 11
3849.483206862997
 21
1626.714842224445
 31
0.0
  0
ARC
  5
30B7
330
1F
100
AcDbEntity
  8
taglio
100
AcDbCircle
 10
3850.013833082351
 20
1626.324280995283
 30
0.0
 40
0.6588643702538569
100
AcDbArc
 50
143.6455077364765
 51
269.999999999518
  0
LINE
  5
30B8
330
1F
100
AcDbEntity
  8
taglio
100
AcDbLine
 10
3857.014454807606
 20
1625.665416624969
 30
0.0
 11
3850.013833082345
 21
1625.665416625029
 31
0.0
  0
ARC
  5
30B9
330
1F
100
AcDbEntity
  8
taglio
100
AcDbCircle
 10
3857.014454807598
 20
1624.708273767793
 30
0.0
 40
0.9571428571756076
100
AcDbArc
 50
323.645507736477
 51
89.99999999951798
  0
LINE
  5
30BA
330
1F
100
AcDbEntity
  8
taglio
100
AcDbLine
 10
3855.963414299225
 20
1621.665634385146
 30
0.0
 11
3857.785304042455
 21
1624.140899194727
 31
0.0
  0
ARC
  5
30BB
330
1F
100
AcDbEntity
  8
taglio
100
AcDbCircle
 10
3856.573190559614
 20
1621.216815693034
 30
0.0
 40
0.7571428571428595
100
AcDbArc
 50
143.6455077364883
 51
180.0
  0
LINE
  5
30BC
330
1F
100
AcDbEntity
  8
taglio
100
AcDbLine
 10
3855.816047702472
 20
1620.073958550178
 30
0.0
 11
3855.816047702472
 21
1621.216815693033
 31
0.0
  0
ARC
  5
30BD
330
1F
100
AcDbEntity
  8
taglio
100
AcDbCircle
 10
3856.351573754183
 20
1620.073958550178
 30
0.0
 40
0.5355260517109781
100
AcDbArc
 50
180.0
 51
270.0
  0
LINE
  5
30BE
330
1F
100
AcDbEntity
  8
taglio
100
AcDbLine
 10
3888.284647067893
 20
1619.538432498467
 30
0.0
 11
3856.351573754183
 21
1619.538432498467
 31
0.0
  0
ARC
  5
30BF
330
1F
100
AcDbEntity
  8
taglio
100
AcDbCircle
 10
3888.284647067893
 20
1620.203166466482
 30
0.0
 40
0.6647339680156882
100
AcDbArc
 50
270.0
 51
0.0
  0
LINE
  5
30C0
330
1F
100
AcDbEntity
  8
taglio
100
AcDbLine
 10
3888.949381035909
 20
1620.203166466482
 30
0.0
 11
3888.949381035909
 21
1621.346023609129
 31
0.0
  0
ARC
  5
30C1
330
1F
100
AcDbEntity
  8
taglio
100
AcDbCircle
 10
3888.192238180366
 20
1621.346023609129
 30
0.0
 40
0.7571428555423473
100
AcDbArc
 50
0.0
 51
50.05474155559389
  0
LINE
  5
30C2
330
1F
100
AcDbEntity
  8
taglio
100
AcDbLine
 10
3888.678365855954
 20
1621.926493407419
 30
0.0
 11
3886.232938517283
 21
1623.974472322897
 31
0.0
  0
ARC
  5
30C3
330
1F
100
AcDbEntity
  8
taglio
100
AcDbCircle
 10
3886.847477278287
 20
1624.708273767569
 30
0.0
 40
0.9571428571428594
100
AcDbArc
 50
89.99999999951798
 51
230.054741555598
  0
LINE
  5
30C4
330
1F
100
AcDbEntity
  8
taglio
100
AcDbLine
 10
3902.983590308263
 20
1625.66541662457
 30
0.0
 11
3886.847477278296
 21
1625.665416624712
 31
0.0
  0
LINE
  5
30C5
330
1F
100
AcDbEntity
  8
taglio
100
AcDbLine
 10
3818.288663074475
 20
1525.465416625027
 30
0.0
 11
3802.783590307399
 21
1525.465416625796
 31
0.0
  0
ARC
  5
30C6
330
1F
100
AcDbEntity
  8
taglio
100
AcDbCircle
 10
3818.288663074513
 20
1526.324280995281
 30
0.0
 40
0.8588643702538568
100
AcDbArc
 50
270.000000000469
 51
36.35449226351122
  0
LINE
  5
30C7
330
1F
100
AcDbEntity
  8
taglio
100
AcDbLine
 10
3817.416671189393
 20
1528.957867774895
 30
0.0
 11
3818.980362268309
 21
1526.833398105378
 31
0.0
  0
LINE
  5
30C8
330
1F
100
AcDbEntity
  8
taglio
100
AcDbLine
 10
3850.276048705873
 20
1531.020972181272
 30
0.0
 11
3818.026447449773
 21
1531.020972181272
 31
0.0
  0
ARC
  5
30C9
330
1F
100
AcDbEntity
  8
taglio
100
AcDbCircle
 10
3818.02644744978
 20
1530.263829324129
 30
0.0
 40
0.7571428571428595
100
AcDbArc
 50
90.00000000046897
 51
180.0
  0
LINE
  5
30CA
330
1F
100
AcDbEntity
  8
taglio
100
AcDbLine
 10
3817.269304592637
 20
1530.263829324129
 30
0.0
 11
3817.269304592637
 21
1529.406686467013
 31
0.0
  0
ARC
  5
30CB
330
1F
100
AcDbEntity
  8
taglio
100
AcDbCircle
 10
3818.026447449788
 20
1529.406686467012
 30
0.0
 40
0.7571428571505253
100
AcDbArc
 50
180.0
 51
216.3544922635113
  0
ARC
  5
30CC
330
1F
100
AcDbEntity
  8
taglio
100
AcDbCircle
 10
3850.27604870622
 20
1530.263829324129
 30
0.0
 40
0.7571428571428595
100
AcDbArc
 50
0.0
 51
89.99999999951798
  0
LINE
  5
30CD
330
1F
100
AcDbEntity
  8
taglio
100
AcDbLine
 10
3851.033191563363
 20
1530.263829324129
 30
0.0
 11
3851.033191563363
 21
1529.406686467012
 31
0.0
  0
ARC
  5
30CE
330
1F
100
AcDbEntity
  8
taglio
100
AcDbCircle
 10
3850.276048706213
 20
1529.406686467012
 30
0.0
 40
0.7571428571505253
100
AcDbArc
 50
323.6455077364765
 51
0.0
  0
LINE
  5
30CF
330
1F
100
AcDbEntity
  8
taglio
100
AcDbLine
 10
3850.885824966608
 20
1528.957867774895
 30
0.0
 11
3849.322133887691
 21
1526.833398105378
 31
0.0
  0
ARC
  5
30D0
330
1F
100
AcDbEntity
  8
taglio
100
AcDbCircle
 10
3850.013833081488
 20
1526.324280995281
 30
0.0
 40
0.8588643702538568
100
AcDbArc
 50
143.6455077364765
 51
269.999999999518
  0
LINE
  5
30D1
330
1F
100
AcDbEntity
  8
taglio
100
AcDbLine
 10
3857.014454806741
 20
1525.465416624967
 30
0.0
 11
3850.013833081481
 21
1525.465416625027
 31
0.0
  0
ARC
  5
30D2
330
1F
100
AcDbEntity
  8
taglio
100
AcDbCircle
 10
3857.014454806735
 20
1524.708273767791
 30
0.0
 40
0.7571428571756078
100
AcDbArc
 50
323.645507736477
 51
89.99999999951798
  0
LINE
  5
30D3
330
1F
100
AcDbEntity
  8
taglio
100
AcDbLine
 10
3855.802341323921
 20
1521.784190266079
 30
0.0
 11
3857.62423106715
 21
1524.25945507566
 31
0.0
  0
ARC
  5
30D4
330
1F
100
AcDbEntity
  8
taglio
100
AcDbCircle
 10
3856.573190558751
 20
1521.216815693032
 30
0.0
 40
0.9571428571428594
100
AcDbArc
 50
143.6455077364884
 51
180.0
  0
LINE
  5
30D5
330
1F
100
AcDbEntity
  8
taglio
100
AcDbLine
 10
3855.616047701609
 20
1520.073958550174
 30
0.0
 11
3855.616047701608
 21
1521.216815693031
 31
0.0
  0
ARC
  5
30D6
330
1F
100
AcDbEntity
  8
taglio
100
AcDbCircle
 10
3856.35157375332
 20
1520.073958550175
 30
0.0
 40
0.735526051710978
100
AcDbArc
 50
180.0
 51
270.0
  0
LINE
  5
30D7
330
1F
100
AcDbEntity
  8
taglio
100
AcDbLine
 10
3888.28464706703
 20
1519.338432498464
 30
0.0
 11
3856.35157375332
 21
1519.338432498464
 31
0.0
  0
ARC
  5
30D8
330
1F
100
AcDbEntity
  8
taglio
100
AcDbCircle
 10
3888.192238179503
 20
1521.346023609127
 30
0.0
 40
0.9571428555423471
100
AcDbArc
 50
0.0
 51
50.05474155559392
  0
LINE
  5
30D9
330
1F
100
AcDbEntity
  8
taglio
100
AcDbLine
 10
3889.149381035045
 20
1520.20316646648
 30
0.0
 11
3889.149381035045
 21
1521.346023609127
 31
0.0
  0
ARC
  5
30DA
330
1F
100
AcDbEntity
  8
taglio
100
AcDbCircle
 10
3888.28464706703
 20
1520.20316646648
 30
0.0
 40
0.864733968015688
100
AcDbArc
 50
270.0
 51
0.0
  0
LINE
  5
30DB
330
1F
100
AcDbEntity
  8
taglio
100
AcDbLine
 10
3888.80677693948
 20
1522.079825052572
 30
0.0
 11
3886.361349600809
 21
1524.127803968051
 31
0.0
  0
ARC
  5
30DC
330
1F
100
AcDbEntity
  8
taglio
100
AcDbCircle
 10
3886.847477277424
 20
1524.708273767567
 30
0.0
 40
0.7571428571428595
100
AcDbArc
 50
89.99999999951798
 51
230.0547415555981
  0
LINE
  5
30DD
330
1F
100
AcDbEntity
  8
taglio
100
AcDbLine
 10
3902.9835903074
 20
1525.465416624932
 30
0.0
 11
3886.847477277431
 21
1525.46541662471
 31
0.0
  0
LINE
  5
3113
330
1F
100
AcDbEntity
  8
taglio
100
AcDbLine
 10
3911.038471635512
 20
1656.252453140254
 30
0.0
 11
3894.902358605544
 21
1656.252453140031
 31
0.0
  0
LINE
  5
3114
330
1F
100
AcDbEntity
  8
taglio
100
AcDbLine
 10
3896.339528395142
 20
1650.125469013786
 30
0.0
 11
3864.406455081433
 21
1650.125469013786
 31
0.0
  0
ARC
  5
3115
330
1F
100
AcDbEntity
  8
taglio
100
AcDbCircle
 10
3896.339528395142
 20
1650.990202981802
 30
0.0
 40
0.864733968015688
100
AcDbArc
 50
270.0
 51
0.0
  0
ARC
  5
3116
330
1F
100
AcDbEntity
  8
taglio
100
AcDbCircle
 10
3864.406455081433
 20
1650.860995065497
 30
0.0
 40
0.735526051710978
100
AcDbArc
 50
180.0
 51
270.0
  0
LINE
  5
3117
330
1F
100
AcDbEntity
  8
taglio
100
AcDbLine
 10
3865.069336134854
 20
1656.252453140288
 30
0.0
 11
3858.068714409593
 21
1656.252453140349
 31
0.0
  0
ARC
  5
3118
330
1F
100
AcDbEntity
  8
taglio
100
AcDbCircle
 10
3858.068714409601
 20
1657.111317510603
 30
0.0
 40
0.8588643702538568
100
AcDbArc
 50
143.645507736477
 51
269.999999999518
  0
LINE
  5
3119
330
1F
100
AcDbEntity
  8
taglio
100
AcDbLine
 10
3826.343544402588
 20
1656.252453140349
 30
0.0
 11
3810.838471635511
 21
1656.252453141117
 31
0.0
  0
LINE
  5
311A
330
1F
100
AcDbEntity
  8
taglio
100
AcDbLine
 10
3896.861658267593
 20
1652.866861567894
 30
0.0
 11
3894.416230928921
 21
1654.914840483372
 31
0.0
  0
ARC
  5
311B
330
1F
100
AcDbEntity
  8
taglio
100
AcDbCircle
 10
3894.902358605537
 20
1655.495310282889
 30
0.0
 40
0.7571428571428595
100
AcDbArc
 50
89.99999999951798
 51
230.0547415555984
  0
LINE
  5
311C
330
1F
100
AcDbEntity
  8
taglio
100
AcDbLine
 10
3897.204262363157
 20
1650.990202981802
 30
0.0
 11
3897.204262363158
 21
1652.133060124449
 31
0.0
  0
LINE
  5
311D
330
1F
100
AcDbEntity
  8
taglio
100
AcDbLine
 10
3863.857222652033
 20
1652.571226781401
 30
0.0
 11
3865.679112395262
 21
1655.046491590981
 31
0.0
  0
ARC
  5
311E
330
1F
100
AcDbEntity
  8
taglio
100
AcDbCircle
 10
3865.069336134848
 20
1655.495310283113
 30
0.0
 40
0.7571428571756078
100
AcDbArc
 50
323.6455077364771
 51
89.99999999951798
  0
LINE
  5
311F
330
1F
100
AcDbEntity
  8
taglio
100
AcDbLine
 10
3863.670929029721
 20
1650.860995065496
 30
0.0
 11
3863.670929029721
 21
1652.003852208353
 31
0.0
  0
ARC
  5
3120
330
1F
100
AcDbEntity
  8
taglio
100
AcDbCircle
 10
3864.628071886863
 20
1652.003852208354
 30
0.0
 40
0.9571428571428594
100
AcDbArc
 50
143.645507736489
 51
180.0
  0
LINE
  5
3121
330
1F
100
AcDbEntity
  8
taglio
100
AcDbLine
 10
3858.330930033986
 20
1661.808008696594
 30
0.0
 11
3826.081328777886
 21
1661.808008696594
 31
0.0
  0
LINE
  5
3122
330
1F
100
AcDbEntity
  8
taglio
100
AcDbLine
 10
3858.94070629472
 20
1659.744904290217
 30
0.0
 11
3857.377015215804
 21
1657.6204346207
 31
0.0
  0
ARC
  5
3123
330
1F
100
AcDbEntity
  8
taglio
100
AcDbCircle
 10
3858.330930034326
 20
1660.193722982334
 30
0.0
 40
0.7571428571505253
100
AcDbArc
 50
323.645507736477
 51
0.0
  0
LINE
  5
3124
330
1F
100
AcDbEntity
  8
taglio
100
AcDbLine
 10
3859.088072891476
 20
1661.050865839451
 30
0.0
 11
3859.088072891476
 21
1660.193722982334
 31
0.0
  0
ARC
  5
3125
330
1F
100
AcDbEntity
  8
taglio
100
AcDbCircle
 10
3858.330930034333
 20
1661.050865839451
 30
0.0
 40
0.7571428571428595
100
AcDbArc
 50
0.0
 51
89.99999999951798
  0
ARC
  5
3126
330
1F
100
AcDbEntity
  8
taglio
100
AcDbCircle
 10
3896.247119507616
 20
1652.133060124449
 30
0.0
 40
0.9571428555423471
100
AcDbArc
 50
0.0
 51
50.05474155559387
  0
ARC
  5
3127
330
1F
100
AcDbEntity
  8
taglio
100
AcDbCircle
 10
3826.343544402625
 20
1657.111317510603
 30
0.0
 40
0.8588643702538568
100
AcDbArc
 50
270.000000000469
 51
36.35449226351084
  0
LINE
  5
3128
330
1F
100
AcDbEntity
  8
taglio
100
AcDbLine
 10
3825.471552517505
 20
1659.744904290217
 30
0.0
 11
3827.035243596422
 21
1657.620434620699
 31
0.0
  0
ARC
  5
3129
330
1F
100
AcDbEntity
  8
taglio
100
AcDbCircle
 10
3826.081328777899
 20
1660.193722982334
 30
0.0
 40
0.7571428571505253
100
AcDbArc
 50
180.0
 51
216.3544922635109
  0
LINE
  5
312A
330
1F
100
AcDbEntity
  8
taglio
100
AcDbLine
 10
3825.32418592075
 20
1661.050865839451
 30
0.0
 11
3825.324185920749
 21
1660.193722982335
 31
0.0
  0
ARC
  5
312B
330
1F
100
AcDbEntity
  8
taglio
100
AcDbCircle
 10
3826.081328777892
 20
1661.050865839451
 30
0.0
 40
0.7571428571428595
100
AcDbArc
 50
90.00000000046897
 51
180.0
  0
LINE
  5
3145
330
1F
100
AcDbEntity
  8
taglio
100
AcDbLine
 10
3911.038471636934
 20
1756.452453140256
 30
0.0
 11
3911.038471637156
 21
1740.316340110289
 31
0.0
  0
LINE
  5
3146
330
1F
100
AcDbEntity
  8
taglio
100
AcDbLine
 10
3917.165455763401
 20
1741.753509899887
 30
0.0
 11
3917.165455763401
 21
1709.820436586177
 31
0.0
  0
ARC
  5
3147
330
1F
100
AcDbEntity
  8
taglio
100
AcDbCircle
 10
3916.300721795386
 20
1741.753509899887
 30
0.0
 40
0.864733968015688
100
AcDbArc
 50
0.0
 51
90.0
  0
ARC
  5
3148
330
1F
100
AcDbEntity
  8
taglio
100
AcDbCircle
 10
3916.429929711691
 20
1709.820436586177
 30
0.0
 40
0.735526051710978
100
AcDbArc
 50
270.0
 51
0.0
  0
LINE
  5
3149
330
1F
100
AcDbEntity
  8
taglio
100
AcDbLine
 10
3911.0384716369
 20
1710.483317639598
 30
0.0
 11
3911.038471636839
 21
1703.482695914338
 31
0.0
  0
ARC
  5
314A
330
1F
100
AcDbEntity
  8
taglio
100
AcDbCircle
 10
3910.179607266585
 20
1703.482695914345
 30
0.0
 40
0.8588643702538568
100
AcDbArc
 50
233.6455077364571
 51
359.999999999518
  0
LINE
  5
314B
330
1F
100
AcDbEntity
  8
taglio
100
AcDbLine
 10
3911.038471636839
 20
1671.757525907332
 30
0.0
 11
3911.03847163607
 21
1656.252453140256
 31
0.0
  0
LINE
  5
314C
330
1F
100
AcDbEntity
  8
taglio
100
AcDbLine
 10
3914.424063209294
 20
1742.275639772337
 30
0.0
 11
3912.376084293816
 21
1739.830212433666
 31
0.0
  0
ARC
  5
314D
330
1F
100
AcDbEntity
  8
taglio
100
AcDbCircle
 10
3911.795614494299
 20
1740.316340110282
 30
0.0
 40
0.7571428571428595
100
AcDbArc
 50
179.9999999995179
 51
320.0547415555918
  0
LINE
  5
314E
330
1F
100
AcDbEntity
  8
taglio
100
AcDbLine
 10
3916.300721795386
 20
1742.618243867902
 30
0.0
 11
3915.157864652739
 21
1742.618243867903
 31
0.0
  0
LINE
  5
314F
330
1F
100
AcDbEntity
  8
taglio
100
AcDbLine
 10
3914.719697995787
 20
1709.271204156777
 30
0.0
 11
3912.244433186206
 21
1711.093093900007
 31
0.0
  0
ARC
  5
3150
330
1F
100
AcDbEntity
  8
taglio
100
AcDbCircle
 10
3911.795614494075
 20
1710.483317639592
 30
0.0
 40
0.7571428571756078
100
AcDbArc
 50
53.64550773645668
 51
179.9999999995179
  0
LINE
  5
3151
330
1F
100
AcDbEntity
  8
taglio
100
AcDbLine
 10
3916.429929711692
 20
1709.084910534466
 30
0.0
 11
3915.287072568835
 21
1709.084910534465
 31
0.0
  0
ARC
  5
3152
330
1F
100
AcDbEntity
  8
taglio
100
AcDbCircle
 10
3915.287072568834
 20
1710.042053391608
 30
0.0
 40
0.9571428571428594
100
AcDbArc
 50
233.6455077365068
 51
270.0
  0
LINE
  5
3153
330
1F
100
AcDbEntity
  8
taglio
100
AcDbLine
 10
3905.482916080594
 20
1703.74491153873
 30
0.0
 11
3905.482916080594
 21
1671.495310282631
 31
0.0
  0
LINE
  5
3154
330
1F
100
AcDbEntity
  8
taglio
100
AcDbLine
 10
3907.546020486972
 20
1704.354687799465
 30
0.0
 11
3909.670490156488
 21
1702.790996720549
 31
0.0
  0
ARC
  5
3155
330
1F
100
AcDbEntity
  8
taglio
100
AcDbCircle
 10
3907.097201794854
 20
1703.744911539071
 30
0.0
 40
0.7571428571505253
100
AcDbArc
 50
53.64550773645668
 51
90.0
  0
LINE
  5
3156
330
1F
100
AcDbEntity
  8
taglio
100
AcDbLine
 10
3906.240058937736
 20
1704.50205439622
 30
0.0
 11
3907.097201794854
 21
1704.502054396221
 31
0.0
  0
ARC
  5
3157
330
1F
100
AcDbEntity
  8
taglio
100
AcDbCircle
 10
3906.240058937736
 20
1703.744911539078
 30
0.0
 40
0.7571428571428595
100
AcDbArc
 50
90.0
 51
179.9999999995179
  0
ARC
  5
3158
330
1F
100
AcDbEntity
  8
taglio
100
AcDbCircle
 10
3915.157864652739
 20
1741.66110101236
 30
0.0
 40
0.9571428555423471
100
AcDbArc
 50
90.0
 51
140.0547415555918
  0
ARC
  5
3159
330
1F
100
AcDbEntity
  8
taglio
100
AcDbCircle
 10
3910.179607266585
 20
1671.75752590737
 30
0.0
 40
0.8588643702538568
100
AcDbArc
 50
0.0000000004689919
 51
126.3544922634937
  0
LINE
  5
315A
330
1F
100
AcDbEntity
  8
taglio
100
AcDbLine
 10
3907.546020486971
 20
1670.88553402225
 30
0.0
 11
3909.670490156488
 21
1672.449225101166
 31
0.0
  0
ARC
  5
315B
330
1F
100
AcDbEntity
  8
taglio
100
AcDbCircle
 10
3907.097201794854
 20
1671.495310282644
 30
0.0
 40
0.7571428571505253
100
AcDbArc
 50
270.0
 51
306.3544922634932
  0
LINE
  5
315C
330
1F
100
AcDbEntity
  8
taglio
100
AcDbLine
 10
3906.240058937736
 20
1670.738167425495
 30
0.0
 11
3907.097201794853
 21
1670.738167425494
 31
0.0
  0
ARC
  5
315D
330
1F
100
AcDbEntity
  8
taglio
100
AcDbCircle
 10
3906.240058937736
 20
1671.495310282637
 30
0.0
 40
0.7571428571428595
100
AcDbArc
 50
180.000000000469
 51
270.0
  0
LINE
  5
3197
330
1F
100
AcDbEntity
  8
taglio
100
AcDbLine
 10
3810.83847163626
 20
1494.130518336931
 30
0.0
 11
3810.838471636375
 21
1507.409488508574
 31
0.0
  0
LINE
  5
3198
330
1F
100
AcDbEntity
  8
taglio
100
AcDbLine
 10
3810.838471635511
 20
1407.209488508933
 30
0.0
 11
3810.838471635669
 21
1425.573678484495
 31
0.0
  0
LINE
  5
3199
330
1F
100
AcDbEntity
  8
taglio
100
AcDbLine
 10
3805.282916080335
 20
1424.734034084713
 30
0.0
 11
3805.282916080335
 21
1452.166631366061
 31
0.0
  0
ARC
  5
319A
330
1F
100
AcDbEntity
  8
taglio
100
AcDbCircle
 10
3806.215948217449
 20
1424.734034084713
 30
0.0
 40
0.9330321371149688
100
AcDbArc
 50
180.0
 51
270.0
  0
ARC
  5
319B
330
1F
100
AcDbEntity
  8
taglio
100
AcDbCircle
 10
3806.240058937476
 20
1452.166631366061
 30
0.0
 40
0.9571428571413006
100
AcDbArc
 50
90.0
 51
180.0
  0
LINE
  5
319C
330
1F
100
AcDbEntity
  8
taglio
100
AcDbLine
 10
3810.838471635891
 20
1451.273375479953
 30
0.0
 11
3810.838471636045
 21
1469.160587314751
 31
0.0
  0
ARC
  5
319D
330
1F
100
AcDbEntity
  8
taglio
100
AcDbCircle
 10
3811.803732498815
 20
1469.160587314743
 30
0.0
 40
0.9652608627693332
100
AcDbArc
 50
43.2589251816893
 51
179.9999999995033
  0
ARC
  5
319E
330
1F
100
AcDbEntity
  8
taglio
100
AcDbCircle
 10
3811.795614493204
 20
1494.130518336923
 30
0.0
 40
0.9571428569434278
100
AcDbArc
 50
179.9999999995131
 51
315.1243153897906
  0
LINE
  5
319F
330
1F
100
AcDbEntity
  8
taglio
100
AcDbLine
 10
3808.322788723091
 20
1424.082812658262
 30
0.0
 11
3810.107671313065
 21
1425.875457467632
 31
0.0
  0
ARC
  5
31A0
330
1F
100
AcDbEntity
  8
taglio
100
AcDbCircle
 10
3810.410762693265
 20
1425.573678484498
 30
0.0
 40
0.4277089424045645
100
AcDbArc
 50
359.9999999995066
 51
135.1243153897883
  0
LINE
  5
31A1
330
1F
100
AcDbEntity
  8
taglio
100
AcDbLine
 10
3806.21594821745
 20
1423.801001947598
 30
0.0
 11
3807.64451964602
 21
1423.801001947599
 31
0.0
  0
ARC
  5
31A2
330
1F
100
AcDbEntity
  8
taglio
100
AcDbCircle
 10
3807.64451964602
 20
1424.758144804739
 30
0.0
 40
0.9571428571406292
100
AcDbArc
 50
270.0
 51
315.1243153897723
  0
LINE
  5
31A3
330
1F
100
AcDbEntity
  8
taglio
100
AcDbLine
 10
3808.365683269493
 20
1452.822557961629
 30
0.0
 11
3810.099277570959
 21
1450.980268063031
 31
0.0
  0
ARC
  5
31A4
330
1F
100
AcDbEntity
  8
taglio
100
AcDbCircle
 10
3810.410762693486
 20
1451.273375479957
 30
0.0
 40
0.4277089424045645
100
AcDbArc
 50
223.2589251816757
 51
359.9999999995066
  0
LINE
  5
31A5
330
1F
100
AcDbEntity
  8
taglio
100
AcDbLine
 10
3806.240058937476
 20
1453.123774223202
 30
0.0
 11
3807.668630366045
 21
1453.123774223202
 31
0.0
  0
ARC
  5
31A6
330
1F
100
AcDbEntity
  8
taglio
100
AcDbCircle
 10
3807.668630366046
 20
1452.166631366062
 30
0.0
 40
0.9571428571406292
100
AcDbArc
 50
43.25892518168923
 51
90.0
  0
LINE
  5
31A7
330
1F
100
AcDbEntity
  8
taglio
100
AcDbLine
 10
3817.536884334286
 20
1468.41367586413
 30
0.0
 11
3817.536884334286
 21
1494.77672972516
 31
0.0
  0
ARC
  5
31A8
330
1F
100
AcDbEntity
  8
taglio
100
AcDbCircle
 10
3816.532696979098
 20
1494.77672972516
 30
0.0
 40
1.004187355188514
100
AcDbArc
 50
0.0
 51
90.0
  0
LINE
  5
31A9
330
1F
100
AcDbEntity
  8
taglio
100
AcDbLine
 10
3814.552725492561
 20
1467.647764059128
 30
0.0
 11
3812.506697455358
 21
1469.822077150692
 31
0.0
  0
ARC
  5
31AA
330
1F
100
AcDbEntity
  8
taglio
100
AcDbCircle
 10
3815.104125550512
 20
1468.16663136607
 30
0.0
 40
0.7571428571428595
100
AcDbArc
 50
223.2589251816915
 51
270.0
  0
LINE
  5
31AB
330
1F
100
AcDbEntity
  8
taglio
100
AcDbLine
 10
3816.532696979083
 20
1467.409488508927
 30
0.0
 11
3815.104125550512
 21
1467.409488508928
 31
0.0
  0
ARC
  5
31AC
330
1F
100
AcDbEntity
  8
taglio
100
AcDbCircle
 10
3816.532696979083
 20
1468.41367586413
 30
0.0
 40
1.004187355202679
100
AcDbArc
 50
270.0
 51
0.0
  0
LINE
  5
31AD
330
1F
100
AcDbEntity
  8
taglio
100
AcDbLine
 10
3814.567584340338
 20
1495.557992189791
 30
0.0
 11
3812.473883570135
 21
1493.455186190586
 31
0.0
  0
ARC
  5
31AE
330
1F
100
AcDbEntity
  8
taglio
100
AcDbCircle
 10
3815.104125550559
 20
1495.023774223174
 30
0.0
 40
0.7571428571428595
100
AcDbArc
 50
90.0
 51
135.1243153897769
  0
LINE
  5
31AF
330
1F
100
AcDbEntity
  8
taglio
100
AcDbLine
 10
3816.532696979075
 20
1495.780917080348
 30
0.0
 11
3815.104125550559
 21
1495.780917080317
 31
0.0
  0
LINE
  5
31B0
330
1F
100
AcDbEntity
  8
marcatura
100
AcDbLine
 10
3817.536884334286
 20
1475.976155177116
 30
0.0
 11
3858.169856701598
 21
1475.976155177116
 31
0.0
  0
LINE
  5
31B1
330
1F
100
AcDbEntity
  8
marcatura
100
AcDbLine
 10
3817.536884334286
 20
1472.976155177116
 30
0.0
 11
3858.169856701598
 21
1472.976155177116
 31
0.0
  0
LINE
  5
31B2
330
1F
100
AcDbEntity
  8
marcatura
100
AcDbLine
 10
3805.282916080335
 20
1438.642821843783
 30
0.0
 11
3858.169856701598
 21
1438.642821843783
 31
0.0
  0
ARC
  5
31B3
330
1F
100
AcDbEntity
  8
marcatura
100
AcDbCircle
 10
3858.169856701598
 20
1457.309488510449
 30
0.0
 40
18.66666666666663
100
AcDbArc
 50
270.0
 51
90.0
  0
LINE
  5
31B4
330
1F
100
AcDbEntity
  8
marcatura
100
AcDbLine
 10
3805.282916080335
 20
1441.642821843783
 30
0.0
 11
3858.169856701598
 21
1441.642821843783
 31
0.0
  0
ARC
  5
31B5
330
1F
100
AcDbEntity
  8
marcatura
100
AcDbCircle
 10
3858.169856701598
 20
1457.30948851045
 30
0.0
 40
15.66666666666659
100
AcDbArc
 50
270.0
 51
90.0
  0
LINE
  5
31B6
330
1F
100
AcDbEntity
  8
taglio
100
AcDbLine
 10
3911.038471635512
 20
1407.20948850807
 30
0.0
 11
3894.902358605544
 21
1407.209488507847
 31
0.0
  0
LINE
  5
31B7
330
1F
100
AcDbEntity
  8
taglio
100
AcDbLine
 10
3896.339528395142
 20
1401.082504381602
 30
0.0
 11
3864.406455081433
 21
1401.082504381602
 31
0.0
  0
ARC
  5
31B8
330
1F
100
AcDbEntity
  8
taglio
100
AcDbCircle
 10
3896.339528395142
 20
1401.947238349618
 30
0.0
 40
0.864733968015688
100
AcDbArc
 50
270.0
 51
0.0
  0
ARC
  5
31B9
330
1F
100
AcDbEntity
  8
taglio
100
AcDbCircle
 10
3864.406455081433
 20
1401.818030433313
 30
0.0
 40
0.735526051710978
100
AcDbArc
 50
180.0
 51
270.0
  0
LINE
  5
31BA
330
1F
100
AcDbEntity
  8
taglio
100
AcDbLine
 10
3865.069336134854
 20
1407.209488508104
 30
0.0
 11
3858.068714409593
 21
1407.209488508164
 31
0.0
  0
ARC
  5
31BB
330
1F
100
AcDbEntity
  8
taglio
100
AcDbCircle
 10
3858.068714409601
 20
1408.068352878419
 30
0.0
 40
0.8588643702538568
100
AcDbArc
 50
143.6455077364763
 51
269.999999999518
  0
LINE
  5
31BC
330
1F
100
AcDbEntity
  8
taglio
100
AcDbLine
 10
3826.343544402588
 20
1407.209488508164
 30
0.0
 11
3810.838471635511
 21
1407.209488508933
 31
0.0
  0
LINE
  5
31BD
330
1F
100
AcDbEntity
  8
taglio
100
AcDbLine
 10
3896.861658267593
 20
1403.823896935709
 30
0.0
 11
3894.416230928921
 21
1405.871875851188
 31
0.0
  0
ARC
  5
31BE
330
1F
100
AcDbEntity
  8
taglio
100
AcDbCircle
 10
3894.902358605537
 20
1406.452345650704
 30
0.0
 40
0.7571428571428595
100
AcDbArc
 50
89.99999999951798
 51
230.0547415555978
  0
LINE
  5
31BF
330
1F
100
AcDbEntity
  8
taglio
100
AcDbLine
 10
3897.204262363157
 20
1401.947238349618
 30
0.0
 11
3897.204262363158
 21
1403.090095492265
 31
0.0
  0
LINE
  5
31C0
330
1F
100
AcDbEntity
  8
taglio
100
AcDbLine
 10
3863.857222652033
 20
1403.528262149216
 30
0.0
 11
3865.679112395262
 21
1406.003526958797
 31
0.0
  0
ARC
  5
31C1
330
1F
100
AcDbEntity
  8
taglio
100
AcDbCircle
 10
3865.069336134848
 20
1406.452345650929
 30
0.0
 40
0.7571428571756078
100
AcDbArc
 50
323.6455077364771
 51
89.99999999951798
  0
LINE
  5
31C2
330
1F
100
AcDbEntity
  8
taglio
100
AcDbLine
 10
3863.670929029721
 20
1401.818030433311
 30
0.0
 11
3863.670929029721
 21
1402.960887576168
 31
0.0
  0
ARC
  5
31C3
330
1F
100
AcDbEntity
  8
taglio
100
AcDbCircle
 10
3864.628071886863
 20
1402.960887576169
 30
0.0
 40
0.9571428571428594
100
AcDbArc
 50
143.6455077364883
 51
180.0
  0
LINE
  5
31C4
330
1F
100
AcDbEntity
  8
taglio
100
AcDbLine
 10
3858.330930033986
 20
1412.76504406441
 30
0.0
 11
3826.081328777886
 21
1412.76504406441
 31
0.0
  0
LINE
  5
31C5
330
1F
100
AcDbEntity
  8
taglio
100
AcDbLine
 10
3858.94070629472
 20
1410.701939658032
 30
0.0
 11
3857.377015215804
 21
1408.577469988515
 31
0.0
  0
ARC
  5
31C6
330
1F
100
AcDbEntity
  8
taglio
100
AcDbCircle
 10
3858.330930034326
 20
1411.150758350149
 30
0.0
 40
0.7571428571505253
100
AcDbArc
 50
323.6455077364763
 51
0.0
  0
LINE
  5
31C7
330
1F
100
AcDbEntity
  8
taglio
100
AcDbLine
 10
3859.088072891476
 20
1412.007901207267
 30
0.0
 11
3859.088072891476
 21
1411.150758350149
 31
0.0
  0
ARC
  5
31C8
330
1F
100
AcDbEntity
  8
taglio
100
AcDbCircle
 10
3858.330930034333
 20
1412.007901207267
 30
0.0
 40
0.7571428571428595
100
AcDbArc
 50
0.0
 51
89.99999999951798
  0
ARC
  5
31C9
330
1F
100
AcDbEntity
  8
taglio
100
AcDbCircle
 10
3896.247119507616
 20
1403.090095492265
 30
0.0
 40
0.9571428555423471
100
AcDbArc
 50
0.0
 51
50.05474155559387
  0
ARC
  5
31CA
330
1F
100
AcDbEntity
  8
taglio
100
AcDbCircle
 10
3826.343544402625
 20
1408.068352878419
 30
0.0
 40
0.8588643702538568
100
AcDbArc
 50
270.000000000469
 51
36.3544922635115
  0
LINE
  5
31CB
330
1F
100
AcDbEntity
  8
taglio
100
AcDbLine
 10
3825.471552517505
 20
1410.701939658033
 30
0.0
 11
3827.035243596422
 21
1408.577469988515
 31
0.0
  0
ARC
  5
31CC
330
1F
100
AcDbEntity
  8
taglio
100
AcDbCircle
 10
3826.081328777899
 20
1411.150758350149
 30
0.0
 40
0.7571428571505253
100
AcDbArc
 50
180.0
 51
216.3544922635116
  0
LINE
  5
31CD
330
1F
100
AcDbEntity
  8
taglio
100
AcDbLine
 10
3825.32418592075
 20
1412.007901207267
 30
0.0
 11
3825.324185920749
 21
1411.15075835015
 31
0.0
  0
ARC
  5
31CE
330
1F
100
AcDbEntity
  8
taglio
100
AcDbCircle
 10
3826.081328777892
 20
1412.007901207267
 30
0.0
 40
0.7571428571428595
100
AcDbArc
 50
90.00000000046897
 51
180.0
  0
LINE
  5
31CF
330
1F
100
AcDbEntity
  8
taglio
100
AcDbLine
 10
3911.038471636376
 20
1507.409488507708
 30
0.0
 11
3894.902358606408
 21
1507.409488507849
 31
0.0
  0
LINE
  5
31D0
330
1F
100
AcDbEntity
  8
taglio
100
AcDbLine
 10
3896.339528396005
 20
1501.282504381604
 30
0.0
 11
3864.406455082296
 21
1501.282504381604
 31
0.0
  0
ARC
  5
31D1
330
1F
100
AcDbEntity
  8
taglio
100
AcDbCircle
 10
3896.339528396005
 20
1501.94723834962
 30
0.0
 40
0.6647339680156882
100
AcDbArc
 50
270.0
 51
0.0
  0
ARC
  5
31D2
330
1F
100
AcDbEntity
  8
taglio
100
AcDbCircle
 10
3864.406455082296
 20
1501.818030433315
 30
0.0
 40
0.5355260517109781
100
AcDbArc
 50
180.0
 51
270.0
  0
LINE
  5
31D3
330
1F
100
AcDbEntity
  8
taglio
100
AcDbLine
 10
3865.069336135718
 20
1507.409488508106
 30
0.0
 11
3858.068714410458
 21
1507.409488508167
 31
0.0
  0
ARC
  5
31D4
330
1F
100
AcDbEntity
  8
taglio
100
AcDbCircle
 10
3858.068714410464
 20
1508.068352878421
 30
0.0
 40
0.6588643702538569
100
AcDbArc
 50
143.6455077364763
 51
269.999999999518
  0
LINE
  5
31D5
330
1F
100
AcDbEntity
  8
taglio
100
AcDbLine
 10
3826.343524248826
 20
1507.309488508435
 30
0.0
 11
3810.938471635247
 21
1507.309488508573
 31
0.0
  0
LINE
  5
31D6
330
1F
100
AcDbEntity
  8
taglio
100
AcDbLine
 10
3826.343523319268
 20
1507.409488508504
 30
0.0
 11
3810.838471636375
 21
1507.409488508574
 31
0.0
  0
LINE
  5
31D7
330
1F
100
AcDbEntity
  8
taglio
100
AcDbLine
 10
3896.733247184067
 20
1503.670565290556
 30
0.0
 11
3894.287819845395
 21
1505.718544206035
 31
0.0
  0
ARC
  5
31D8
330
1F
100
AcDbEntity
  8
taglio
100
AcDbCircle
 10
3894.9023586064
 20
1506.452345650707
 30
0.0
 40
0.9571428571428594
100
AcDbArc
 50
89.99999999951798
 51
230.0547415555978
  0
LINE
  5
31D9
330
1F
100
AcDbEntity
  8
taglio
100
AcDbLine
 10
3897.004262364021
 20
1501.947238349619
 30
0.0
 11
3897.004262364021
 21
1503.090095492267
 31
0.0
  0
LINE
  5
31DA
330
1F
100
AcDbEntity
  8
taglio
100
AcDbLine
 10
3864.018295627338
 20
1503.409706268284
 30
0.0
 11
3865.840185370568
 21
1505.884971077864
 31
0.0
  0
ARC
  5
31DB
330
1F
100
AcDbEntity
  8
taglio
100
AcDbCircle
 10
3865.069336135711
 20
1506.452345650931
 30
0.0
 40
0.9571428571756076
100
AcDbArc
 50
323.6455077364771
 51
89.99999999951798
  0
LINE
  5
31DC
330
1F
100
AcDbEntity
  8
taglio
100
AcDbLine
 10
3863.870929030585
 20
1501.818030433315
 30
0.0
 11
3863.870929030584
 21
1502.960887576171
 31
0.0
  0
ARC
  5
31DD
330
1F
100
AcDbEntity
  8
taglio
100
AcDbCircle
 10
3864.628071887727
 20
1502.960887576171
 30
0.0
 40
0.7571428571428595
100
AcDbArc
 50
143.6455077364883
 51
180.0
  0
LINE
  5
31DE
330
1F
100
AcDbEntity
  8
taglio
100
AcDbLine
 10
3858.330930035204
 20
1512.965044064412
 30
0.0
 11
3826.081328778755
 21
1512.965044064412
 31
0.0
  0
LINE
  5
31DF
330
1F
100
AcDbEntity
  8
taglio
100
AcDbLine
 10
3859.101779270026
 20
1510.5833837771
 30
0.0
 11
3857.538088191109
 21
1508.458914107582
 31
0.0
  0
ARC
  5
31E0
330
1F
100
AcDbEntity
  8
taglio
100
AcDbCircle
 10
3858.330930035189
 20
1511.150758350152
 30
0.0
 40
0.9571428571505252
100
AcDbArc
 50
323.6455077364763
 51
0.0
  0
LINE
  5
31E1
330
1F
100
AcDbEntity
  8
taglio
100
AcDbLine
 10
3859.288072892339
 20
1512.007901207269
 30
0.0
 11
3859.288072892339
 21
1511.150758350152
 31
0.0
  0
ARC
  5
31E2
330
1F
100
AcDbEntity
  8
taglio
100
AcDbCircle
 10
3858.330930035196
 20
1512.007901207269
 30
0.0
 40
0.9571428571428594
100
AcDbArc
 50
0.0
 51
89.99999999951798
  0
ARC
  5
31E3
330
1F
100
AcDbEntity
  8
taglio
100
AcDbCircle
 10
3896.247119508479
 20
1503.090095492267
 30
0.0
 40
0.7571428555423473
100
AcDbArc
 50
0.0
 51
50.05474155559387
  0
ARC
  5
31E4
330
1F
100
AcDbEntity
  8
taglio
100
AcDbCircle
 10
3826.343544403489
 20
1508.068352878421
 30
0.0
 40
0.6588643702538569
100
AcDbArc
 50
270.000000000469
 51
36.35449226351084
  0
LINE
  5
31E5
330
1F
100
AcDbEntity
  8
taglio
100
AcDbLine
 10
3825.310479543926
 20
1510.5833837771
 30
0.0
 11
3826.874170622842
 21
1508.458914107582
 31
0.0
  0
ARC
  5
31E6
330
1F
100
AcDbEntity
  8
taglio
100
AcDbCircle
 10
3826.081328778763
 20
1511.150758350152
 30
0.0
 40
0.9571428571505252
100
AcDbArc
 50
180.0
 51
216.3544922635115
  0
LINE
  5
31E7
330
1F
100
AcDbEntity
  8
taglio
100
AcDbLine
 10
3825.124185921612
 20
1512.007901207269
 30
0.0
 11
3825.124185921612
 21
1511.150758350152
 31
0.0
  0
ARC
  5
31E8
330
1F
100
AcDbEntity
  8
taglio
100
AcDbCircle
 10
3826.081328778755
 20
1512.007901207269
 30
0.0
 40
0.9571428571428594
100
AcDbArc
 50
90.00000000046897
 51
180.0
  0
LINE
  5
31E9
330
1F
100
AcDbEntity
  8
taglio
100
AcDbLine
 10
3911.038471636376
 20
1507.409488507708
 30
0.0
 11
3911.038471636598
 21
1491.27337547774
 31
0.0
  0
LINE
  5
31EA
330
1F
100
AcDbEntity
  8
taglio
100
AcDbLine
 10
3917.165455762843
 20
1492.710545267338
 30
0.0
 11
3917.165455762843
 21
1460.777471953629
 31
0.0
  0
ARC
  5
31EB
330
1F
100
AcDbEntity
  8
taglio
100
AcDbCircle
 10
3916.300721794828
 20
1492.710545267338
 30
0.0
 40
0.864733968015688
100
AcDbArc
 50
0.0
 51
90.0
  0
ARC
  5
31EC
330
1F
100
AcDbEntity
  8
taglio
100
AcDbCircle
 10
3916.429929711132
 20
1460.777471953629
 30
0.0
 40
0.735526051710978
100
AcDbArc
 50
270.0
 51
0.0
  0
LINE
  5
31ED
330
1F
100
AcDbEntity
  8
taglio
100
AcDbLine
 10
3911.038471636341
 20
1461.44035300705
 30
0.0
 11
3911.03847163628
 21
1454.439731281789
 31
0.0
  0
ARC
  5
31EE
330
1F
100
AcDbEntity
  8
taglio
100
AcDbCircle
 10
3910.179607266027
 20
1454.439731281797
 30
0.0
 40
0.8588643702538568
100
AcDbArc
 50
233.6455077364573
 51
359.999999999518
  0
LINE
  5
31EF
330
1F
100
AcDbEntity
  8
taglio
100
AcDbLine
 10
3911.03847163628
 20
1422.714561274784
 30
0.0
 11
3911.038471635512
 21
1407.209488507707
 31
0.0
  0
LINE
  5
31F0
330
1F
100
AcDbEntity
  8
taglio
100
AcDbLine
 10
3914.424063208736
 20
1493.232675139789
 30
0.0
 11
3912.376084293257
 21
1490.787247801117
 31
0.0
  0
ARC
  5
31F1
330
1F
100
AcDbEntity
  8
taglio
100
AcDbCircle
 10
3911.79561449374
 20
1491.273375477733
 30
0.0
 40
0.7571428571428595
100
AcDbArc
 50
179.9999999995179
 51
320.0547415555918
  0
LINE
  5
31F2
330
1F
100
AcDbEntity
  8
taglio
100
AcDbLine
 10
3916.300721794828
 20
1493.575279235354
 30
0.0
 11
3915.15786465218
 21
1493.575279235354
 31
0.0
  0
LINE
  5
31F3
330
1F
100
AcDbEntity
  8
taglio
100
AcDbLine
 10
3914.719697995229
 20
1460.228239524229
 30
0.0
 11
3912.244433185648
 21
1462.050129267458
 31
0.0
  0
ARC
  5
31F4
330
1F
100
AcDbEntity
  8
taglio
100
AcDbCircle
 10
3911.795614493517
 20
1461.440353007043
 30
0.0
 40
0.7571428571756078
100
AcDbArc
 50
53.64550773645706
 51
179.9999999995179
  0
LINE
  5
31F5
330
1F
100
AcDbEntity
  8
taglio
100
AcDbLine
 10
3916.429929711134
 20
1460.041945901918
 30
0.0
 11
3915.287072568277
 21
1460.041945901917
 31
0.0
  0
ARC
  5
31F6
330
1F
100
AcDbEntity
  8
taglio
100
AcDbCircle
 10
3915.287072568276
 20
1460.999088759059
 30
0.0
 40
0.9571428571428594
100
AcDbArc
 50
233.6455077365069
 51
270.0
  0
LINE
  5
31F7
330
1F
100
AcDbEntity
  8
taglio
100
AcDbLine
 10
3905.482916080035
 20
1454.701946906181
 30
0.0
 11
3905.482916080035
 21
1422.452345650082
 31
0.0
  0
LINE
  5
31F8
330
1F
100
AcDbEntity
  8
taglio
100
AcDbLine
 10
3907.546020486413
 20
1455.311723166916
 30
0.0
 11
3909.67049015593
 21
1453.748032088
 31
0.0
  0
ARC
  5
31F9
330
1F
100
AcDbEntity
  8
taglio
100
AcDbCircle
 10
3907.097201794296
 20
1454.701946906522
 30
0.0
 40
0.7571428571505253
100
AcDbArc
 50
53.64550773645706
 51
90.0
  0
LINE
  5
31FA
330
1F
100
AcDbEntity
  8
taglio
100
AcDbLine
 10
3906.240058937178
 20
1455.459089763672
 30
0.0
 11
3907.097201794296
 21
1455.459089763673
 31
0.0
  0
ARC
  5
31FB
330
1F
100
AcDbEntity
  8
taglio
100
AcDbCircle
 10
3906.240058937178
 20
1454.701946906529
 30
0.0
 40
0.7571428571428595
100
AcDbArc
 50
90.0
 51
179.9999999995179
  0
ARC
  5
31FC
330
1F
100
AcDbEntity
  8
taglio
100
AcDbCircle
 10
3915.15786465218
 20
1492.618136379812
 30
0.0
 40
0.9571428555423471
100
AcDbArc
 50
90.0
 51
140.0547415555918
  0
ARC
  5
31FD
330
1F
100
AcDbEntity
  8
taglio
100
AcDbCircle
 10
3910.179607266027
 20
1422.714561274821
 30
0.0
 40
0.8588643702538568
100
AcDbArc
 50
0.0000000004689919
 51
126.3544922634934
  0
LINE
  5
31FE
330
1F
100
AcDbEntity
  8
taglio
100
AcDbLine
 10
3907.546020486412
 20
1421.842569389701
 30
0.0
 11
3909.67049015593
 21
1423.406260468618
 31
0.0
  0
ARC
  5
31FF
330
1F
100
AcDbEntity
  8
taglio
100
AcDbCircle
 10
3907.097201794296
 20
1422.452345650096
 30
0.0
 40
0.7571428571505253
100
AcDbArc
 50
270.0
 51
306.354492263493
  0
LINE
  5
3200
330
1F
100
AcDbEntity
  8
taglio
100
AcDbLine
 10
3906.240058937178
 20
1421.695202792946
 30
0.0
 11
3907.097201794294
 21
1421.695202792945
 31
0.0
  0
ARC
  5
3201
330
1F
100
AcDbEntity
  8
taglio
100
AcDbCircle
 10
3906.240058937178
 20
1422.452345650089
 30
0.0
 40
0.7571428571428595
100
AcDbArc
 50
180.000000000469
 51
270.0
  0
ENDSEC
  0
SECTION
  2
OBJECTS
  0
DICTIONARY
  5
C
330
0
100
AcDbDictionary
281
     1
  3
ACAD_CIP_PREVIOUS_PRODUCT_INFO
350
216
  3
ACAD_COLOR
350
6B
  3
ACAD_DETAILVIEWSTYLE
350
21B
  3
ACAD_GROUP
350
D
  3
ACAD_LAYOUT
350
1A
  3
ACAD_MATERIAL
350
6A
  3
ACAD_MLEADERSTYLE
350
12D
  3
ACAD_MLINESTYLE
350
17
  3
ACAD_PLOTSETTINGS
350
19
  3
ACAD_PLOTSTYLENAME
350
E
  3
ACAD_SCALELIST
350
10C
  3
ACAD_SECTIONVIEWSTYLE
350
219
  3
ACAD_TABLESTYLE
350
7E
  3
ACAD_VISUALSTYLE
350
EF
  3
ACDB_RECOMPOSE_DATA
350
3265
  3
AcDbVariableDictionary
350
5E
  3
AcDsDecomposeData
350
326B
  0
DICTIONARY
  5
1FF
330
2
100
AcDbDictionary
280
     1
281
     1
  3
ACAD_LAYERSTATES
360
200
  0
DICTIONARY
  5
13C
330
10
100
AcDbDictionary
280
     1
281
     1
  0
DICTIONARY
  5
1CE
330
1F
100
AcDbDictionary
280
     1
281
     1
  3
ACAD_SORTENTS
360
313
  0
XRECORD
  5
216
102
{ACAD_REACTORS
330
C
102
}
330
C
100
AcDbXrecord
280
     1
300
ACD
300
2015
300
ACD_F_S
  0
DICTIONARY
  5
6B
102
{ACAD_REACTORS
330
C
102
}
330
C
100
AcDbDictionary
281
     1
  0
DICTIONARY
  5
21B
102
{ACAD_REACTORS
330
C
102
}
330
C
100
AcDbDictionary
281
     1
  3
Metric50
350
21C
  0
DICTIONARY
  5
D
102
{ACAD_REACTORS
330
C
102
}
330
C
100
AcDbDictionary
281
     1
  0
DICTIONARY
  5
1A
102
{ACAD_REACTORS
330
C
102
}
330
C
100
AcDbDictionary
281
     1
  3
Layout1
350
D3
  3
Layout2
350
D7
  3
Model
350
22
  0
DICTIONARY
  5
6A
102
{ACAD_REACTORS
330
C
102
}
330
C
100
AcDbDictionary
281
     1
  3
ByBlock
350
ED
  3
ByLayer
350
EC
  3
Global
350
EE
  0
DICTIONARY
  5
12D
102
{ACAD_REACTORS
330
C
102
}
330
C
100
AcDbDictionary
281
     1
  3
Annotativa
350
13B
  3
Standard
350
12E
  0
DICTIONARY
  5
17
102
{ACAD_REACTORS
330
C
102
}
330
C
100
AcDbDictionary
281
     1
  3
Standard
350
18
  0
DICTIONARY
  5
19
102
{ACAD_REACTORS
330
C
102
}
330
C
100
AcDbDictionary
281
     1
  0
ACDBDICTIONARYWDFLT
  5
E
102
{ACAD_REACTORS
330
C
102
}
330
C
100
AcDbDictionary
281
     1
  3
Normal
350
F
100
AcDbDictionaryWithDefault
340
F
  0
DICTIONARY
  5
10C
102
{ACAD_REACTORS
330
C
102
}
330
C
100
AcDbDictionary
281
     1
  3
A0
350
10D
  3
A1
350
1BE
  3
A2
350
1BF
  3
A3
350
1C0
  3
A4
350
1C1
  3
A5
350
1C2
  3
A6
350
1C3
  3
A7
350
1C4
  3
A8
350
1C5
  3
A9
350
1C6
  3
B0
350
1C7
  3
B1
350
1C8
  3
B2
350
1C9
  3
B3
350
1CA
  3
B4
350
1CB
  3
B5
350
1CC
  3
B6
350
1CD
  0
DICTIONARY
  5
219
102
{ACAD_REACTORS
330
C
102
}
330
C
100
AcDbDictionary
281
     1
  3
Metric50
350
21A
  0
DICTIONARY
  5
7E
102
{ACAD_REACTORS
330
C
102
}
330
C
100
AcDbDictionary
281
     1
  3
Standard
350
7F
  0
DICTIONARY
  5
EF
102
{ACAD_REACTORS
330
C
102
}
330
C
100
AcDbDictionary
281
     1
  3
2dWireframe
350
F5
  3
Basic
350
F4
  3
Brighten
350
FB
  3
ColorChange
350
FF
  3
Conceptual
350
F8
  3
Dim
350
FA
  3
EdgeColorOff
350
1E6
  3
Facepattern
350
FE
  3
Flat
350
F0
  3
FlatWithEdges
350
F1
  3
Gouraud
350
F2
  3
GouraudWithEdges
350
F3
  3
Hidden
350
F7
  3
JitterOff
350
1E4
  3
Linepattern
350
FD
  3
OverhangOff
350
1E5
  3
Realistic
350
F9
  3
Shaded
350
1F3
  3
Shaded with edges
350
1F2
  3
Shades of Gray
350
1EF
  3
Sketchy
350
1F0
  3
Thicken
350
FC
  3
Wireframe
350
F6
  3
X-Ray
350
1F1
  0
XRECORD
  5
3265
102
{ACAD_REACTORS
330
C
102
}
330
C
100
AcDbXrecord
280
     1
 90
        1
330
7F
  0
DICTIONARY
  5
5E
102
{ACAD_REACTORS
330
C
102
}
330
C
100
AcDbDictionary
281
     1
  3
CANNOSCALE
350
146
  3
CMLEADERSTYLE
350
145
  3
CTABLESTYLE
350
84
  3
CVIEWDETAILSTYLE
350
227
  3
CVIEWSECTIONSTYLE
350
228
  3
DIMASSOC
350
5F
  3
HIDETEXT
350
63
  3
INDEXCTL
350
3208
  3
LAYEREVAL
350
1AE
  3
LAYERNOTIFY
350
1AF
  3
LIGHTINGUNITS
350
3206
  3
MSLTSCALE
350
3205
  3
PSOLHEIGHT
350
320A
  3
PSOLWIDTH
350
3209
  3
SORTENTS
350
3207
  3
XCLIPFRAME
350
320B
  0
DICTIONARY
  5
326B
102
{ACAD_REACTORS
330
C
102
}
330
C
100
AcDbDictionary
281
     1
  3
AcDsRecords
350
326D
  3
AcDsSchemas
350
326C
1001
ACAD
1070
     2
  0
DICTIONARY
  5
200
102
{ACAD_REACTORS
330
1FF
102
}
330
1FF
100
AcDbDictionary
281
     1
  0
SORTENTSTABLE
  5
313
102
{ACAD_REACTORS
330
1CE
102
}
330
1CE
100
AcDbSortentsTable
330
1F
331
309D
  5
30CE
331
2C87
  5
2C87
331
2CFD
  5
2CFD
331
3099
  5
30CB
331
30D4
  5
3017
331
2C83
  5
2C83
331
2CF9
  5
2CF9
331
3095
  5
30C7
331
2E05
  5
2E05
331
2D8F
  5
2D8F
331
30D0
  5
3007
331
2CF5
  5
2CF5
331
2C7F
  5
2C7F
331
2CBE
  5
2CBE
331
3091
  5
30C3
331
2E01
  5
2E01
331
2D8B
  5
2D8B
331
2D38
  5
2D38
331
2CF1
  5
2CF1
331
2C7B
  5
2C7B
331
2CBA
  5
2CBA
331
2DC6
  5
2DC6
331
2D87
  5
2D87
331
2DFD
  5
2DFD
331
2DC2
  5
2DC2
331
2D83
  5
2D83
331
2DF9
  5
2DF9
331
27A4
  5
2729
331
271D
  5
27B8
331
128F
  5
128F
331
27A0
  5
2725
331
2719
  5
27B4
331
128B
  5
128B
331
279C
  5
26F9
331
2715
  5
27B0
331
1287
  5
1287
331
2798
  5
2719
331
1283
  5
1283
331
30CC
  5
3021
331
308D
  5
30BF
331
30C8
  5
3019
331
2CB6
  5
2CB6
331
2C77
  5
2C77
331
2CED
  5
2CED
331
3089
  5
30BB
331
30C4
  5
304A
331
2CB2
  5
2CB2
331
2CE9
  5
2CE9
331
3085
  5
30B7
331
2DF5
  5
2DF5
331
2D7F
  5
2D7F
331
2DBE
  5
2DBE
331
30C0
  5
308C
331
2D24
  5
2D24
331
2CAE
  5
2CAE
331
2CE5
  5
2CE5
331
3081
  5
30B3
331
2DF1
  5
2DF1
331
2D7B
  5
2D7B
331
2DBA
  5
2DBA
331
2D20
  5
2D20
331
2CAA
  5
2CAA
331
2CE1
  5
2CE1
331
2DB6
  5
2DB6
331
2D77
  5
2D77
331
2DED
  5
2DED
331
2DB2
  5
2DB2
331
2D73
  5
2D73
331
2DE9
  5
2DE9
331
2794
  5
26EC
331
2790
  5
270D
331
1AA2
  5
1AA4
331
127B
  5
127B
331
16BA
  5
16BA
331
30BC
  5
3092
331
307D
  5
30AF
331
2D1C
  5
2D1C
331
2CA6
  5
2CA6
331
2CDD
  5
2CDD
331
30B8
  5
3082
331
2D18
  5
2D18
331
2CA2
  5
2CA2
331
2CD9
  5
2CD9
331
30B4
  5
309D
331
2DE5
  5
2DE5
331
2D6F
  5
2D6F
331
2DAE
  5
2DAE
331
2D14
  5
2D14
331
2C9E
  5
2C9E
331
2CD5
  5
2CD5
331
3061
  5
3086
331
30B0
  5
30A5
331
2DE1
  5
2DE1
331
2DAA
  5
2DAA
331
2D10
  5
2D10
331
2C9A
  5
2C9A
331
2CD1
  5
2CD1
331
2E1C
  5
2E1C
331
2DDD
  5
2DDD
331
2DA6
  5
2DA6
331
2D67
  5
2D67
331
2E18
  5
2E18
331
2DD9
  5
2DD9
331
2DA2
  5
2DA2
331
2D63
  5
2D63
331
1EAD
  5
1EAD
331
2738
  5
27B3
331
1EA9
  5
1EA9
331
12AA
  5
12AA
331
2734
  5
2734
331
FEF
  5
FEF
331
12A6
  5
12A6
331
2730
  5
2770
331
1AE9
  5
1AE9
331
12A2
  5
12A2
331
30AC
  5
30DD
331
2CCD
  5
2CCD
331
2C96
  5
2C96
331
2D0C
  5
2D0C
331
30A8
  5
30D9
331
30DB
  5
300B
331
2CC9
  5
2CC9
331
2A6B
  5
2A95
331
2C92
  5
2C92
331
2D08
  5
2D08
331
30A4
  5
30D5
331
2DD5
  5
2DD5
331
2E14
  5
2E14
331
2D5F
  5
2D5F
331
2D9E
  5
2D9E
331
2CC5
  5
2CC5
331
2A67
  5
2A8E
331
2C8E
  5
2C8E
331
2D04
  5
2D04
331
30A0
  5
30D1
331
2DD1
  5
2DD1
331
2E10
  5
2E10
331
2D5B
  5
2D5B
331
2D9A
  5
2D9A
331
2CC1
  5
2CC1
331
2A63
  5
2A86
331
2C8A
  5
2C8A
331
2D00
  5
2D00
331
2DCD
  5
2DCD
331
2D57
  5
2D57
331
2D96
  5
2D96
331
2E0C
  5
2E0C
331
2DC9
  5
2DC9
331
2D53
  5
2D53
331
2D92
  5
2D92
331
2E08
  5
2E08
331
272C
  5
272F
331
129E
  5
129E
331
2728
  5
2776
331
129A
  5
129A
331
2724
  5
2778
331
2A5B
  5
2A77
331
1296
  5
1296
331
1AE5
  5
16BC
331
2720
  5
2772
331
1AE1
  5
1ADF
331
1292
  5
1292
331
DB3
  5
DB3
331
309C
  5
30CD
331
2C86
  5
2C86
331
2CFC
  5
2CFC
331
3098
  5
30CA
331
30D7
  5
2FFF
331
30D3
  5
3011
331
2C82
  5
2C82
331
2CF8
  5
2CF8
331
3094
  5
30C6
331
2E04
  5
2E04
331
2D8E
  5
2D8E
331
2D3B
  5
2D3B
331
2CF4
  5
2CF4
331
2C7E
  5
2C7E
331
2CBD
  5
2CBD
331
3090
  5
30C2
331
2E00
  5
2E00
331
2D8A
  5
2D8A
331
2CF0
  5
2CF0
331
2C7A
  5
2C7A
331
2CB9
  5
2CB9
331
2DC5
  5
2DC5
331
2D86
  5
2D86
331
2DFC
  5
2DFC
331
2DC1
  5
2DC1
331
2D82
  5
2D82
331
2DF8
  5
2DF8
331
27A7
  5
26FD
331
27A3
  5
272B
331
271C
  5
27B7
331
128E
  5
128E
331
279F
  5
2723
331
1AD9
  5
1AE0
331
128A
  5
128A
331
279B
  5
26F5
331
2714
  5
27AF
331
1286
  5
1286
331
1282
  5
1282
331
30CF
  5
301B
331
30CB
  5
3029
331
2D37
  5
2D37
331
308C
  5
30BE
331
2CB5
  5
2CB5
331
2C76
  5
2C76
331
2CEC
  5
2CEC
331
3088
  5
30BA
331
30C7
  5
3027
331
30C3
  5
308A
331
2CB1
  5
2CB1
331
2CE8
  5
2CE8
331
3084
  5
30B6
331
2DF4
  5
2DF4
331
2D7E
  5
2D7E
331
2DBD
  5
2DBD
331
2D23
  5
2D23
331
2CAD
  5
2CAD
331
2CE4
  5
2CE4
331
3080
  5
30B2
331
2DF0
  5
2DF0
331
2D7A
  5
2D7A
331
2DB9
  5
2DB9
331
2BAA
  5
2BAA
331
2CA9
  5
2CA9
331
2CE0
  5
2CE0
331
2DB5
  5
2DB5
331
2D76
  5
2D76
331
2DEC
  5
2DEC
331
2DB1
  5
2DB1
331
2D72
  5
2D72
331
2DE8
  5
2DE8
331
2797
  5
2717
331
2793
  5
2709
331
24E0
  5
24E0
331
1AA1
  5
1AA3
331
127A
  5
127A
331
278F
  5
26E4
331
1276
  5
1276
331
16B9
  5
16B9
331
30BF
  5
307E
331
30BB
  5
3094
331
2D1F
  5
2D1F
331
307C
  5
30AE
331
2D1B
  5
2D1B
331
2BA6
  5
2BA6
331
2CA5
  5
2CA5
331
2CDC
  5
2CDC
331
30B7
  5
3084
331
2D17
  5
2D17
331
2CA1
  5
2CA1
331
2CD8
  5
2CD8
331
30B3
  5
309F
331
2DE4
  5
2DE4
331
2D6E
  5
2D6E
331
2DAD
  5
2DAD
331
2D13
  5
2D13
331
2C9D
  5
2C9D
331
2CD4
  5
2CD4
331
3060
  5
30AC
331
2DE0
  5
2DE0
331
2DA9
  5
2DA9
331
2C99
  5
2C99
331
2AA2
  5
2ACE
331
2CD0
  5
2CD0
331
2E1B
  5
2E1B
331
2DDC
  5
2DDC
331
2DA5
  5
2DA5
331
2D66
  5
2D66
331
2DD8
  5
2DD8
331
2DA1
  5
2DA1
331
2D62
  5
2D62
331
1EAC
  5
1EAC
331
FF2
  5
FF2
331
12A9
  5
12A9
331
2737
  5
272D
331
12A5
  5
12A5
331
2733
  5
2735
331
1AE8
  5
1AE8
331
12A1
  5
12A1
331
30AF
  5
30A7
331
2D0F
  5
2D0F
331
30AB
  5
30DC
331
2CCC
  5
2CCC
331
2C95
  5
2C95
331
2D0B
  5
2D0B
331
30A7
  5
30D8
331
2E17
  5
2E17
331
30DA
  5
3001
331
2CC8
  5
2CC8
331
2D07
  5
2D07
331
2A6A
  5
2A93
331
2C91
  5
2C91
331
30A3
  5
30D4
331
2DD4
  5
2DD4
331
2E13
  5
2E13
331
2D5E
  5
2D5E
331
2D9D
  5
2D9D
331
2CC4
  5
2CC4
331
2A66
  5
2A8C
331
2C8D
  5
2C8D
331
2D03
  5
2D03
331
2DD0
  5
2DD0
331
2E0F
  5
2E0F
331
2D5A
  5
2D5A
331
2D99
  5
2D99
331
2CC0
  5
2CC0
331
2A62
  5
2A84
331
2C89
  5
2C89
331
2DCC
  5
2DCC
331
2D56
  5
2D56
331
2D95
  5
2D95
331
2E0B
  5
2E0B
331
2DC8
  5
2DC8
331
2D52
  5
2D52
331
2D91
  5
2D91
331
272F
  5
2771
331
129D
  5
129D
331
272B
  5
2730
331
1299
  5
1299
331
2727
  5
2777
331
2A5E
  5
2A7D
331
1295
  5
1295
331
1AE4
  5
1A00
331
2723
  5
2779
331
2A5A
  5
2A75
331
1AE0
  5
1ADA
331
1291
  5
1291
331
DB2
  5
DB2
331
309F
  5
30D0
331
2CFF
  5
2CFF
331
309B
  5
30CC
331
2C85
  5
2C85
331
2CFB
  5
2CFB
331
3097
  5
30C9
331
30D6
  5
3003
331
2E07
  5
2E07
331
30D2
  5
3013
331
2CF7
  5
2CF7
331
2C81
  5
2C81
331
3093
  5
30C5
331
2E03
  5
2E03
331
2D8D
  5
2D8D
331
2D3A
  5
2D3A
331
2CF3
  5
2CF3
331
2C7D
  5
2C7D
331
2CBC
  5
2CBC
331
2DFF
  5
2DFF
331
2D89
  5
2D89
331
2CB8
  5
2CB8
331
2C79
  5
2C79
331
2DC4
  5
2DC4
331
2D85
  5
2D85
331
2DFB
  5
2DFB
331
2DC0
  5
2DC0
331
2D81
  5
2D81
331
27A6
  5
2701
331
27A2
  5
271D
331
1ADC
  5
1AE5
331
128D
  5
128D
331
271B
  5
27B6
331
279E
  5
2721
331
1AD8
  5
1ADC
331
1289
  5
1289
331
2717
  5
27B2
331
279A
  5
2715
331
1285
  5
1285
331
2713
  5
27AE
331
1281
  5
1281
331
30CE
  5
301D
331
308F
  5
30C1
331
30CA
  5
302B
331
2CEF
  5
2CEF
331
308B
  5
30BD
331
30C6
  5
3025
331
2CB4
  5
2CB4
331
2CEB
  5
2CEB
331
3087
  5
30B9
331
2DF7
  5
2DF7
331
30C2
  5
3088
331
2CE7
  5
2CE7
331
2CB0
  5
2CB0
331
3083
  5
30B5
331
2DF3
  5
2DF3
331
2D7D
  5
2D7D
331
2DBC
  5
2DBC
331
2D22
  5
2D22
331
2CAC
  5
2CAC
331
2CE3
  5
2CE3
331
2DEF
  5
2DEF
331
2D79
  5
2D79
331
2DB8
  5
2DB8
331
2CA8
  5
2CA8
331
2DB4
  5
2DB4
331
2D75
  5
2D75
331
2DEB
  5
2DEB
331
2DB0
  5
2DB0
331
2D71
  5
2D71
331
2796
  5
26F0
331
1AA4
  5
1AA6
331
2792
  5
2705
331
1279
  5
1279
331
16BC
  5
19FF
331
1275
  5
1275
331
30BE
  5
307C
331
307F
  5
30B1
331
30BA
  5
308E
331
2D1E
  5
2D1E
331
2CDF
  5
2CDF
331
307B
  5
30AD
331
2D1A
  5
2D1A
331
2CA4
  5
2CA4
331
2CDB
  5
2CDB
331
30B6
  5
3098
331
2DE7
  5
2DE7
331
2D16
  5
2D16
331
2CD7
  5
2CD7
331
2CA0
  5
2CA0
331
30B2
  5
3096
331
2DE3
  5
2DE3
331
2DAC
  5
2DAC
331
2D12
  5
2D12
331
2C9C
  5
2C9C
331
2CD3
  5
2CD3
331
2DDF
  5
2DDF
331
2DA8
  5
2DA8
331
2C98
  5
2C98
331
2E1A
  5
2E1A
331
2DDB
  5
2DDB
331
2DA4
  5
2DA4
331
2D65
  5
2D65
331
2DA0
  5
2DA0
331
2D61
  5
2D61
331
1EAB
  5
1EAB
331
FF1
  5
FF1
331
12A8
  5
12A8
331
2736
  5
2736
331
1AEB
  5
1AEB
331
12A4
  5
12A4
331
2732
  5
272C
331
12A0
  5
12A0
331
30AE
  5
30A9
331
301B
  5
3085
331
2CCF
  5
2CCF
331
2D0E
  5
2D0E
331
30AA
  5
30DB
331
30DD
  5
2FFD
331
2CCB
  5
2CCB
331
2C94
  5
2C94
331
2D0A
  5
2D0A
331
30A6
  5
30D7
331
2DD7
  5
2DD7
331
2E16
  5
2E16
331
30D9
  5
300F
331
2CC7
  5
2CC7
331
2D06
  5
2D06
331
2A69
  5
2A91
331
2C90
  5
2C90
331
30A2
  5
30D3
331
2DD3
  5
2DD3
331
2E12
  5
2E12
331
2D5D
  5
2D5D
331
2D9C
  5
2D9C
331
2CC3
  5
2CC3
331
2A65
  5
2A8A
331
2C8C
  5
2C8C
331
2D02
  5
2D02
331
2DCF
  5
2DCF
331
2D59
  5
2D59
331
2D98
  5
2D98
331
2E0E
  5
2E0E
331
2A61
  5
2A82
331
2C88
  5
2C88
331
2DCB
  5
2DCB
331
2D55
  5
2D55
331
2D94
  5
2D94
331
2E0A
  5
2E0A
331
2D51
  5
2D51
331
2D90
  5
2D90
331
272E
  5
2738
331
129C
  5
129C
331
272A
  5
2774
331
1AE7
  5
1AE7
331
1298
  5
1298
331
2726
  5
2732
331
2A5D
  5
2A7B
331
1294
  5
1294
331
2722
  5
277A
331
2A59
  5
2A73
331
1290
  5
1290
331
DB5
  5
DB5
331
309E
  5
30CF
331
2CFE
  5
2CFE
331
30D5
  5
3015
331
2C84
  5
2C84
331
2CFA
  5
2CFA
331
3096
  5
30C8
331
2E06
  5
2E06
331
30D1
  5
3005
331
2CF6
  5
2CF6
331
2C80
  5
2C80
331
2CBF
  5
2CBF
331
3092
  5
30C4
331
2E02
  5
2E02
331
2D8C
  5
2D8C
331
2D39
  5
2D39
331
2CF2
  5
2CF2
331
2C7C
  5
2C7C
331
2CBB
  5
2CBB
331
2DC7
  5
2DC7
331
2D88
  5
2D88
331
2DFE
  5
2DFE
331
2C78
  5
2C78
331
2DC3
  5
2DC3
331
2D84
  5
2D84
331
2DFA
  5
2DFA
331
2D80
  5
2D80
331
27A5
  5
2727
331
1ADF
  5
1AE1
331
271E
  5
27B9
331
27A1
  5
271B
331
1ADB
  5
1AE4
331
128C
  5
128C
331
271A
  5
27B5
331
279D
  5
271F
331
1AD7
  5
1AD9
331
1288
  5
1288
331
2716
  5
27B1
331
2799
  5
2713
331
1284
  5
1284
331
2712
  5
27AD
331
30CD
  5
301F
331
308E
  5
30C0
331
30C9
  5
302D
331
2CB7
  5
2CB7
331
2CEE
  5
2CEE
331
308A
  5
30BC
331
30C5
  5
3009
331
2CB3
  5
2CB3
331
2CEA
  5
2CEA
331
3086
  5
30B8
331
2DF6
  5
2DF6
331
2DBF
  5
2DBF
331
30C1
  5
30A1
331
2CAF
  5
2CAF
331
2CE6
  5
2CE6
331
3082
  5
30B4
331
2DF2
  5
2DF2
331
2D7C
  5
2D7C
331
2DBB
  5
2DBB
331
2D21
  5
2D21
331
2BAC
  5
2BAC
331
2CAB
  5
2CAB
331
2CE2
  5
2CE2
331
2DB7
  5
2DB7
331
2D78
  5
2D78
331
2DEE
  5
2DEE
331
2BA8
  5
2BA8
331
2DB3
  5
2DB3
331
2D74
  5
2D74
331
2DEA
  5
2DEA
331
2D70
  5
2D70
331
2795
  5
26E8
331
1AA3
  5
1AA5
331
127C
  5
127C
331
2791
  5
2711
331
1278
  5
1278
331
16BB
  5
16BB
331
30BD
  5
3080
331
307E
  5
30B0
331
2D1D
  5
2D1D
331
2CA7
  5
2CA7
331
2CDE
  5
2CDE
331
30B9
  5
3090
331
2D19
  5
2D19
331
2BA4
  5
2BA4
331
2CA3
  5
2CA3
331
2CDA
  5
2CDA
331
30B5
  5
309B
331
2DE6
  5
2DE6
331
2DAF
  5
2DAF
331
2D15
  5
2D15
331
2C9F
  5
2C9F
331
2CD6
  5
2CD6
331
30B1
  5
30A3
331
2DE2
  5
2DE2
331
2DAB
  5
2DAB
331
2D11
  5
2D11
331
2C9B
  5
2C9B
331
2CD2
  5
2CD2
331
2E1D
  5
2E1D
331
2DDE
  5
2DDE
331
2DA7
  5
2DA7
331
2D68
  5
2D68
331
2E19
  5
2E19
331
2DDA
  5
2DDA
331
2DA3
  5
2DA3
331
2D64
  5
2D64
331
2D60
  5
2D60
331
1EAE
  5
1EAE
331
12AB
  5
12AB
331
1EAA
  5
1EAA
331
2735
  5
2737
331
FF0
  5
FF0
331
2731
  5
272E
331
1AEA
  5
1AEA
331
12A3
  5
12A3
331
30AD
  5
30AB
331
2CCE
  5
2CCE
331
2C97
  5
2C97
331
2D0D
  5
2D0D
331
30A9
  5
30DA
331
30DC
  5
300D
331
2CCA
  5
2CCA
331
2A6C
  5
2A97
331
2C93
  5
2C93
331
2D09
  5
2D09
331
30A5
  5
30D6
331
2DD6
  5
2DD6
331
2E15
  5
2E15
331
2D9F
  5
2D9F
331
30D8
  5
3023
331
2CC6
  5
2CC6
331
2C8F
  5
2C8F
331
2D05
  5
2D05
331
30A1
  5
30D2
331
2DD2
  5
2DD2
331
2E11
  5
2E11
331
2D5C
  5
2D5C
331
2D9B
  5
2D9B
331
2CC2
  5
2CC2
331
2A64
  5
2A88
331
2C8B
  5
2C8B
331
2D01
  5
2D01
331
2DCE
  5
2DCE
331
2D58
  5
2D58
331
2D97
  5
2D97
331
2E0D
  5
2E0D
331
2A60
  5
2A80
331
2DCA
  5
2DCA
331
2D54
  5
2D54
331
2D93
  5
2D93
331
2E09
  5
2E09
331
2D50
  5
2D50
331
272D
  5
273D
331
129F
  5
129F
331
2729
  5
2775
331
129B
  5
129B
331
2725
  5
2733
331
2A5C
  5
2A79
331
1297
  5
1297
331
1AE6
  5
1AE6
331
2721
  5
2773
331
2A58
  5
2A71
331
1293
  5
1293
331
DB4
  5
DB4
  0
ACDBDETAILVIEWSTYLE
  5
21C
102
{ACAD_XDICTIONARY
360
236
102
}
102
{ACAD_REACTORS
330
21B
102
}
330
21B
100
AcDbModelDocViewStyle
 70
     0
  3
Metric50
290
     0
100
AcDbDetailViewStyle
 70
     0
 71
     0
 90
        3
 71
     1
340
11
 62
   256
 40
5.0
340
0
 62
   256
 40
5.0
300

 40
0.0
280
     1
 71
     2
340
16
 90
       25
 62
   256
 71
     3
340
11
 62
   256
 40
5.0
 90
        0
 40
15.0
 90
        1
300
%<\AcVar ViewDetailId>% (%<\AcVar ViewScale \f "%sn">%)
 71
     4
340
16
 90
       25
 62
   256
340
16
 90
       25
 62
   256
280
     0
  0
LAYOUT
  5
D3
102
{ACAD_REACTORS
330
1A
102
}
330
1A
100
AcDbPlotSettings
  1

  2
C:\Documents and Settings\basas\Application Data\Autodesk\AutoCAD 2005\R16.1\enu\plotters\Default Windows System Printer.pc3
  4

  6

 40
0.0
 41
0.0
 42
0.0
 43
0.0
 44
0.0
 45
0.0
 46
0.0
 47
0.0
 48
0.0
 49
0.0
140
0.0
141
0.0
142
1.0
143
1.0
 70
   688
 72
     0
 73
     0
 74
     5
  7

 75
    16
147
1.0
 76
     0
 77
     2
 78
   300
148
0.0
149
0.0
100
AcDbLayout
  1
Layout1
 70
     1
 71
     1
 10
0.0
 20
0.0
 11
12.0
 21
9.0
 12
0.0
 22
0.0
 32
0.0
 14
0.0
 24
0.0
 34
0.0
 15
0.0
 25
0.0
 35
0.0
146
0.0
 13
0.0
 23
0.0
 33
0.0
 16
1.0
 26
0.0
 36
0.0
 17
0.0
 27
1.0
 37
0.0
 76
     0
330
D2
  0
LAYOUT
  5
D7
102
{ACAD_REACTORS
330
1A
102
}
330
1A
100
AcDbPlotSettings
  1

  2
C:\Documents and Settings\basas\Application Data\Autodesk\AutoCAD 2005\R16.1\enu\plotters\Default Windows System Printer.pc3
  4

  6

 40
0.0
 41
0.0
 42
0.0
 43
0.0
 44
0.0
 45
0.0
 46
0.0
 47
0.0
 48
0.0
 49
0.0
140
0.0
141
0.0
142
1.0
143
1.0
 70
   688
 72
     0
 73
     0
 74
     5
  7

 75
    16
147
1.0
 76
     0
 77
     2
 78
   300
148
0.0
149
0.0
100
AcDbLayout
  1
Layout2
 70
     1
 71
     2
 10
0.0
 20
0.0
 11
12.0
 21
9.0
 12
0.0
 22
0.0
 32
0.0
 14
0.0
 24
0.0
 34
0.0
 15
0.0
 25
0.0
 35
0.0
146
0.0
 13
0.0
 23
0.0
 33
0.0
 16
1.0
 26
0.0
 36
0.0
 17
0.0
 27
1.0
 37
0.0
 76
     0
330
D6
  0
LAYOUT
  5
22
102
{ACAD_XDICTIONARY
360
205
102
}
102
{ACAD_REACTORS
330
1A
102
}
330
1A
100
AcDbPlotSettings
  1

  2
none_device
  4
ISO_A4_(210.00_x_297.00_MM)
  6

 40
7.5
 41
20.0
 42
7.5
 43
20.0
 44
210.0
 45
297.0
 46
11.54999923706054
 47
-13.65000009536743
 48
0.0
 49
0.0
140
0.0
141
0.0
142
1.0
143
8.704084754739808
 70
 11952
 72
     1
 73
     0
 74
     0
  7

 75
     0
147
0.1148885871608098
 76
     0
 77
     2
 78
   300
148
0.0
149
0.0
100
AcDbLayout
  1
Model
 70
     1
 71
     0
 10
0.0
 20
0.0
 11
12.0
 21
9.0
 12
0.0
 22
0.0
 32
0.0
 14
0.0
 24
0.0
 34
0.0
 15
0.0
 25
0.0
 35
0.0
146
0.0
 13
0.0
 23
0.0
 33
0.0
 16
1.0
 26
0.0
 36
0.0
 17
0.0
 27
1.0
 37
0.0
 76
     0
330
1F
331
EA
1001
ACAD_PSEXT
1000
None
1000
None
1000
Not applicable
1000
The layout will not be plotted unless a new plotter configuration name is selected.
1070
     0
  0
MATERIAL
  5
ED
102
{ACAD_XDICTIONARY
360
1F9
102
}
102
{ACAD_REACTORS
330
6A
102
}
330
6A
100
AcDbMaterial
  1
ByBlock
 94
       63
  0
MATERIAL
  5
EC
102
{ACAD_XDICTIONARY
360
1F7
102
}
102
{ACAD_REACTORS
330
6A
102
}
330
6A
100
AcDbMaterial
  1
ByLayer
 94
       63
  0
MATERIAL
  5
EE
102
{ACAD_XDICTIONARY
360
173
102
}
102
{ACAD_REACTORS
330
6A
102
}
330
6A
100
AcDbMaterial
  1
Global
 43
0.0007999999797903
 43
0.0
 43
0.0
 43
0.0
 43
0.0
 43
0.0007999999797903
 43
0.0
 43
0.0
 43
0.0
 43
0.0
 43
1.0
 43
0.0
 43
0.0
 43
0.0
 43
0.0
 43
1.0
 49
0.0007999999797903
 49
0.0
 49
0.0
 49
0.0
 49
0.0
 49
0.0007999999797903
 49
0.0
 49
0.0
 49
0.0
 49
0.0
 49
1.0
 49
0.0
 49
0.0
 49
0.0
 49
0.0
 49
1.0
142
0.0007999999797903
142
0.0
142
0.0
142
0.0
142
0.0
142
0.0007999999797903
142
0.0
142
0.0
142
0.0
142
0.0
142
1.0
142
0.0
142
0.0
142
0.0
142
0.0
142
1.0
144
0.0007999999797903
144
0.0
144
0.0
144
0.0
144
0.0
144
0.0007999999797903
144
0.0
144
0.0
144
0.0
144
0.0
144
1.0
144
0.0
144
0.0
144
0.0
144
0.0
144
1.0
 94
       63
1001
ACAD
1070
    -1
1070
     3
1070
     0
1000

1071
        0
1070
     0
  0
MLEADERSTYLE
  5
13B
102
{ACAD_REACTORS
330
12D
102
}
330
12D
100
AcDbMLeaderStyle
179
     2
170
     2
171
     1
172
     0
 90
        2
 40
0.0
 41
0.0
173
     1
 91
-1056964608
340
14
 92
       -2
290
     1
 42
2.0
291
     1
 43
8.0
  3
Standard
 44
4.0
300

342
11
174
     1
178
     1
175
     1
176
     0
 93
-1056964608
 45
4.0
292
     0
297
     0
 46
4.0
 94
-1056964608
 47
1.0
 49
1.0
140
1.0
293
     1
141
0.0
294
     1
177
     0
142
1.0
295
     0
296
     1
143
3.75
271
     0
272
     9
273
     9
  0
MLEADERSTYLE
  5
12E
102
{ACAD_REACTORS
330
12D
102
}
330
12D
100
AcDbMLeaderStyle
179
     2
170
     2
171
     1
172
     0
 90
        2
 40
0.0
 41
0.0
173
     1
 91
-1056964608
340
14
 92
       -2
290
     1
 42
2.0
291
     1
 43
8.0
  3
Standard
 44
4.0
300

342
11
174
     1
178
     1
175
     1
176
     0
 93
-1056964608
 45
4.0
292
     0
297
     0
 46
4.0
 94
-1056964608
 47
1.0
 49
1.0
140
1.0
293
     1
141
0.0
294
     1
177
     0
142
1.0
295
     0
296
     0
143
3.75
271
     0
272
     9
273
     9
  0
MLINESTYLE
  5
18
102
{ACAD_REACTORS
330
17
102
}
330
17
100
AcDbMlineStyle
  2
STANDARD
 70
     0
  3

 62
   256
 51
90.0
 52
90.0
 71
     2
 49
0.5
 62
   256
  6
BYLAYER
 49
-0.5
 62
   256
  6
BYLAYER
  0
ACDBPLACEHOLDER
  5
F
102
{ACAD_REACTORS
330
E
102
}
330
E
  0
SCALE
  5
10D
102
{ACAD_REACTORS
330
10C
102
}
330
10C
100
AcDbScale
 70
     0
300
1:1
140
1.0
141
1.0
290
     1
  0
SCALE
  5
1BE
102
{ACAD_REACTORS
330
10C
102
}
330
10C
100
AcDbScale
 70
     0
300
1:2
140
1.0
141
2.0
290
     0
  0
SCALE
  5
1BF
102
{ACAD_REACTORS
330
10C
102
}
330
10C
100
AcDbScale
 70
     0
300
1:4
140
1.0
141
4.0
290
     0
  0
SCALE
  5
1C0
102
{ACAD_REACTORS
330
10C
102
}
330
10C
100
AcDbScale
 70
     0
300
1:5
140
1.0
141
5.0
290
     0
  0
SCALE
  5
1C1
102
{ACAD_REACTORS
330
10C
102
}
330
10C
100
AcDbScale
 70
     0
300
1:8
140
1.0
141
8.0
290
     0
  0
SCALE
  5
1C2
102
{ACAD_REACTORS
330
10C
102
}
330
10C
100
AcDbScale
 70
     0
300
1:10
140
1.0
141
10.0
290
     0
  0
SCALE
  5
1C3
102
{ACAD_REACTORS
330
10C
102
}
330
10C
100
AcDbScale
 70
     0
300
1:16
140
1.0
141
16.0
290
     0
  0
SCALE
  5
1C4
102
{ACAD_REACTORS
330
10C
102
}
330
10C
100
AcDbScale
 70
     0
300
1:20
140
1.0
141
20.0
290
     0
  0
SCALE
  5
1C5
102
{ACAD_REACTORS
330
10C
102
}
330
10C
100
AcDbScale
 70
     0
300
1:30
140
1.0
141
30.0
290
     0
  0
SCALE
  5
1C6
102
{ACAD_REACTORS
330
10C
102
}
330
10C
100
AcDbScale
 70
     0
300
1:40
140
1.0
141
40.0
290
     0
  0
SCALE
  5
1C7
102
{ACAD_REACTORS
330
10C
102
}
330
10C
100
AcDbScale
 70
     0
300
1:50
140
1.0
141
50.0
290
     0
  0
SCALE
  5
1C8
102
{ACAD_REACTORS
330
10C
102
}
330
10C
100
AcDbScale
 70
     0
300
1:100
140
1.0
141
100.0
290
     0
  0
SCALE
  5
1C9
102
{ACAD_REACTORS
330
10C
102
}
330
10C
100
AcDbScale
 70
     0
300
2:1
140
2.0
141
1.0
290
     0
  0
SCALE
  5
1CA
102
{ACAD_REACTORS
330
10C
102
}
330
10C
100
AcDbScale
 70
     0
300
4:1
140
4.0
141
1.0
290
     0
  0
SCALE
  5
1CB
102
{ACAD_REACTORS
330
10C
102
}
330
10C
100
AcDbScale
 70
     0
300
8:1
140
8.0
141
1.0
290
     0
  0
SCALE
  5
1CC
102
{ACAD_REACTORS
330
10C
102
}
330
10C
100
AcDbScale
 70
     0
300
10:1
140
10.0
141
1.0
290
     0
  0
SCALE
  5
1CD
102
{ACAD_REACTORS
330
10C
102
}
330
10C
100
AcDbScale
 70
     0
300
100:1
140
100.0
141
1.0
290
     0
  0
ACDBSECTIONVIEWSTYLE
  5
21A
102
{ACAD_XDICTIONARY
360
234
102
}
102
{ACAD_REACTORS
330
219
102
}
330
219
100
AcDbModelDocViewStyle
 70
     0
  3
Metric50
290
     0
100
AcDbSectionViewStyle
 70
     0
 71
     0
 90
      102
 71
     1
340
11
 62
   256
 40
5.0
340
0
340
0
 62
   256
 40
5.0
300
I, O, Q, S, X, Z
 40
10.0
 90
        0
 40
2.5
 90
        0
 71
     2
340
16
 90
       25
 62
   256
340
16
 90
       50
 62
   256
 40
5.0
 40
2.5
 40
5.0
 71
     3
340
11
 62
   256
 40
5.0
 90
        0
 40
15.0
 90
        1
300
%<\AcVar ViewSectionStartId>%-%<\AcVar ViewSectionEndId>% (%<\AcVar ViewScale \f "%sn">%)
 71
     4
 62
   256
 62
   257
300
ANSI31
 40
1.0
 90
        0
290
     0
290
     0
 90
        6
 40
0.0
 40
1.570796326794896
 40
0.2617993877991494
 40
1.308996938995747
 40
-0.2617993877991494
 40
1.832595714594046
  0
TABLESTYLE
  5
7F
102
{ACAD_XDICTIONARY
360
162
102
}
102
{ACAD_REACTORS
330
7E
102
}
330
7E
100
AcDbTableStyle
280
     0
  3
Standard
 70
     0
 71
     0
 40
1.5
 41
1.5
280
     0
281
     0
  7
Standard
140
4.5
170
     2
 62
     0
 63
     7
283
     0
 90
      512
 91
        0
  1

274
    -2
284
     1
 64
     0
275
    -2
285
     1
 65
     0
276
    -2
286
     1
 66
     0
277
    -2
287
     1
 67
     0
278
    -2
288
     1
 68
     0
279
    -2
289
     1
 69
     0
  7
Standard
140
6.0
170
     5
 62
     0
 63
     7
283
     0
 90
      512
 91
        0
  1

274
    -2
284
     1
 64
     0
275
    -2
285
     1
 65
     0
276
    -2
286
     1
 66
     0
277
    -2
287
     1
 67
     0
278
    -2
288
     1
 68
     0
279
    -2
289
     1
 69
     0
  7
Standard
140
4.5
170
     5
 62
     0
 63
     7
283
     0
 90
      512
 91
        0
  1

274
    -2
284
     1
 64
     0
275
    -2
285
     1
 65
     0
276
    -2
286
     1
 66
     0
277
    -2
287
     1
 67
     0
278
    -2
288
     1
 68
     0
279
    -2
289
     1
 69
     0
  0
VISUALSTYLE
  5
F5
102
{ACAD_XDICTIONARY
360
3278
102
}
102
{ACAD_REACTORS
330
EF
102
}
330
EF
100
AcDbVisualStyle
  2
2dWireframe
 70
     4
177
     2
291
     0
 71
     0
176
     1
 72
     2
176
     1
 73
     1
176
     1
 90
        0
176
     1
 40
0.6
176
     1
 41
30.0
176
     1
 63
     7
421
 16777215
176
     1
 74
     1
176
     1
 91
        4
176
     1
 64
     7
176
     1
 65
   257
176
     1
 75
     1
176
     1
175
     1
176
     1
 42
1.0
176
     1
 92
        0
176
     1
 66
   257
176
     1
 43
1.0
176
     1
 76
     1
176
     1
 77
     6
176
     1
 78
     2
176
     1
 67
     7
176
     1
 79
     5
176
     1
170
     0
176
     1
171
     0
176
     1
290
     0
176
     1
 93
        1
176
     1
 44
0.0
176
     1
173
     0
176
     1
1001
ACAD
1000
AcDbSavedByObjectVersion
1070
     0
  0
VISUALSTYLE
  5
F4
102
{ACAD_XDICTIONARY
360
3276
102
}
102
{ACAD_REACTORS
330
EF
102
}
330
EF
100
AcDbVisualStyle
  2
Basic
 70
     7
177
     2
291
     1
 71
     1
176
     1
 72
     0
176
     1
 73
     1
176
     1
 90
        0
176
     1
 40
0.6
176
     1
 41
30.0
176
     1
 63
     7
421
 16777215
176
     1
 74
     0
176
     1
 91
        4
176
     1
 64
     7
176
     1
 65
   257
176
     1
 75
     1
176
     1
175
     1
176
     1
 42
1.0
176
     1
 92
        8
176
     1
 66
     7
176
     1
 43
1.0
176
     1
 76
     1
176
     1
 77
     6
176
     1
 78
     2
176
     1
 67
     7
176
     1
 79
     5
176
     1
170
     0
176
     1
171
     0
176
     1
290
     0
176
     1
 93
        1
176
     1
 44
0.0
176
     1
173
     0
176
     1
1001
ACAD
1000
AcDbSavedByObjectVersion
1070
     0
  0
VISUALSTYLE
  5
FB
102
{ACAD_XDICTIONARY
360
3284
102
}
102
{ACAD_REACTORS
330
EF
102
}
330
EF
100
AcDbVisualStyle
  2
Brighten
 70
    12
177
     2
291
     1
 71
     2
176
     1
 72
     2
176
     1
 73
     1
176
     1
 90
        0
176
     1
 40
0.6
176
     1
 41
30.0
176
     1
 63
     7
421
 16777215
176
     1
 74
     1
176
     1
 91
        4
176
     1
 64
     7
176
     1
 65
   257
176
     1
 75
     1
176
     1
175
     1
176
     1
 42
1.0
176
     1
 92
        8
176
     1
 66
     7
176
     1
 43
1.0
176
     1
 76
     1
176
     1
 77
     6
176
     1
 78
     2
176
     1
 67
     7
176
     1
 79
     5
176
     1
170
     0
176
     1
171
     0
176
     1
290
     0
176
     1
 93
        1
176
     1
 44
50.0
176
     1
173
     0
176
     1
1001
ACAD
1000
AcDbSavedByObjectVersion
1070
     0
  0
VISUALSTYLE
  5
FF
102
{ACAD_XDICTIONARY
360
328C
102
}
102
{ACAD_REACTORS
330
EF
102
}
330
EF
100
AcDbVisualStyle
  2
ColorChange
 70
    16
177
     2
291
     1
 71
     2
176
     1
 72
     2
176
     1
 73
     3
176
     1
 90
        0
176
     1
 40
0.6
176
     1
 41
30.0
176
     1
 63
     8
421
  8421504
176
     1
 74
     1
176
     1
 91
        4
176
     1
 64
     7
176
     1
 65
   257
176
     1
 75
     1
176
     1
175
     1
176
     1
 42
1.0
176
     1
 92
        8
176
     1
 66
     8
424
  8421504
176
     1
 43
1.0
176
     1
 76
     1
176
     1
 77
     6
176
     1
 78
     2
176
     1
 67
     7
176
     1
 79
     5
176
     1
170
     0
176
     1
171
     0
176
     1
290
     0
176
     1
 93
        1
176
     1
 44
0.0
176
     1
173
     0
176
     1
1001
ACAD
1000
AcDbSavedByObjectVersion
1070
     0
  0
VISUALSTYLE
  5
F8
102
{ACAD_XDICTIONARY
360
327E
102
}
102
{ACAD_REACTORS
330
EF
102
}
330
EF
100
AcDbVisualStyle
  2
Conceptual
 70
     9
177
     2
291
     0
 71
     3
176
     1
 72
     2
176
     1
 73
     1
176
     1
 90
        0
176
     1
 40
0.6
176
     1
 41
30.0
176
     1
 63
     7
421
 16777215
176
     1
 74
     2
176
     1
 91
        2
176
     1
 64
     7
176
     1
 65
   257
176
     1
 75
     1
176
     1
175
     1
176
     1
 42
40.0
176
     1
 92
        8
176
     1
 66
     7
176
     1
 43
1.0
176
     1
 76
     1
176
     1
 77
     6
176
     1
 78
     2
176
     1
 67
     7
176
     1
 79
     3
176
     1
170
     0
176
     1
171
     0
176
     1
290
     0
176
     1
 93
        1
176
     1
 44
0.0
176
     1
173
     0
176
     1
1001
ACAD
1000
AcDbSavedByObjectVersion
1070
     0
  0
VISUALSTYLE
  5
FA
102
{ACAD_XDICTIONARY
360
3282
102
}
102
{ACAD_REACTORS
330
EF
102
}
330
EF
100
AcDbVisualStyle
  2
Dim
 70
    11
177
     2
291
     1
 71
     2
176
     1
 72
     2
176
     1
 73
     1
176
     1
 90
        0
176
     1
 40
0.6
176
     1
 41
30.0
176
     1
 63
     7
421
 16777215
176
     1
 74
     1
176
     1
 91
        4
176
     1
 64
     7
176
     1
 65
   257
176
     1
 75
     1
176
     1
175
     1
176
     1
 42
1.0
176
     1
 92
        8
176
     1
 66
     7
176
     1
 43
1.0
176
     1
 76
     1
176
     1
 77
     6
176
     1
 78
     2
176
     1
 67
     7
176
     1
 79
     5
176
     1
170
     0
176
     1
171
     0
176
     1
290
     0
176
     1
 93
        1
176
     1
 44
-50.0
176
     1
173
     0
176
     1
1001
ACAD
1000
AcDbSavedByObjectVersion
1070
     0
  0
VISUALSTYLE
  5
1E6
102
{ACAD_XDICTIONARY
360
3292
102
}
102
{ACAD_REACTORS
330
EF
102
}
330
EF
100
AcDbVisualStyle
  2
EdgeColorOff
 70
    22
177
     2
291
     1
 71
     2
176
     0
 72
     2
176
     0
 73
     0
176
     0
 90
        0
176
     0
 40
0.6
176
     0
 41
30.0
176
     0
 63
     7
421
 16777215
176
     0
 74
     1
176
     0
 91
        4
176
     0
 64
     7
176
     0
 65
   257
176
     0
 75
     1
176
     0
175
     1
176
     0
 42
1.0
176
     0
 92
        8
176
     2
 66
     7
176
     0
 43
1.0
176
     0
 76
     1
176
     0
 77
     6
176
     0
 78
     2
176
     0
 67
     7
176
     0
 79
     5
176
     0
170
     0
176
     0
171
     0
176
     0
290
     0
176
     0
 93
        1
176
     0
 44
0.0
176
     0
173
     0
176
     0
1001
ACAD
1000
AcDbSavedByObjectVersion
1070
     0
  0
VISUALSTYLE
  5
FE
102
{ACAD_XDICTIONARY
360
328A
102
}
102
{ACAD_REACTORS
330
EF
102
}
330
EF
100
AcDbVisualStyle
  2
Facepattern
 70
    15
177
     2
291
     1
 71
     2
176
     1
 72
     2
176
     1
 73
     1
176
     1
 90
        0
176
     1
 40
0.6
176
     1
 41
30.0
176
     1
 63
     7
421
 16777215
176
     1
 74
     1
176
     1
 91
        4
176
     1
 64
     7
176
     1
 65
   257
176
     1
 75
     1
176
     1
175
     1
176
     1
 42
1.0
176
     1
 92
        8
176
     1
 66
     7
176
     1
 43
1.0
176
     1
 76
     1
176
     1
 77
     6
176
     1
 78
     2
176
     1
 67
     7
176
     1
 79
     5
176
     1
170
     0
176
     1
171
     0
176
     1
290
     0
176
     1
 93
        1
176
     1
 44
0.0
176
     1
173
     0
176
     1
1001
ACAD
1000
AcDbSavedByObjectVersion
1070
     0
  0
VISUALSTYLE
  5
F0
102
{ACAD_XDICTIONARY
360
326E
102
}
102
{ACAD_REACTORS
330
EF
102
}
330
EF
100
AcDbVisualStyle
  2
Flat
 70
     0
177
     2
291
     1
 71
     2
176
     1
 72
     1
176
     1
 73
     1
176
     1
 90
        2
176
     1
 40
0.6
176
     1
 41
30.0
176
     1
 63
     7
421
 16777215
176
     1
 74
     0
176
     1
 91
        0
176
     1
 64
     7
176
     1
 65
   257
176
     1
 75
     1
176
     1
175
     1
176
     1
 42
1.0
176
     1
 92
        8
176
     1
 66
     7
176
     1
 43
1.0
176
     1
 76
     1
176
     1
 77
     6
176
     1
 78
     2
176
     1
 67
     7
176
     1
 79
     5
176
     1
170
     0
176
     1
171
     0
176
     1
290
     0
176
     1
 93
       13
176
     1
 44
0.0
176
     1
173
     0
176
     1
1001
ACAD
1000
AcDbSavedByObjectVersion
1070
     0
  0
VISUALSTYLE
  5
F1
102
{ACAD_XDICTIONARY
360
3270
102
}
102
{ACAD_REACTORS
330
EF
102
}
330
EF
100
AcDbVisualStyle
  2
FlatWithEdges
 70
     1
177
     2
291
     1
 71
     2
176
     1
 72
     1
176
     1
 73
     1
176
     1
 90
        2
176
     1
 40
0.6
176
     1
 41
30.0
176
     1
 63
     7
421
 16777215
176
     1
 74
     1
176
     1
 91
        0
176
     1
 64
     7
176
     1
 65
   257
176
     1
 75
     1
176
     1
175
     1
176
     1
 42
1.0
176
     1
 92
        0
176
     1
 66
   257
176
     1
 43
1.0
176
     1
 76
     1
176
     1
 77
     6
176
     1
 78
     2
176
     1
 67
     7
176
     1
 79
     5
176
     1
170
     0
176
     1
171
     0
176
     1
290
     0
176
     1
 93
       13
176
     1
 44
0.0
176
     1
173
     0
176
     1
1001
ACAD
1000
AcDbSavedByObjectVersion
1070
     0
  0
VISUALSTYLE
  5
F2
102
{ACAD_XDICTIONARY
360
3272
102
}
102
{ACAD_REACTORS
330
EF
102
}
330
EF
100
AcDbVisualStyle
  2
Gouraud
 70
     2
177
     2
291
     1
 71
     2
176
     1
 72
     2
176
     1
 73
     1
176
     1
 90
        2
176
     1
 40
0.6
176
     1
 41
30.0
176
     1
 63
     7
421
 16777215
176
     1
 74
     0
176
     1
 91
        0
176
     1
 64
     7
176
     1
 65
   257
176
     1
 75
     1
176
     1
175
     1
176
     1
 42
1.0
176
     1
 92
        0
176
     1
 66
     7
176
     1
 43
1.0
176
     1
 76
     1
176
     1
 77
     6
176
     1
 78
     2
176
     1
 67
     7
176
     1
 79
     5
176
     1
170
     0
176
     1
171
     0
176
     1
290
     0
176
     1
 93
       13
176
     1
 44
0.0
176
     1
173
     0
176
     1
1001
ACAD
1000
AcDbSavedByObjectVersion
1070
     0
  0
VISUALSTYLE
  5
F3
102
{ACAD_XDICTIONARY
360
3274
102
}
102
{ACAD_REACTORS
330
EF
102
}
330
EF
100
AcDbVisualStyle
  2
GouraudWithEdges
 70
     3
177
     2
291
     1
 71
     2
176
     1
 72
     2
176
     1
 73
     1
176
     1
 90
        2
176
     1
 40
0.6
176
     1
 41
30.0
176
     1
 63
     7
421
 16777215
176
     1
 74
     1
176
     1
 91
        0
176
     1
 64
     7
176
     1
 65
   257
176
     1
 75
     1
176
     1
175
     1
176
     1
 42
1.0
176
     1
 92
        0
176
     1
 66
   257
176
     1
 43
1.0
176
     1
 76
     1
176
     1
 77
     6
176
     1
 78
     2
176
     1
 67
     7
176
     1
 79
     5
176
     1
170
     0
176
     1
171
     0
176
     1
290
     0
176
     1
 93
       13
176
     1
 44
0.0
176
     1
173
     0
176
     1
1001
ACAD
1000
AcDbSavedByObjectVersion
1070
     0
  0
VISUALSTYLE
  5
F7
102
{ACAD_XDICTIONARY
360
327C
102
}
102
{ACAD_REACTORS
330
EF
102
}
330
EF
100
AcDbVisualStyle
  2
Hidden
 70
     6
177
     2
291
     0
 71
     1
176
     1
 72
     2
176
     1
 73
     2
176
     1
 90
        0
176
     1
 40
0.6
176
     1
 41
30.0
176
     1
 63
     7
421
 16777215
176
     1
 74
     2
176
     1
 91
        2
176
     1
 64
     7
176
     1
 65
   257
176
     1
 75
     2
176
     1
175
     1
176
     1
 42
40.0
176
     1
 92
        0
176
     1
 66
   257
176
     1
 43
1.0
176
     1
 76
     1
176
     1
 77
     6
176
     1
 78
     2
176
     1
 67
     7
176
     1
 79
     3
176
     1
170
     0
176
     1
171
     0
176
     1
290
     0
176
     1
 93
        1
176
     1
 44
0.0
176
     1
173
     0
176
     1
1001
ACAD
1000
AcDbSavedByObjectVersion
1070
     0
  0
VISUALSTYLE
  5
1E4
102
{ACAD_XDICTIONARY
360
328E
102
}
102
{ACAD_REACTORS
330
EF
102
}
330
EF
100
AcDbVisualStyle
  2
JitterOff
 70
    20
177
     2
291
     1
 71
     2
176
     0
 72
     2
176
     0
 73
     0
176
     0
 90
        0
176
     0
 40
0.6
176
     0
 41
30.0
176
     0
 63
     7
421
 16777215
176
     0
 74
     1
176
     0
 91
        4
176
     0
 64
     7
176
     0
 65
   257
176
     0
 75
     1
176
     0
175
     1
176
     0
 42
1.0
176
     0
 92
       10
176
     2
 66
     7
176
     0
 43
1.0
176
     0
 76
     1
176
     0
 77
     6
176
     0
 78
     2
176
     0
 67
     7
176
     0
 79
     5
176
     0
170
     0
176
     0
171
     0
176
     0
290
     0
176
     0
 93
        1
176
     0
 44
0.0
176
     0
173
     0
176
     0
1001
ACAD
1000
AcDbSavedByObjectVersion
1070
     0
  0
VISUALSTYLE
  5
FD
102
{ACAD_XDICTIONARY
360
3288
102
}
102
{ACAD_REACTORS
330
EF
102
}
330
EF
100
AcDbVisualStyle
  2
Linepattern
 70
    14
177
     2
291
     1
 71
     2
176
     1
 72
     2
176
     1
 73
     1
176
     1
 90
        0
176
     1
 40
0.6
176
     1
 41
30.0
176
     1
 63
     7
421
 16777215
176
     1
 74
     1
176
     1
 91
        4
176
     1
 64
     7
176
     1
 65
   257
176
     1
 75
     7
176
     1
175
     7
176
     1
 42
1.0
176
     1
 92
        8
176
     1
 66
     7
176
     1
 43
1.0
176
     1
 76
     1
176
     1
 77
     6
176
     1
 78
     2
176
     1
 67
     7
176
     1
 79
     5
176
     1
170
     0
176
     1
171
     0
176
     1
290
     0
176
     1
 93
        1
176
     1
 44
0.0
176
     1
173
     0
176
     1
1001
ACAD
1000
AcDbSavedByObjectVersion
1070
     0
  0
VISUALSTYLE
  5
1E5
102
{ACAD_XDICTIONARY
360
3290
102
}
102
{ACAD_REACTORS
330
EF
102
}
330
EF
100
AcDbVisualStyle
  2
OverhangOff
 70
    21
177
     2
291
     1
 71
     2
176
     0
 72
     2
176
     0
 73
     0
176
     0
 90
        0
176
     0
 40
0.6
176
     0
 41
30.0
176
     0
 63
     7
421
 16777215
176
     0
 74
     1
176
     0
 91
        4
176
     0
 64
     7
176
     0
 65
   257
176
     0
 75
     1
176
     0
175
     1
176
     0
 42
1.0
176
     0
 92
        9
176
     2
 66
     7
176
     0
 43
1.0
176
     0
 76
     1
176
     0
 77
     6
176
     0
 78
     2
176
     0
 67
     7
176
     0
 79
     5
176
     0
170
     0
176
     0
171
     0
176
     0
290
     0
176
     0
 93
        1
176
     0
 44
0.0
176
     0
173
     0
176
     0
1001
ACAD
1000
AcDbSavedByObjectVersion
1070
     0
  0
VISUALSTYLE
  5
F9
102
{ACAD_XDICTIONARY
360
3280
102
}
102
{ACAD_REACTORS
330
EF
102
}
330
EF
100
AcDbVisualStyle
  2
Realistic
 70
     8
177
     2
291
     0
 71
     2
176
     1
 72
     3
176
     1
 73
     0
176
     1
 90
        2
176
     1
 40
0.6
176
     1
 41
30.0
176
     1
 63
     7
421
 16777215
176
     1
 74
     0
176
     1
 91
        0
176
     1
 64
     7
176
     1
 65
   257
176
     1
 75
     1
176
     1
175
     1
176
     1
 42
1.0
176
     1
 92
        8
176
     1
 66
   257
176
     1
 43
1.0
176
     1
 76
     1
176
     1
 77
     6
176
     1
 78
     2
176
     1
 67
     7
176
     1
 79
     3
176
     1
170
     0
176
     1
171
     0
176
     1
290
     0
176
     1
 93
       13
176
     1
 44
0.0
176
     1
173
     0
176
     1
1001
ACAD
1000
AcDbSavedByObjectVersion
1070
     0
  0
VISUALSTYLE
  5
1F3
102
{ACAD_XDICTIONARY
360
329C
102
}
102
{ACAD_REACTORS
330
EF
102
}
330
EF
100
AcDbVisualStyle
  2
Shaded
 70
    27
177
     2
291
     0
 71
     2
176
     1
 72
     2
176
     1
 73
     1
176
     1
 90
        2
176
     1
 40
0.6
176
     1
 41
30.0
176
     1
 63
     7
421
 16777215
176
     1
 74
     0
176
     1
 91
        4
176
     1
 64
     7
176
     1
 65
   257
176
     1
 75
     1
176
     1
175
     1
176
     1
 42
1.0
176
     1
 92
        8
176
     1
 66
   257
176
     1
 43
1.0
176
     1
 76
     1
176
     1
 77
     6
176
     1
 78
     2
176
     1
 67
     8
425
  7895160
176
     1
 79
     3
176
     1
170
     0
176
     1
171
     0
176
     1
290
     0
176
     1
 93
        5
176
     1
 44
0.0
176
     1
173
     0
176
     1
1001
ACAD
1000
AcDbSavedByObjectVersion
1070
     0
  0
VISUALSTYLE
  5
1F2
102
{ACAD_XDICTIONARY
360
329A
102
}
102
{ACAD_REACTORS
330
EF
102
}
330
EF
100
AcDbVisualStyle
  2
Shaded with edges
 70
    26
177
     2
291
     0
 71
     2
176
     1
 72
     2
176
     1
 73
     1
176
     1
 90
        2
176
     1
 40
0.6
176
     1
 41
30.0
176
     1
 63
     7
421
 16777215
176
     1
 74
     1
176
     1
 91
       10
176
     1
 64
     7
176
     1
 65
   257
176
     1
 75
     2
176
     1
175
     1
176
     1
 42
1.0
176
     1
 92
        8
176
     1
 66
   257
176
     1
 43
1.0
176
     1
 76
     1
176
     1
 77
     6
176
     1
 78
     2
176
     1
 67
     7
176
     1
 79
     3
176
     1
170
     0
176
     1
171
     0
176
     1
290
     0
176
     1
 93
        5
176
     1
 44
0.0
176
     1
173
     0
176
     1
1001
ACAD
1000
AcDbSavedByObjectVersion
1070
     0
  0
VISUALSTYLE
  5
1EF
102
{ACAD_XDICTIONARY
360
3294
102
}
102
{ACAD_REACTORS
330
EF
102
}
330
EF
100
AcDbVisualStyle
  2
Shades of Gray
 70
    23
177
     2
291
     0
 71
     2
176
     1
 72
     2
176
     1
 73
     3
176
     1
 90
        0
176
     1
 40
0.6
176
     1
 41
30.0
176
     1
 63
     7
421
 16777215
176
     1
 74
     2
176
     1
 91
        2
176
     1
 64
     7
176
     1
 65
     7
176
     1
 75
     1
176
     1
175
     1
176
     1
 42
40.0
176
     1
 92
        8
176
     1
 66
     7
176
     1
 43
1.0
176
     1
 76
     1
176
     1
 77
     6
176
     1
 78
     2
176
     1
 67
     7
176
     1
 79
     3
176
     1
170
     0
176
     1
171
     0
176
     1
290
     0
176
     1
 93
        1
176
     1
 44
0.0
176
     1
173
     0
176
     1
1001
ACAD
1000
AcDbSavedByObjectVersion
1070
     0
  0
VISUALSTYLE
  5
1F0
102
{ACAD_XDICTIONARY
360
3296
102
}
102
{ACAD_REACTORS
330
EF
102
}
330
EF
100
AcDbVisualStyle
  2
Sketchy
 70
    24
177
     2
291
     0
 71
     1
176
     1
 72
     2
176
     1
 73
     2
176
     1
 90
        0
176
     1
 40
0.6
176
     1
 41
30.0
176
     1
 63
     7
421
 16777215
176
     1
 74
     2
176
     1
 91
        2
176
     1
 64
     7
176
     1
 65
     7
176
     1
 75
     1
176
     1
175
     1
176
     1
 42
40.0
176
     1
 92
       11
176
     1
 66
     7
176
     1
 43
1.0
176
     1
 76
     1
176
     1
 77
     6
176
     1
 78
     2
176
     1
 67
     7
176
     1
 79
     6
176
     1
170
     0
176
     1
171
     0
176
     1
290
     0
176
     1
 93
        1
176
     1
 44
0.0
176
     1
173
     0
176
     1
1001
ACAD
1000
AcDbSavedByObjectVersion
1070
     0
  0
VISUALSTYLE
  5
FC
102
{ACAD_XDICTIONARY
360
3286
102
}
102
{ACAD_REACTORS
330
EF
102
}
330
EF
100
AcDbVisualStyle
  2
Thicken
 70
    13
177
     2
291
     1
 71
     2
176
     1
 72
     2
176
     1
 73
     1
176
     1
 90
        0
176
     1
 40
0.6
176
     1
 41
30.0
176
     1
 63
     7
421
 16777215
176
     1
 74
     1
176
     1
 91
        4
176
     1
 64
     7
176
     1
 65
   257
176
     1
 75
     1
176
     1
175
     1
176
     1
 42
1.0
176
     1
 92
       12
176
     1
 66
     7
176
     1
 43
1.0
176
     1
 76
     1
176
     1
 77
     6
176
     1
 78
     2
176
     1
 67
     7
176
     1
 79
     5
176
     1
170
     0
176
     1
171
     0
176
     1
290
     0
176
     1
 93
        1
176
     1
 44
0.0
176
     1
173
     0
176
     1
1001
ACAD
1000
AcDbSavedByObjectVersion
1070
     0
  0
VISUALSTYLE
  5
F6
102
{ACAD_XDICTIONARY
360
327A
102
}
102
{ACAD_REACTORS
330
EF
102
}
330
EF
100
AcDbVisualStyle
  2
Wireframe
 70
     5
177
     2
291
     0
 71
     0
176
     1
 72
     2
176
     1
 73
     0
176
     1
 90
        0
176
     1
 40
0.6
176
     1
 41
30.0
176
     1
 63
     7
421
 16777215
176
     1
 74
     1
176
     1
 91
        4
176
     1
 64
     7
176
     1
 65
   257
176
     1
 75
     1
176
     1
175
     1
176
     1
 42
1.0
176
     1
 92
        0
176
     1
 66
   257
176
     1
 43
1.0
176
     1
 76
     1
176
     1
 77
     6
176
     1
 78
     2
176
     1
 67
     7
176
     1
 79
     3
176
     1
170
     0
176
     1
171
     0
176
     1
290
     0
176
     1
 93
        1
176
     1
 44
0.0
176
     1
173
     0
176
     1
1001
ACAD
1000
AcDbSavedByObjectVersion
1070
     0
  0
VISUALSTYLE
  5
1F1
102
{ACAD_XDICTIONARY
360
3298
102
}
102
{ACAD_REACTORS
330
EF
102
}
330
EF
100
AcDbVisualStyle
  2
X-Ray
 70
    25
177
     2
291
     0
 71
     2
176
     1
 72
     2
176
     1
 73
     1
176
     1
 90
        1
176
     1
 40
0.5
176
     1
 41
30.0
176
     1
 63
     7
421
 16777215
176
     1
 74
     1
176
     1
 91
        0
176
     1
 64
     7
176
     1
 65
   257
176
     1
 75
     1
176
     1
175
     1
176
     1
 42
1.0
176
     1
 92
        8
176
     1
 66
     7
176
     1
 43
1.0
176
     1
 76
     1
176
     1
 77
     6
176
     1
 78
     2
176
     1
 67
     7
176
     1
 79
     3
176
     1
170
     0
176
     1
171
     0
176
     1
290
     0
176
     1
 93
       13
176
     1
 44
0.0
176
     1
173
     0
176
     1
1001
ACAD
1000
AcDbSavedByObjectVersion
1070
     0
  0
DICTIONARYVAR
  5
146
102
{ACAD_REACTORS
330
5E
102
}
330
5E
100
DictionaryVariables
280
     0
  1
1:1
  0
DICTIONARYVAR
  5
145
102
{ACAD_REACTORS
330
5E
102
}
330
5E
100
DictionaryVariables
280
     0
  1
STANDARD
  0
DICTIONARYVAR
  5
84
102
{ACAD_REACTORS
330
5E
102
}
330
5E
100
DictionaryVariables
280
     0
  1
STANDARD
  0
DICTIONARYVAR
  5
227
102
{ACAD_REACTORS
330
5E
102
}
330
5E
100
DictionaryVariables
280
     0
  1
Metric50
  0
DICTIONARYVAR
  5
228
102
{ACAD_REACTORS
330
5E
102
}
330
5E
100
DictionaryVariables
280
     0
  1
Metric50
  0
DICTIONARYVAR
  5
5F
102
{ACAD_REACTORS
330
5E
102
}
330
5E
100
DictionaryVariables
280
     0
  1
2
  0
DICTIONARYVAR
  5
63
102
{ACAD_REACTORS
330
5E
102
}
330
5E
100
DictionaryVariables
280
     0
  1
1
  0
DICTIONARYVAR
  5
3208
102
{ACAD_REACTORS
330
5E
102
}
330
5E
100
DictionaryVariables
280
     0
  1
0
  0
DICTIONARYVAR
  5
1AE
102
{ACAD_REACTORS
330
5E
102
}
330
5E
100
DictionaryVariables
280
     0
  1
0
  0
DICTIONARYVAR
  5
1AF
102
{ACAD_REACTORS
330
5E
102
}
330
5E
100
DictionaryVariables
280
     0
  1
0
  0
DICTIONARYVAR
  5
3206
102
{ACAD_REACTORS
330
5E
102
}
330
5E
100
DictionaryVariables
280
     0
  1
2
  0
DICTIONARYVAR
  5
3205
102
{ACAD_REACTORS
330
5E
102
}
330
5E
100
DictionaryVariables
280
     0
  1
1
  0
DICTIONARYVAR
  5
320A
102
{ACAD_REACTORS
330
5E
102
}
330
5E
100
DictionaryVariables
280
     0
  1
80.000000
  0
DICTIONARYVAR
  5
3209
102
{ACAD_REACTORS
330
5E
102
}
330
5E
100
DictionaryVariables
280
     0
  1
5.000000
  0
DICTIONARYVAR
  5
3207
102
{ACAD_REACTORS
330
5E
102
}
330
5E
100
DictionaryVariables
280
     0
  1
127
  0
DICTIONARYVAR
  5
320B
102
{ACAD_REACTORS
330
5E
102
}
330
5E
100
DictionaryVariables
280
     0
  1
2
  0
DICTIONARY
  5
326D
102
{ACAD_REACTORS
330
326B
102
}
330
326B
100
AcDbDictionary
281
     1
  0
DICTIONARY
  5
326C
102
{ACAD_REACTORS
330
326B
102
}
330
326B
100
AcDbDictionary
281
     1
  3
140700917218784
350
3266
  3
140700917218800
350
3267
  3
140700917218816
350
3268
  3
140700917218832
350
3269
  3
140700917218848
350
326A
  0
DICTIONARY
  5
236
330
21C
100
AcDbDictionary
280
     1
281
     1
  3
ACAD_XREC_ROUNDTRIP
360
329F
  0
DICTIONARY
  5
205
330
22
100
AcDbDictionary
280
     1
281
     1
  0
DICTIONARY
  5
1F9
330
ED
100
AcDbDictionary
280
     1
281
     1
  3
FBXASSET
360
1FA
  0
DICTIONARY
  5
1F7
330
EC
100
AcDbDictionary
280
     1
281
     1
  3
FBXASSET
360
1F8
  0
DICTIONARY
  5
173
330
EE
100
AcDbDictionary
280
     1
281
     1
  3
BUMPTILE
360
175
  3
DIFFUSETILE
360
174
  3
FBXASSET
360
1FB
  3
OPACITYTILE
360
176
  3
REFLECTIONTILE
360
177
  0
DICTIONARY
  5
234
330
21A
100
AcDbDictionary
280
     1
281
     1
  3
ACAD_XREC_ROUNDTRIP
360
329E
  0
DICTIONARY
  5
162
330
7F
100
AcDbDictionary
280
     1
281
     1
  3
ACAD_ROUNDTRIP_2008_TABLESTYLE_CELLSTYLEMAP
360
3264
  0
DICTIONARY
  5
3278
330
F5
100
AcDbDictionary
280
     1
281
     1
  3
ACAD_XREC_ROUNDTRIP
360
3279
  0
DICTIONARY
  5
3276
330
F4
100
AcDbDictionary
280
     1
281
     1
  3
ACAD_XREC_ROUNDTRIP
360
3277
  0
DICTIONARY
  5
3284
330
FB
100
AcDbDictionary
280
     1
281
     1
  3
ACAD_XREC_ROUNDTRIP
360
3285
  0
DICTIONARY
  5
328C
330
FF
100
AcDbDictionary
280
     1
281
     1
  3
ACAD_XREC_ROUNDTRIP
360
328D
  0
DICTIONARY
  5
327E
330
F8
100
AcDbDictionary
280
     1
281
     1
  3
ACAD_XREC_ROUNDTRIP
360
327F
  0
DICTIONARY
  5
3282
330
FA
100
AcDbDictionary
280
     1
281
     1
  3
ACAD_XREC_ROUNDTRIP
360
3283
  0
DICTIONARY
  5
3292
330
1E6
100
AcDbDictionary
280
     1
281
     1
  3
ACAD_XREC_ROUNDTRIP
360
3293
  0
DICTIONARY
  5
328A
330
FE
100
AcDbDictionary
280
     1
281
     1
  3
ACAD_XREC_ROUNDTRIP
360
328B
  0
DICTIONARY
  5
326E
330
F0
100
AcDbDictionary
280
     1
281
     1
  3
ACAD_XREC_ROUNDTRIP
360
326F
  0
DICTIONARY
  5
3270
330
F1
100
AcDbDictionary
280
     1
281
     1
  3
ACAD_XREC_ROUNDTRIP
360
3271
  0
DICTIONARY
  5
3272
330
F2
100
AcDbDictionary
280
     1
281
     1
  3
ACAD_XREC_ROUNDTRIP
360
3273
  0
DICTIONARY
  5
3274
330
F3
100
AcDbDictionary
280
     1
281
     1
  3
ACAD_XREC_ROUNDTRIP
360
3275
  0
DICTIONARY
  5
327C
330
F7
100
AcDbDictionary
280
     1
281
     1
  3
ACAD_XREC_ROUNDTRIP
360
327D
  0
DICTIONARY
  5
328E
330
1E4
100
AcDbDictionary
280
     1
281
     1
  3
ACAD_XREC_ROUNDTRIP
360
328F
  0
DICTIONARY
  5
3288
330
FD
100
AcDbDictionary
280
     1
281
     1
  3
ACAD_XREC_ROUNDTRIP
360
3289
  0
DICTIONARY
  5
3290
330
1E5
100
AcDbDictionary
280
     1
281
     1
  3
ACAD_XREC_ROUNDTRIP
360
3291
  0
DICTIONARY
  5
3280
330
F9
100
AcDbDictionary
280
     1
281
     1
  3
ACAD_XREC_ROUNDTRIP
360
3281
  0
DICTIONARY
  5
329C
330
1F3
100
AcDbDictionary
280
     1
281
     1
  3
ACAD_XREC_ROUNDTRIP
360
329D
  0
DICTIONARY
  5
329A
330
1F2
100
AcDbDictionary
280
     1
281
     1
  3
ACAD_XREC_ROUNDTRIP
360
329B
  0
DICTIONARY
  5
3294
330
1EF
100
AcDbDictionary
280
     1
281
     1
  3
ACAD_XREC_ROUNDTRIP
360
3295
  0
DICTIONARY
  5
3296
330
1F0
100
AcDbDictionary
280
     1
281
     1
  3
ACAD_XREC_ROUNDTRIP
360
3297
  0
DICTIONARY
  5
3286
330
FC
100
AcDbDictionary
280
     1
281
     1
  3
ACAD_XREC_ROUNDTRIP
360
3287
  0
DICTIONARY
  5
327A
330
F6
100
AcDbDictionary
280
     1
281
     1
  3
ACAD_XREC_ROUNDTRIP
360
327B
  0
DICTIONARY
  5
3298
330
1F1
100
AcDbDictionary
280
     1
281
     1
  3
ACAD_XREC_ROUNDTRIP
360
3299
  0
XRECORD
  5
3266
102
{ACAD_REACTORS
330
326C
102
}
330
326C
100
AcDbXrecord
280
     1
  1
AcDb_Thumbnail_Schema
102
{ATTRRECORD
341
3267
  2
AcDbDs::TreatedAsObjectData
280
     1
291
     1
102
ATTRRECORD}
102
{ATTRRECORD
341
3268
  2
AcDbDs::Legacy
280
     1
291
     1
102
ATTRRECORD}
  2
AcDbDs::ID
280
    10
 91
        8
102
{ATTRRECORD
341
3269
  2
AcDs:Indexable
280
     1
291
     1
102
ATTRRECORD}
102
{ATTRRECORD
341
326A
  2
AcDbDs::HandleAttribute
280
     7
282
     1
102
ATTRRECORD}
  2
Thumbnail_Data
280
    15
 91
        0
  0
XRECORD
  5
3267
102
{ACAD_REACTORS
330
326C
102
}
330
326C
100
AcDbXrecord
280
     1
  1
AcDbDs::TreatedAsObjectDataSchema
  2
AcDbDs::TreatedAsObjectData
280
     1
 91
        0
  0
XRECORD
  5
3268
102
{ACAD_REACTORS
330
326C
102
}
330
326C
100
AcDbXrecord
280
     1
  1
AcDbDs::LegacySchema
  2
AcDbDs::Legacy
280
     1
 91
        0
  0
XRECORD
  5
3269
102
{ACAD_REACTORS
330
326C
102
}
330
326C
100
AcDbXrecord
280
     1
  1
AcDbDs::IndexedPropertySchema
  2
AcDs:Indexable
280
     1
 91
        0
  0
XRECORD
  5
326A
102
{ACAD_REACTORS
330
326C
102
}
330
326C
100
AcDbXrecord
280
     1
  1
AcDbDs::HandleAttributeSchema
  2
AcDbDs::HandleAttribute
280
     7
 91
        1
284
     1
  0
XRECORD
  5
329F
102
{ACAD_REACTORS
330
236
102
}
330
236
100
AcDbXrecord
280
     1
102
DISPLAYNAME
  1
Metric50
102
FLAGS
 90
        0
  0
XRECORD
  5
1FA
102
{ACAD_REACTORS
330
1F9
102
}
330
1F9
100
AcDbXrecord
280
     1
 70
     1
 90
429727718
  1
D62C5603-E3A1-4AEA-B7FB-FE5D8D0755AF
310
504B03040A0000080000CC70623B3DEE336E79000000790000001B0000006175746F6465736B2D64657369676E2D7061636B6167652E786D6C3C3F786D6C2076657273696F6E3D22312E302220656E636F64696E673D227574662D3822203F3E3C666F726D6174733E3C666F726D61743E687474703A2F2F736368656D612E
310
6175746F6465736B2E636F6D2F64657369676E2D7061636B6167652F323030393C2F666F726D61743E3C2F666F726D6174733E504B0304140006080800CC70623BD486FD9CA0000000F4000000130000005B436F6E74656E745F54797065735D2E786D6C7D8EC10E82300C865F65E91D8A1E8C310C0EEA1BF002731658846E
310
D98AC1B77784ABF1D8FE5FBFBF75BBCE937A534CCEB38643598122B6FEE978D0B0485F9C41B54DDD7D022595594E1A469170414C76A4D9A4D207E29CF43ECE46F218070CC6BECC4078ACAA135ACF422C856C0E68EA1BF5669944DDD7BCDE7B1F8E415D77AECB980613C2E4AC91FC167A2B244592486606FC29C8FD7F045B9A
310
EF7053A7E60B504B0304140006080800CC70623B853B8169EB0000007C01000008000000636F72652E786D6C8D90416EC3201045AF62CDB6C206821CC7C244919D9CA01740401C94182C03558F5F9C3852BBEB6A467FFE9B197D7EFC9E1EC5975982F5AE035262288C535E5B377690E21535501C055FBC8FBF6C503839990E
310
5619041F179FE64D52DE45E362569DD7661365082642A11EB9E920A89B99642953CC8E702F67A9EE7234257977194EC9EAE275C4EABCCF5EAD5940D4AC6F0E35A568B8F43562CD7046CD199FD07E60174276A7BE677B5EADB0E0D14EEFFB6A31321A0D82627C4084204C3F096B71DD52F6819B16635EADF63F509AF53FA164
310
5DDCD1EDDD17164090FCC8732078B56691CB33A85CD7DCC40F504B0304140006080800CC70623B55019EA25F0000007C00000007000000636E782E786D6C4DCB3B0E80201045D1AD90E915ED2CF8AC45050C11660C8261F98AB1B07AC9C97D42D718D865D3E909258CFD00CCE24AC6E326A164D74DC0B4128928FF32603847
310
2BA13128B1252AC747C6BAB984FC68F0B87FE8960A5C09FE86CFB69FBA01504B0304140006080800CC70623BDBABAAF470010000D40300000C0000006662782F636F72652E786D6CC553D16E823014FD95A6AF4B694182CC941A83FA05FB810A9511A125A5257EFE2E82712ECEB8A7F100CD39F7F69E734AF9FADC366850B6
310
AF8DCE7018308C942E4C59EB2AC3DE1D498AD15A706B8CFB56869196ADCAF00863C12B6B7C374385D14E6907A836A59A41D9F7CA615434B0C8705F7CAA5606D23BA8E84F41278B93AC54100640439DE0BDB320004D43C63716C7C399D30917DCFBBA9CD9BA8469F5B156168B24CED3F7248AC8769F27244EB73B92EED8862C
310
B7F13E0C179B3C8F979C8ECD82BBBABDAA2BAC924E9558448CBD9330242CFA08E3154B5651FCC6D215639C8EE5774DBE2B5F6CF2B5768B68963BB5F5588420E442FC700B1139D4CB01F450C1E918227C2E09DF070D8140C84E1E9AAB8F1340832A9CB13130A5F1376A908D57309505ECF2A0DF179C4E9D30F5B239B87E3823
310
7A79C6F31DE1A8A5AEC08474B03C7837EAE4938639B44E5932B833D2C6B6B279CDC613877FA26EE21F4A2A4C63EC7F29A2F301D1F9F7A0E37D145F504B0304140006080800CC70623B9C113CC27E0000009D0000000B0000006662782F636E782E786D6C4DCCDF0A83201C86E15B91DFB94BFB330DD428C8FB886521330DA7
310
6397BF1A1DECE883878F57749FCDA1B7892F1BBC047A23808C7F84D9FA55424E0BE6803A256208E9EF06C84F9B91703228B1C690F78B66B34CD9A5439DF5CF0BFBF65E35BCA1B8D6A5C6F540381E886698B5741C695F9503EBA150A2F8958E3DC3EA0B504B0304140006080800CC70623B7DF2F77C2A010000120200003100
310
00006662782F41393633353835312D344632462D344230382D423046372D3739314545314133324237412F636F72652E786D6C8D51DB8EC22014FC15C2939B0D2DB4B45643319AE817EC0F6041255A68B86CFCFC856D4D76DF7CE190393373060EDB3DC707F856CE6B6B7A480A0C81328395DA5C7B18C3057510EC3873D686
310
3F34088C18550F330C39BB3A1BA7051AAC09CA84841A2BD5020AEF55806078A44B0FFD7053A328440C89E1EFC52486BBB8AA8214A99D789CF9E05200300FC927E4FB4D5B375D43103D5527440FB843077C5AA3F5861C8F645F5787F59E95B390B318B55CE45AA638FAA2957BD7248B390B7A7CC51F9C124149C82B8C378810
310
84AB2F42B7B8DD56F413775B8C5999E9FF4471926F8AA236A1AE96B8B3CC434E5839373893369E1FAF30EA395917409EB7F26AF8801C171837A4A6AC9C89E9F9C9B1A58BA30FD6A5EF5DDDCF894B9AD9B6A59C957943A9FCAE2FD5BC4DFE03504B0304140006080800CC70623BAD7543B64E01000033030000300000006662
310
782F41393633353835312D344632462D344230382D423046372D3739314545314133324237412F636E782E786D6CD593CD6EC32010845F0571AD6CE3D48AD20813A9873E410FBD12D82434182C7EAAE6EDBB2424CD25871E7B41D6EC30B3FA84F9E67BB2E40B4234DE8DB46F1925E094D7C6ED479AD3AE5951B2113C789FEE
310
6C943839C1488B4C05DF079FE72A69D8C96C13AAD6B8631503449F83828872B949AC57D26200B826A308D316B4064D6E46FCDA41C05550DC9E483A00797BFD207EFB092A45DE9514C1BBD22178396BD39D891265658C238DEA00936C654E5E433CB65A26D9F6EDB5EBC14EBF49A45CB856E66048291F6939A9A81BB5C89177
310
38143CA680F4AA299D66A042CEB3354A2684DC9D8D178FE0D9B8B41CAAD720F880EE7EF93C0C18769E099ECC04D5A102C8049A8A05632F4DDF376CF1DE0F6BB65C2F8627B65A33C6BB62177CEBBDAD973006829F89F22E814B54F4BC2BE347F8AA8F681390B50FA73F804400B5F542E796F19FF974E7F78DB802FE05E20750
310
4B0304140006080800CC70623BE75B7789680500003C100000340000006662782F41393633353835312D344632462D344230382D423046372D3739314545314133324237412F6F626A656374732E786D6CAD575B8F9B3818FD2B887D06C22499CB8AA1CA655245D5B455A356FB305264C061D8018C6C3393D95FBFC7600890
310
A4CD5EF210B0B1BFEBF98E3F7B1FF6596ABC522E1296DF9BAE3D320D9A872C4AF2F8DE2CE5CEBA358D0FBEC719939D65A691938CDE9B6ADAF4BD98B3B2D05311DD91329583D9D5FC0F438434A7A611A644887B5384CF34233629258BA878B12322891DEFF6B66BD70BFB62634E8AE781D082709A4B588AF91C528CDA28B73F
310
1C998EEF39EABBEFA97FBD6A7C7E9553F9D3D79FE442923C3C523610337627CB87ABE99D359D4CC6D6E4FACAB5E6ABF9D2726FC6A3C5F56271377BB88362213924694B38DD99FE47C48627A1E7D49F5A8BB5E1A74C0A599ED3B0F21F1E56366B89112D681E218F0915D0D6F17AD41FBA2A369DCF6335D62ABBD39779D5DDD1
310
11D4D8DE3CBB96B2E04FB8202E41051754A1AA8E8F76B4C6DFE810B580B1547F4B84911149794252234D024EF8BBE963A95AE27B3D310A9D5C215C7960FAEE415ED75694C6AFB17BCACA5D99A60A9AA65F217B0BFC53292ACB92BF283FAD0D3621576592CB5BED907C2FA8E9DF794E35E97BEA31BED21FEB401ABB94C44839
310
DCACBF0E1C5DA8DA5B2F4DFFD32AD86F543D9E565E7056502E157C00AD2671CD534549AB752FCA9CDA00677A313F04E51B22FF19E57B300579E3C97EB29F682D92935CEC18CF901B7B54FD8C51F362B56FC72FE0B3C1EAE335EDCCBF5AEC39ADB17DC238973F804BA5E6F6BFE7AF1FB32E523BE9F3BD571418E3631DCA4D48
310
5250CF639223210A9446CA30052EDF057BD35F8329C1ECD84552BF0DC8D18BE7BCE23BFE6BD960AB4A7DE79923A103BEBD80F911CBAA2C60DB19B01CF164A5583B772EE6D3FFA56666CBCDA74DC97724A48F9A58967497E489C4D979006FD7A05E227A1EBDD0F737C623387A9C844D3709995625106D157315F8B8392CD4E0
310
A0B9A720C4BE9829CEF37EA1E13111214D53925356365ADA634861B52519DD27A00AEB808EAF0628E6F435519D446F45CF2C9CF5214F0A15B2F6D06B79DA3EE3CBF7F56780D2F4E7EF73A0F5E5B02A38D07DC852C6B7C1FBB6664213E0C39E3EBA7FF4E1AD23EA2829407C85E586727488B751B2DB9502BC7B228A3FD68B6E
310
A65A22397E690AA8D158D7E404EC8CDA235CC3B7D1898680131CEC2CDF2638C65196279577750F15884AEE19F94199155B92B13297978469D4F8D358DF0AEF7631E28DC8F0D9F437D5D39A83B2231A1D52D543813A824EF8D44BCFF2FA6A31BD1E8DAD87F1CCB526B3879935BF59CDADD5C37479BB1CDD4CA7B3556B516589
310
EF352754B706114D9C885EC9131DE6EFEB43D99AFE2391C2F958179413D7CFEF6B1B6DB1E7600F00DE6E5C67454A339A4BA2E0FBA85ED26F045D454F463DBFCE484C2F90F2E5E3666003662ED8F755951A7D1BECD5B30B550B2785C8E7320B7292A4838DDA71BBC863ED7613CAF659337A3354231D4FF4A182A54904C2898C
310
98B28C4AD0CE056CCF332A80986E571EE9DBC305BB5FEB7E509220A58D25CF042D712A806AC0AD0C657FDEF80D2D9CEAA2EE4D1C76F60BFE74219A06527D6F82DF6412526107381E55E353090704D085B52408A8913C4ED159D79BDA71BB4BC506F4831350EB6F975CD22D69BF7AC49B91A2C0A9DDA3D5CA36AD20FC478E37
310
E61844E2352865EBCB61A275A65283CAAA9DD27703B4102F5AF51EF5F573B75CBB5AD38BC845F7A49F82A0966A49C2E3EA5EA0ECD326CD965F1DB402C6FA8B51A4658C5C5E2EC9E214602E55810345408596591009A82E7E7FFACA19EEA299B14A0081A705CB3296EBC14CDF658DCD336EA6D1136881AAEB87B81AB9EE53D5
310
F5EB8BC8362082DA24122F98680A4E7930C01A0079749CEA14382A0783E5EBA5A10F8C098456A03D6A4AEB6BB881E2513747552A5DB22C7EDAF83BD5528081A365F7FF06504B0304140006080000CC70623B000000000000000000000000350000006662782F41393633353835312D344632462D344230382D423046372D37
310
39314545314133324237412F76657274696365732E62696E504B0304140006080800CC70623BF270F1330600000004000000360000006662782F41393633353835312D344632462D344230382D423046372D3739314545314133324237412F747269616E676C65732E62696E636660600000504B0304140006080000CC7062
310
3B000000000000000000000000370000006662782F41393633353835312D344632462D344230382D423046372D3739314545314133324237412F617474726962757465732E62696E504B0304140006080800CC70623B08DA0BD19000000041010000360000006662782F41393633353835312D344632462D344230382D4230
310
46372D3739314545314133324237412F6469726563746F72792E786D6C858F410AC3201045AF22B36F53E9A60B35CBEEBAE80D244E44489C6234F4F835464A48035D0DF398FF9F8AF63D0E6CC63039F212F8F9020C7D47C6792B21C5FE7403D62A1188E2E60C98D7234A5830286103A55745067B9D86B8A3CF9C7F90C11DE6
310
07FB144396D7B6A82D282E9A152AD114D5EF2CB866EEE831B8EEA07A7BB5A8D7D61A2BAAEB7FD5F70921FF497D00504B0304140006080800CC70623BEDD1DC58FD000000A00100003B0000006662782F41393633353835312D344632462D344230382D423046372D3739314545314133324237412F7265736F75726365732F
310
636F72652E786D6C8D504B6E833010BD0A9A6D65B00922041947112427E8052C33A156828DFCA97AFC9A40A576D7CDCCE87D344F8F9FBFE667F689CE6B6B3A6039850C8DB2A336530731DC4903D95970676DF82583CCC8193B5861107C72362E3BA4AC096842428D1D7107A5F7182053CF7474E0D507CE32973124857FE48B
310
540F3961CEF244279DE03EB81420DB9EAC1384436FA353E879B1B182C7A8C75DA3C7F453DF353A1075D537A7BA6464B8F535A99AE14A9A2BBD90E350DD183B5CFABE3AF262350B1EF4FC9351399401471025A527C218A1E53BAB5A5AB765F5469B96525EACF23FA6B88CFF34456DC2A1DCE36E360F82A5202F42F062ED2BAD
310
579969AFDD8A6F504B010214000A0000080000CC70623B3DEE336E79000000790000001B00000000000000000000000000000000006175746F6465736B2D64657369676E2D7061636B6167652E786D6C504B01021400140006080800CC70623BD486FD9CA0000000F40000001300000000000000000000000000B20000005B
310
436F6E74656E745F54797065735D2E786D6C504B01021400140006080800CC70623B853B8169EB0000007C010000080000000000000000000000000083010000636F72652E786D6C504B01021400140006080800CC70623B55019EA25F0000007C000000070000000000000000000000000094020000636E782E786D6C504B
310
01021400140006080800CC70623BDBABAAF470010000D40300000C00000000000000000000000000180300006662782F636F72652E786D6C504B01021400140006080800CC70623B9C113CC27E0000009D0000000B00000000000000000000000000B20400006662782F636E782E786D6C504B01021400140006080800CC70
310
623B7DF2F77C2A010000120200003100000000000000000000000000590500006662782F41393633353835312D344632462D344230382D423046372D3739314545314133324237412F636F72652E786D6C504B01021400140006080800CC70623BAD7543B64E010000330300003000000000000000000000000000D2060000
310
6662782F41393633353835312D344632462D344230382D423046372D3739314545314133324237412F636E782E786D6C504B01021400140006080800CC70623BE75B7789680500003C10000034000000000000000000000000006E0800006662782F41393633353835312D344632462D344230382D423046372D3739314545
310
314133324237412F6F626A656374732E786D6C504B01021400140006080000CC70623B0000000000000000000000003500000000000000000000000000280E00006662782F41393633353835312D344632462D344230382D423046372D3739314545314133324237412F76657274696365732E62696E504B01021400140006
310
080800CC70623BF270F133060000000400000036000000000000000000000000007B0E00006662782F41393633353835312D344632462D344230382D423046372D3739314545314133324237412F747269616E676C65732E62696E504B01021400140006080000CC70623B0000000000000000000000003700000000000000
310
000000000000D50E00006662782F41393633353835312D344632462D344230382D423046372D3739314545314133324237412F617474726962757465732E62696E504B01021400140006080800CC70623B08DA0BD1900000004101000036000000000000000000000000002A0F00006662782F41393633353835312D344632
310
462D344230382D423046372D3739314545314133324237412F6469726563746F72792E786D6C504B01021400140006080800CC70623BEDD1DC58FD000000A00100003B000000000000000000000000000E1000006662782F41393633353835312D344632462D344230382D423046372D3739314545314133324237412F7265
310
736F75726365732F636F72652E786D6C504B0506000000000E000E0080040000641100000000
  0
XRECORD
  5
1F8
102
{ACAD_REACTORS
330
1F7
102
}
330
1F7
100
AcDbXrecord
280
     1
 70
     1
 90
429727718
  1
30362254-06B7-45E0-A893-8CFA70E3D6BC
310
504B03040A0000080000CC70623B3DEE336E79000000790000001B0000006175746F6465736B2D64657369676E2D7061636B6167652E786D6C3C3F786D6C2076657273696F6E3D22312E302220656E636F64696E673D227574662D3822203F3E3C666F726D6174733E3C666F726D61743E687474703A2F2F736368656D612E
310
6175746F6465736B2E636F6D2F64657369676E2D7061636B6167652F323030393C2F666F726D61743E3C2F666F726D6174733E504B0304140006080800CC70623BD486FD9CA0000000F4000000130000005B436F6E74656E745F54797065735D2E786D6C7D8EC10E82300C865F65E91D8A1E8C310C0EEA1BF002731658846E
310
D98AC1B77784ABF1D8FE5FBFBF75BBCE937A534CCEB38643598122B6FEE978D0B0485F9C41B54DDD7D022595594E1A469170414C76A4D9A4D207E29CF43ECE46F218070CC6BECC4078ACAA135ACF422C856C0E68EA1BF5669944DDD7BCDE7B1F8E415D77AECB980613C2E4AC91FC167A2B244592486606FC29C8FD7F045B9A
310
EF7053A7E60B504B0304140006080800CC70623B1EC5D7A3EB0000007C01000008000000636F72652E786D6C8D90416EC3201045AF82665B6103C6756C6122AB4D4ED00B204C5C94182C03558F5F9C3852BBEB6A467FFE9B197D71FC9E6FE8CBACC17AD7032D0820E3B41FAD9B7A48F1820F808E52ACDEC75F36404ECDA687
310
4D0629A6D5A76597B477D1B89855E747B38B2A041301E95B6E7A08FAD3CCAA50296647B8168BD2573599823EBB0CA76447F43862C7BCCF5EAC59410E4DDD9C7973C2755553CCCFA4C603E3040F1565ED3B1FDE4E432BCA0D9622DAF9795FAF464533826484B498524CD807E51D79ED187F21878E10516EF63F505AC67F42C9
310
BA58B1FDDD071640D2FCC87D2045B96591CB3DA85CB7DCE40F504B0304140006080800CC70623B55019EA25F0000007C00000007000000636E782E786D6C4DCB3B0E80201045D1AD90E915ED2CF8AC45050C11660C8261F98AB1B07AC9C97D42D718D865D3E909258CFD00CCE24AC6E326A164D74DC0B4128928FF32603847
310
2BA13128B1252AC747C6BAB984FC68F0B87FE8960A5C09FE86CFB69FBA01504B0304140006080800CC70623B8C9102E971010000D40300000C0000006662782F636F72652E786D6CC5535B6E833010BC8AE5DF0A6C08340F1947A84D4ED00B38C6A128602363A31CBFCB234A53A551FA553EC09AD9F5CE8C31DB9E9B1AF5CA
310
7695D1198E428A91D2D214952E33ECDD315861B4E5CC1AE3BE9561A445A3323CC098B3D21ADFCE9034DA29ED00D5A6503328BA4E398C640D8B0C77F253352214DE4145770A5B214FA2546114020D759C75CE8200340D19DE981F0F6746269C33EFAB6266AB02A655C74A59CCF365BADC27CB5D902ED22848F6340DF238A141
310
BE88E2F57B92BFEDF23523433367AE6A2EEAA455C2A902F398D2751045018D3FA264435F3771F242571B4A1919CA6F9A7C5B3CD9E42BED16F12C776AEB308F40C848FC700B1139D4891EF410CEC810227CC6846F8386402064270EF5C5C709A05E49676C024C61FC95EA45ED154CA5211D1FF4FB8291A913A68E9B83EBBB33
310
E2A7673CDE118E5AE8124C0807CB8377834E366998436B950D7A7746DAD846D4CFD978E0F04FD455FC5D49D2D4C6FE9722321F10997F0F32DC47FE05504B0304140006080800CC70623BFFEA85907E0000009D0000000B0000006662782F636E782E786D6C4DCCD10A83201886E15B91FFDC95D95A811AB6F23E625948A6C3
310
E9D8E5AF46073BFAE0E1E365ED67B3E8ADC3CB78C7815C7240DA3DFC64DCC221C519D7805AC182F7F1EF06C88D9BE6703008B6049F9E274D7A1E938DBB5AE3D6131B2589BA0D3D965551E0B2EA732C9B9A624AAEB41E3A557677029960D9AFB4EF11165F504B0304140006080800CC70623B4FEEA4082C0100001202000031
310
0000006662782F39464131463745442D413632322D343644302D413938332D3331353338454246344243312F636F72652E786D6C8D515B6EC32010BC0AE2AB55850DD871ED0813254D72825EC00192A2C460F1A872FC42ED48ED5F7E00CDCECCCEB26C731F6FE05B39AFADE921293004CA082BB5B9F43086336A21D870E6AC
310
0D7F68109861543DCC30E4ECE26C9C164858139409093556AA051CBC570102714B8F1E7AF1A5C6A11862480C7F2DA6415C878B2A4891CA89C7990F2E050073937C42DE1DB7E4F87ED8A36D4329AA9B3D46DBAEAD504556557BD81DEBDD0761E52CE42C462D17B996298E3E6BE59E35C962CE821E1FF18553435012728A7187
310
0841987E927A8D9B35ADDF70BBC6989599FE4F1427F9A4286A132ABAC49D651EF234CD5CE04CDA78BA3DC2A8FB645D00B9DF8B57E215725C60BCA2A463E54C4CE327C7A65E1C7DB02E7DEFCBF594B864C5CA6CDBD49C957943E9FA5D5FBAF336F90F504B0304140006080800CC70623BAD7543B64E01000033030000300000
310
006662782F39464131463745442D413632322D343644302D413938332D3331353338454246344243312F636E782E786D6CD593CD6EC32010845F0571AD6CE3D48AD20813A9873E410FBD12D82434182C7EAAE6EDBB2424CD25871E7B41D6EC30B3FA84F9E67BB2E40B4234DE8DB46F1925E094D7C6ED479AD3AE5951B2113C
310
789FEE6C943839C1488B4C05DF079FE72A69D8C96C13AAD6B8631503449F83828872B949AC57D26200B826A308D316B4064D6E46FCDA41C05550DC9E483A00797BFD207EFB092A45DE9514C1BBD22178396BD39D891265658C238DEA00936C654E5E433CB65A26D9F6EDB5EBC14EBF49A45CB856E66048291F6939A9A81BB5
310
C8917738143CA680F4AA299D66A042CEB3354A2684DC9D8D178FE0D9B8B41CAAD720F880EE7EF93C0C18769E099ECC04D5A102C8049A8A05632F4DDF376CF1DE0F6BB65C2F8627B65A33C6BB62177CEBBDAD973006829F89F22E814B54F4BC2BE347F8AA8F681390B50FA73F804400B5F542E796F19FF974E7F78DB802FE05
310
E207504B0304140006080800CC70623B16AB87BA640500003C100000340000006662782F39464131463745442D413632322D343644302D413938332D3331353338454246344243312F6F626A656374732E786D6CAD575B6FA33818FD2B887DE6924B3BED8A326A92B68A663B534DD4D13E548A0C38942D60649B369D5FBFC7
310
600890A493BDE42160637FD7F31D7FF63E6FB3D478A55C242CBF3247B66B1A340F5994E4F19559CA8D75611A9F7D8F33263BCB4C232719BD32D5B4E97B316765A1A722BA21652A07B3B7B33F0D11D29C9A46981221AE4C113ED38CD8A4942CA2E2C58E882476BCD9DA23BB5ED8171B73523C0F841684D35CC252CCE79062D4
310
468DFA43D7747CCF51DF7D4FFDEB5593E3AB9CCA9FBEFE241792E4E19EB28198C968BAB8199F5D5A67D3E9C49A9E8F47D6EC76B6B0469F26EEFC7C3EBFBCBEB98462213924694B38DD98FE1D62C393D073EA4FADC5DAF04326852CCF6958F90F0F2B9BB5C48816348F90C7840A68EB78EDF68723159BCEE7891A6B95DDE9D3
310
BCEAEEE8086A6C6F9E5D4B59F0175C10A7A0820BAA5055C7473B5AE3CFDD452D602CD5DF12616444529E90D448938013FE6EFA58AA96F85E4F8C42275708571E98FE6827AF6B2B4AE3D7D83D64E5A64C53054DD3AF90BD06FEA9149565C94FCA0F6B834DC85599E4F2423B24DF0B6AFA979E534DFA9E7A4CC6FA631D486393
310
921829879BF5D781A373557BCB85E97FB90DB62B558F8795179C15944B051F40AB495CF35451D26A4727654E6D8033BD98EF82F21D91FF8AF2DD9982BCF1643BDD4EB516C9492E368C67C88DED563FC36D5EACF66DFF057C3658BDBFA69DF9578B3DA735B64F18C7F20770A9D45CFCF7FCF563D6456A277DBEF78A02637CA2
310
43B90A490AEAB94F72244481D24819A6C0E59B606BFA4B3025981DBB48EAB701D97BF19C577CC77F2D1B6C55A9EF3C732474C0B727303F625995056C3B02963D9EAC146BE78EC5FCEC7FA999EBC5EACBAAE41B12D27B4D2C0BBA49F244E2ECDC81B76B502F113D8F5EE8FB1BE3111CDD4FC2AA9B844CAB1288B68AB90A7CDC
310
1C166AB0D3DC5310625FCC14E779BFD0709F8890A629C9292B1B2DED31A4B0DA928CEE135085754027E3018A397D4D5427D15BD1330B677DC8934285AC3DF45A9EB68FF8F2B8FC0A509AFEECFD0FF2DE25CC6047F7214B195F07EFEB9A094D800F7BFAE8FED187B78EA8A3A400F115961BCAD1215E47C966530AF0EE8128FE
310
58CEBB996A8964FFA529A046635D9353B0336A8F700DDF46271A024E70B0B37C9DE01847591E54DED53D54202AB947E4076556AC49C6CA5C9E1226B7F1A7B1BE15DEED62C41B91E1B3E9AFAAA735036547343A925075041DF0A9979E893B391F8FCFA6967B3EFB644DCF6E5CEBFAE272625DCC6FAF3FB93793C5F90CE1EF57
310
407342756B10D1C489E8953CD1617E5CEECAD6F4EF8914CE5D5D504E5C3F1F9736DA62CFC11E00BCDDB8CC8A9466349744C1F75EBDA4DF09BA8A9E8C7A7E9991989E20E5DBDD6A6003664ED8F7A04A8DBE0DF6EAD9B9AA858342E47399053949D2C146EDB85DE4B176BB0965FBAC19BD19AA918E27FA50C1D22402E144464C
310
59462568E704B6E71915404CB72B8FF4EDE184DDAF753F284990D2C6926782963815403548A70C657FDEF80D2D9CEAA2AE4C1C76F60BFE74219A06527D6582DF6412526107381E55E353090704D085B52408D0933C4ED159D79BDA71BB4BC506F4831350EB6F979CD22D69BF7AC49B91A2C0A9DDA3D5CA36AD20FC478E37E6
310
1844E2352865EBCB6EA275A652E3836BE04EFB400BF1A2556F515F1FBB35B2AB35BD889C744FFA1004B5544B121E57F70215746DD2F5E2C1412B602CBF19455AC6C8E5E9922C4E01E65215385004546899059180EAFCF7A707CE7017CD8CDB0410789AB32C63B91E5CEBBBACB17AC6CD347A022D5075FD106377347AAABA7E
310
7D11590744509B44E205134DC1290F06580320F78E537D3D73540E06CB970B431F185308AD40BBD794D6D77003C5A36E8EAA54BA64597CD8F83BD552A080A365F7FF06504B0304140006080000CC70623B000000000000000000000000350000006662782F39464131463745442D413632322D343644302D413938332D3331
310
353338454246344243312F76657274696365732E62696E504B0304140006080800CC70623BF270F1330600000004000000360000006662782F39464131463745442D413632322D343644302D413938332D3331353338454246344243312F747269616E676C65732E62696E636660600000504B0304140006080000CC70623B
310
000000000000000000000000370000006662782F39464131463745442D413632322D343644302D413938332D3331353338454246344243312F617474726962757465732E62696E504B0304140006080800CC70623B08DA0BD19000000041010000360000006662782F39464131463745442D413632322D343644302D413938
310
332D3331353338454246344243312F6469726563746F72792E786D6C858F410AC3201045AF22B36F53E9A60B35CBEEBAE80D244E44489C6234F4F835464A48035D0DF398FF9F8AF63D0E6CC63039F212F8F9020C7D47C6792B21C5FE7403D62A1188E2E60C98D7234A5830286103A55745067B9D86B8A3CF9C7F90C11DE607
310
FB144396D7B6A82D282E9A152AD114D5EF2CB866EEE831B8EEA07A7BB5A8D7D61A2BAAEB7FD5F70921FF497D00504B0304140006080800CC70623B0D6EF93BFE000000A00100003B0000006662782F39464131463745442D413632322D343644302D413938332D3331353338454246344243312F7265736F75726365732F63
310
6F72652E786D6C8D50596E833010BD0A9ADFCA60B334011947A8694ED00B586642AC041B79A97AFC9A40A5F6AF3F33A3B7689E1E3F7DCD8FEC139DD7D6F4C0720A191A65476DA61E62B892236427C19DB5E1970C322367EC618541F0C9D9B8EC90B226A009093576C41D94DE63804C3DD2D18357379C652E63480A7FCF17A9
310
EE72C29CE5894E3AC17D702940B63D59270887DE46A7D0F36263058F518FBB468FE9A7BE6A7420864373B8D4873369AA8691FA421B3294352543C5CAF65C0F6FEF43CB8BD52C78D0F34F46E550061C419494B6843142CB0F5677F4B52BEB177AEC28E5C52AFF638ACBF84F53D42654E51E77B379102C05791282176B5F693D
310
CB4C7BED567C03504B010214000A0000080000CC70623B3DEE336E79000000790000001B00000000000000000000000000000000006175746F6465736B2D64657369676E2D7061636B6167652E786D6C504B01021400140006080800CC70623BD486FD9CA0000000F40000001300000000000000000000000000B20000005B
310
436F6E74656E745F54797065735D2E786D6C504B01021400140006080800CC70623B1EC5D7A3EB0000007C010000080000000000000000000000000083010000636F72652E786D6C504B01021400140006080800CC70623B55019EA25F0000007C000000070000000000000000000000000094020000636E782E786D6C504B
310
01021400140006080800CC70623B8C9102E971010000D40300000C00000000000000000000000000180300006662782F636F72652E786D6C504B01021400140006080800CC70623BFFEA85907E0000009D0000000B00000000000000000000000000B30400006662782F636E782E786D6C504B01021400140006080800CC70
310
623B4FEEA4082C0100001202000031000000000000000000000000005A0500006662782F39464131463745442D413632322D343644302D413938332D3331353338454246344243312F636F72652E786D6C504B01021400140006080800CC70623BAD7543B64E010000330300003000000000000000000000000000D5060000
310
6662782F39464131463745442D413632322D343644302D413938332D3331353338454246344243312F636E782E786D6C504B01021400140006080800CC70623B16AB87BA640500003C1000003400000000000000000000000000710800006662782F39464131463745442D413632322D343644302D413938332D3331353338
310
454246344243312F6F626A656374732E786D6C504B01021400140006080000CC70623B0000000000000000000000003500000000000000000000000000270E00006662782F39464131463745442D413632322D343644302D413938332D3331353338454246344243312F76657274696365732E62696E504B01021400140006
310
080800CC70623BF270F133060000000400000036000000000000000000000000007A0E00006662782F39464131463745442D413632322D343644302D413938332D3331353338454246344243312F747269616E676C65732E62696E504B01021400140006080000CC70623B0000000000000000000000003700000000000000
310
000000000000D40E00006662782F39464131463745442D413632322D343644302D413938332D3331353338454246344243312F617474726962757465732E62696E504B01021400140006080800CC70623B08DA0BD190000000410100003600000000000000000000000000290F00006662782F39464131463745442D413632
310
322D343644302D413938332D3331353338454246344243312F6469726563746F72792E786D6C504B01021400140006080800CC70623B0D6EF93BFE000000A00100003B000000000000000000000000000D1000006662782F39464131463745442D413632322D343644302D413938332D3331353338454246344243312F7265
310
736F75726365732F636F72652E786D6C504B0506000000000E000E0080040000641100000000
  0
XRECORD
  5
175
102
{ACAD_REACTORS
330
173
102
}
330
173
100
AcDbXrecord
280
     1
270
     1
271
     1
  0
XRECORD
  5
174
102
{ACAD_REACTORS
330
173
102
}
330
173
100
AcDbXrecord
280
     1
270
     1
271
     1
  0
XRECORD
  5
1FB
102
{ACAD_REACTORS
330
173
102
}
330
173
100
AcDbXrecord
280
     1
 70
     0
 90
1673772943
  1
ECE7A1D2-D628-4531-984C-D00F80459256
310
504B03040A0000080000CC70623B3DEE336E79000000790000001B0000006175746F6465736B2D64657369676E2D7061636B6167652E786D6C3C3F786D6C2076657273696F6E3D22312E302220656E636F64696E673D227574662D3822203F3E3C666F726D6174733E3C666F726D61743E687474703A2F2F736368656D612E
310
6175746F6465736B2E636F6D2F64657369676E2D7061636B6167652F323030393C2F666F726D61743E3C2F666F726D6174733E504B0304140006080800CC70623BD486FD9CA0000000F4000000130000005B436F6E74656E745F54797065735D2E786D6C7D8EC10E82300C865F65E91D8A1E8C310C0EEA1BF002731658846E
310
D98AC1B77784ABF1D8FE5FBFBF75BBCE937A534CCEB38643598122B6FEE978D0B0485F9C41B54DDD7D022595594E1A469170414C76A4D9A4D207E29CF43ECE46F218070CC6BECC4078ACAA135ACF422C856C0E68EA1BF5669944DDD7BCDE7B1F8E415D77AECB980613C2E4AC91FC167A2B244592486606FC29C8FD7F045B9A
310
EF7053A7E60B504B0304140006080800CC70623BD9DDAED0EC0000007C01000008000000636F72652E786D6C8D90416EC3201045AF82665B61836D9CD8C2444DD39CA01740405C94182C03558F5F9C3852BBEB6A467FFE9B197D7EF89E6EE8CB2CC17A37002D0820E394D7D68D03A478C17B4007C117EFE32F1B20272733C0
310
2A83E0E3E2D3BC49CABB685CCCAAF3DA6CA20CC14440EA969B0182FA34932C648AD911AEC52CD5558EA6A0CF2EC329598D1E47ACCEFBECC59A050463A7EA5833865FEBDD0E37353BE3EE8DBDE3F6786A48D375FBF6CC78B9C282473B3DEFABC5C86834888A900E538A49F5419B9EB47DD5BC907D4F082F57FB1F28CDFA9F50
310
B22ED6D5F6EE030B20687EE43E10BC5CB3C8E51E54AE6B6EE207504B0304140006080800CC70623B55019EA25F0000007C00000007000000636E782E786D6C4DCB3B0E80201045D1AD90E915ED2CF8AC45050C11660C8261F98AB1B07AC9C97D42D718D865D3E909258CFD00CCE24AC6E326A164D74DC0B4128928FF326038
310
472BA13128B1252AC747C6BAB984FC68F0B87FE8960A5C09FE86CFB69FBA01504B0304140006080800CC70623BA24EB22D72010000D40300000C0000006662782F636F72652E786D6CC5535B6E833010BC8AE5DF0A6C5E49888CA3A6694ED00B38E05014B091B1518EDFE511A5A9D228FD2A1F60CDEC7A67C6986DCE4D8D7A
310
69BA4AAB0C073EC548AA5C17952A33ECECD15B61B4E1CC686DBF9561A44423333CC098B3D268D7CE50AE9595CA02AA74216750749DB418E5352C32DCE59FB211BE70162ABA93DF8AFC244AE9073ED050C759670D0840D390E18DF9F1706664C23973AE2A66B62A605A75ACA4C13C4976E1364A12EF355A2EBD384AF65EFA96
310
BC7B8BED2EA6719AAE16FB8491A199335B351775B991C2CA02F390D2D40B028F861F41BCA68B7518BFD0D59A524686F29B26D7164F36B94AD9289CE54E6D1DE6010819891F6E21228B3AD1831EC219194284CF98F06DD01008846CC5A1BEF83801D4CBDC6A1303536877A57A513B0953A94FC707FDBE6064EA84A9E3E6E0FA
310
EE8CF0E9198F7784A316AA0413C2C2F2E0ECA0934D1AE6D05A69BCDE9E91D2A611F573361E38FC1375157F5752AE6B6DFE4B11990F88CCBF0719EE23FF02504B0304140006080800CC70623B408A7D3B7C0000009D0000000B0000006662782F636E782E786D6C4DCCD10A83201886E15B91FFDC552A92A0064DBC8F581632
310
D3703A76F9ABD1C18E3E78F878E5F0D9027ABBFCF2292AE86E2D20171F69F6715550CB827B40839639A5F2770314A7CD293819B45C73AAFB45B35BA61ACAA1C1C7E7855C58C15BC331339661262CC762340413D68D77DA5B42298546CBE6573AF60CEB2F504B0304140006080800CC70623B449FB9BD290100001202000031
310
0000006662782F36394639363044362D344446342D343946362D394244322D3234314243333846323333332F636F72652E786D6C8D515B6EC32010BC0AE22B55850D98B871848994463E412FE002495162B07854397EA176A4F62F3F2C9A9D991D587EB84F37F0AD7D30CEF6905418026DA553C65E7A98E219ED203808EE9D
310
8B7F6810D871D23D2C3014FCE25D9A57483A1BB58D19B54EE9151C43D0110279CB971E06F9A5A7B11A53CC8C70ADE6515EC78BAE4895DB992778883E0700CB907242D17643D7E2538BD869608875438BBAE38922CAC8F1BDD90DB4691A5E2F42C153326A951B95E398B3D1FE599322163C9AE9115F7A3D46ADA0A018778810
310
84E907617BDCEE297BC5BB3DC6BC2EF47FA234AB2745C9D8D8D035EE220B50105E2F0DC1954B9FB747187D9F9D8FA0CCDB042D5FA0C015C65B42DF78BD10F3F3B363CB56C7109DCFDFBBB97E662ED92EB62D13BC2E1BCAE5777DB9966D8A1F504B0304140006080800CC70623BAD7543B64E01000033030000300000006662
310
782F36394639363044362D344446342D343946362D394244322D3234314243333846323333332F636E782E786D6CD593CD6EC32010845F0571AD6CE3D48AD20813A9873E410FBD12D82434182C7EAAE6EDBB2424CD25871E7B41D6EC30B3FA84F9E67BB2E40B4234DE8DB46F1925E094D7C6ED479AD3AE5951B2113C789FEE
310
6C943839C1488B4C05DF079FE72A69D8C96C13AAD6B8631503449F83828872B949AC57D26200B826A308D316B4064D6E46FCDA41C05550DC9E483A00797BFD207EFB092A45DE9514C1BBD22178396BD39D891265658C238DEA00936C654E5E433CB65A26D9F6EDB5EBC14EBF49A45CB856E66048291F6939A9A81BB5C89177
310
38143CA680F4AA299D66A042CEB3354A2684DC9D8D178FE0D9B8B41CAAD720F880EE7EF93C0C18769E099ECC04D5A102C8049A8A05632F4DDF376CF1DE0F6BB65C2F8627B65A33C6BB62177CEBBDAD973006829F89F22E814B54F4BC2BE347F8AA8F681390B50FA73F804400B5F542E796F19FF974E7F78DB802FE05E20750
310
4B0304140006080800CC70623B8D05915C650500003B100000340000006662782F36394639363044362D344446342D343946362D394244322D3234314243333846323333332F6F626A656374732E786D6CAD575B6FA33814FE2B887D06429276DA1565D4266D158D3A339A6846FB502932E050B66023DB74D2FDF5FB190C01
310
9276B2973C046C8ECFF53B17071F77456EBD502133CEAE6CDF9DD81665314F32965ED995DA3A17B6F5310C04E7AA47665B8C14F4CAD6DB7618A48257A5D94AE89654B91AEDDEDDFC61C998326A5B714EA4BCB265FC440BE2924AF184CA6737218AB8E976E7FA6E4338649B0A523E8D98964450A6A029F619B8588D52FE7039
310
B1BD30F0F4F730D0FF866AF6369557DB33949F31A9088B0F848DD8CCFCF9F2767A76E99CCDE733677E3EF59D9BBB9BA5E37F984D16E78BC5E5F5ED25044B25C0C96822E8D60EEFE11B91C581D77CEA34368A1F5329E68CD1B8B61F16D63A1B8E092D294B10C78C4A48EB593D192E7DED9BDEE7995E1B91FDEDD3ACEA9FE831
310
6A756F9F7D4D79F4274C90A7A04248AA51D5F8C718DAE06FB2F75AC4796EBE65D22A88A22223B995679120E2D50E41AA49C260C046A35368846B0BECD0DFF3EBEB8AD4F835768F69B9ADF25C43D30E6B646F807FAA64AD59F61715C7A54127C4AACA98BA3006A9D792DAE165E0D59B61A01FB3A9F9D838D2DAE62445C86166
310
F37564E842E7DE6A69879FEEA2DD5AE7E371E1A5E025154AC307D06A03D73EB5978C58FFA4C8E9033066E0F3BD53BEC1F39F91BE7B55103791EDE6BBB991A2046172CB4581D8B893FA674DDA17A77B3B7C413D1B511FD2743BFF8A38F03A658705E3ADF8015C3A3417FF3D7E439FF591DA0B5F18BC20C1B8981957AE6392A3
310
F43C640C01D1A0B4728E2DD4F26DB4B3C3152A252A3B4E913CEC1C72F012782FF88EFF8637AA552DBEF76408E8A8DE9E50F9E1CB3A2DA0DB1B6039A893B56063DC5B3E3FFB5F72E67AB9FEB4AEC496C4F4C1149625DD662C53E89D7BF0F6151A046260D1337DFDC94502430F83B0EE07A130A224BCAD7DAE1D9FB6CD422FF6
310
920702629C4BB9AE79C12F243C6432A6794E18E5552BA56B431AAB5D91317302B2B071E86C3A42B1A02F999E24061403B5D0EB639195DA655DD3EBEAB4FB862DDF579F014AD0E73C22F99E28DA57FB98E75C6CA2D74D53086D600F4786E0FE3144B771A8A7B900F03594DB8A633CBC49B2EDB69228BB479CF863B5E807AAAB
310
23872F6DFEB4129B949CA33823F58830E86D65621E10047D9DB34D862E8EAC3C2ABC2F7B2C40D67CDFE01F5545B92105AF983AC54D93D69E56FB8E797F88913F898A9FEC705D3F9D1B54EC8426FB500D40A03BD0119B06E1B95DDC7EB8F6975367793EBD70E66733DFB9BC982F9CE564727731999F5D4ECFCE3B8D6A4DC2A0
310
6D50FD148437D110834A64C6CDDF57FBACB5C307A2A477DFE4939736CFEF2B175371E0E10CF0DD1D5C15654E0BCA14D1E87DD02FF93782A162C0A3D95F1524A52770F972BF1EE9809D13CE7DD599467F8ECE9ADD85CE85A34CD45355448C64F9E8A031DC2D596ACC6E5DD93D9B82DE2EF5CAF81363A8E47996A0DE24564A79
310
4115AACE09C55E14540231FDA13C319787134EBF34E3A022514E5B4D9E0826E25C02D5805B15ABE1BEF51B26383D445DD9E875EE33FE4C22DA16427D65A3BCA92CA6D28DD01DF5DC53330704308475351050232CCD31583787BA75774AFB06E5070DD0C8EF484E19968C5D83BA5B90B244D31E54D55A372320FE4786B7EA58
310
44E135AA5467CB7EA333A61683CC6A8C3257034C10CF46F40EF9F5BE59BE5BD30C3C72D235E95D10345C1D45445A5F0BB47E46A5EBE5570F9380B5FA629579952296A773720405982B9DE04011506178964401AA8BDF1FBF0A8EAB6861DD6580C0E38217056766716DAEB2D6FA0917D3E4116581EADB879C4E7CFFB11EFACD
310
3D641311495D92C8676CB409A72D18610D803CE8A626049E8EC1887CB5B44CC39883690DDA8399B4B9855B481E7D71D4A9D22F96E5BB73BF5793020C02137BF837504B0304140006080000CC70623B000000000000000000000000350000006662782F36394639363044362D344446342D343946362D394244322D32343142
310
43333846323333332F76657274696365732E62696E504B0304140006080800CC70623BF270F1330600000004000000360000006662782F36394639363044362D344446342D343946362D394244322D3234314243333846323333332F747269616E676C65732E62696E636660600000504B0304140006080000CC70623B0000
310
00000000000000000000370000006662782F36394639363044362D344446342D343946362D394244322D3234314243333846323333332F617474726962757465732E62696E504B0304140006080800CC70623B08DA0BD19000000041010000360000006662782F36394639363044362D344446342D343946362D394244322D
310
3234314243333846323333332F6469726563746F72792E786D6C858F410AC3201045AF22B36F53E9A60B35CBEEBAE80D244E44489C6234F4F835464A48035D0DF398FF9F8AF63D0E6CC63039F212F8F9020C7D47C6792B21C5FE7403D62A1188E2E60C98D7234A5830286103A55745067B9D86B8A3CF9C7F90C11DE607FB14
310
4396D7B6A82D282E9A152AD114D5EF2CB866EEE831B8EEA07A7BB5A8D7D61A2BAAEB7FD5F70921FF497D00504B0304140006080800CC70623BCA768048FE000000A00100003B0000006662782F36394639363044362D344446342D343946362D394244322D3234314243333846323333332F7265736F75726365732F636F72
310
652E786D6C8D50596E833010BD0A9ADFCA60D600328E9AA639412F609909B1126CE4A5EAF16B0295DABFFECC8CDEA2797AECF8353F924FB44E193D409E5248504B332A3D0D10FC95B4901C39B3C6F85F3248B49871801506CE266BC2B243D2688FDA47549B11775038871E12F988C7004EDE7016A9083E2ADC3D5D84BC8B09
310
D33C8D74D471E6BC8D0192EDC93A815B742658898E651BCB59086ADC356A8C3FD555A1055ED7E7E254D615792D0F075295F585746FF53B694EE78A565DD736979A65AB9933AFE69F8CD2A2F038022F28ED489E135A7CE4554F9BBEA85E68DB53CAB255FEC71496F19FA6A0B42F8B3DEE6673C0F318E4497096AD7DC5F52C33
310
EEB55BFE0D504B010214000A0000080000CC70623B3DEE336E79000000790000001B00000000000000000000000000000000006175746F6465736B2D64657369676E2D7061636B6167652E786D6C504B01021400140006080800CC70623BD486FD9CA0000000F40000001300000000000000000000000000B20000005B436F
310
6E74656E745F54797065735D2E786D6C504B01021400140006080800CC70623BD9DDAED0EC0000007C010000080000000000000000000000000083010000636F72652E786D6C504B01021400140006080800CC70623B55019EA25F0000007C000000070000000000000000000000000095020000636E782E786D6C504B0102
310
1400140006080800CC70623BA24EB22D72010000D40300000C00000000000000000000000000190300006662782F636F72652E786D6C504B01021400140006080800CC70623B408A7D3B7C0000009D0000000B00000000000000000000000000B50400006662782F636E782E786D6C504B01021400140006080800CC70623B
310
449FB9BD290100001202000031000000000000000000000000005A0500006662782F36394639363044362D344446342D343946362D394244322D3234314243333846323333332F636F72652E786D6C504B01021400140006080800CC70623BAD7543B64E010000330300003000000000000000000000000000D20600006662
310
782F36394639363044362D344446342D343946362D394244322D3234314243333846323333332F636E782E786D6C504B01021400140006080800CC70623B8D05915C650500003B10000034000000000000000000000000006E0800006662782F36394639363044362D344446342D343946362D394244322D32343142433338
310
46323333332F6F626A656374732E786D6C504B01021400140006080000CC70623B0000000000000000000000003500000000000000000000000000250E00006662782F36394639363044362D344446342D343946362D394244322D3234314243333846323333332F76657274696365732E62696E504B010214001400060808
310
00CC70623BF270F13306000000040000003600000000000000000000000000780E00006662782F36394639363044362D344446342D343946362D394244322D3234314243333846323333332F747269616E676C65732E62696E504B01021400140006080000CC70623B00000000000000000000000037000000000000000000
310
00000000D20E00006662782F36394639363044362D344446342D343946362D394244322D3234314243333846323333332F617474726962757465732E62696E504B01021400140006080800CC70623B08DA0BD190000000410100003600000000000000000000000000270F00006662782F36394639363044362D344446342D
310
343946362D394244322D3234314243333846323333332F6469726563746F72792E786D6C504B01021400140006080800CC70623BCA768048FE000000A00100003B000000000000000000000000000B1000006662782F36394639363044362D344446342D343946362D394244322D3234314243333846323333332F7265736F
310
75726365732F636F72652E786D6C504B0506000000000E000E0080040000621100000000
  0
XRECORD
  5
176
102
{ACAD_REACTORS
330
173
102
}
330
173
100
AcDbXrecord
280
     1
270
     1
271
     1
  0
XRECORD
  5
177
102
{ACAD_REACTORS
330
173
102
}
330
173
100
AcDbXrecord
280
     1
270
     1
271
     1
  0
XRECORD
  5
329E
102
{ACAD_REACTORS
330
234
102
}
330
234
100
AcDbXrecord
280
     1
102
DISPLAYNAME
  1
Metric50
102
FLAGS
 90
        0
  0
CELLSTYLEMAP
  5
3264
102
{ACAD_REACTORS
330
162
102
}
330
162
100
AcDbCellStyleMap
 90
        3
300
CELLSTYLE
  1
TABLEFORMAT_BEGIN
 90
        5
170
     1
 91
        0
 92
    32768
 62
   257
 93
        1
300
CONTENTFORMAT
  1
CONTENTFORMAT_BEGIN
 90
        0
 91
        0
 92
      512
 93
        0
300

 40
0.0
140
1.0
 94
        5
 62
     0
340
11
144
6.0
309
CONTENTFORMAT_END
171
     1
301
MARGIN
  1
CELLMARGIN_BEGIN
 40
1.5
 40
1.5
 40
1.5
 40
1.5
 40
4.5
 40
4.5
309
CELLMARGIN_END
 94
        6
 95
        1
302
GRIDFORMAT
  1
GRIDFORMAT_BEGIN
 90
        0
 91
        1
 62
     0
 92
       -2
340
14
 93
        0
 40
1.125
309
GRIDFORMAT_END
 95
        2
302
GRIDFORMAT
  1
GRIDFORMAT_BEGIN
 90
        0
 91
        1
 62
     0
 92
       -2
340
14
 93
        0
 40
1.125
309
GRIDFORMAT_END
 95
        4
302
GRIDFORMAT
  1
GRIDFORMAT_BEGIN
 90
        0
 91
        1
 62
     0
 92
       -2
340
14
 93
        0
 40
1.125
309
GRIDFORMAT_END
 95
        8
302
GRIDFORMAT
  1
GRIDFORMAT_BEGIN
 90
        0
 91
        1
 62
     0
 92
       -2
340
14
 93
        0
 40
1.125
309
GRIDFORMAT_END
 95
       16
302
GRIDFORMAT
  1
GRIDFORMAT_BEGIN
 90
        0
 91
        1
 62
     0
 92
       -2
340
14
 93
        0
 40
1.125
309
GRIDFORMAT_END
 95
       32
302
GRIDFORMAT
  1
GRIDFORMAT_BEGIN
 90
        0
 91
        1
 62
     0
 92
       -2
340
14
 93
        0
 40
1.125
309
GRIDFORMAT_END
309
TABLEFORMAT_END
  1
CELLSTYLE_BEGIN
 90
        1
 91
        1
300
_TITLE
309
CELLSTYLE_END
300
CELLSTYLE
  1
TABLEFORMAT_BEGIN
 90
        5
170
     1
 91
        0
 92
        0
 62
   257
 93
        1
300
CONTENTFORMAT
  1
CONTENTFORMAT_BEGIN
 90
        0
 91
        0
 92
      512
 93
        0
300

 40
0.0
140
1.0
 94
        5
 62
     0
340
11
144
4.5
309
CONTENTFORMAT_END
171
     1
301
MARGIN
  1
CELLMARGIN_BEGIN
 40
1.5
 40
1.5
 40
1.5
 40
1.5
 40
4.5
 40
4.5
309
CELLMARGIN_END
 94
        6
 95
        1
302
GRIDFORMAT
  1
GRIDFORMAT_BEGIN
 90
        0
 91
        1
 62
     0
 92
       -2
340
14
 93
        0
 40
1.125
309
GRIDFORMAT_END
 95
        2
302
GRIDFORMAT
  1
GRIDFORMAT_BEGIN
 90
        0
 91
        1
 62
     0
 92
       -2
340
14
 93
        0
 40
1.125
309
GRIDFORMAT_END
 95
        4
302
GRIDFORMAT
  1
GRIDFORMAT_BEGIN
 90
        0
 91
        1
 62
     0
 92
       -2
340
14
 93
        0
 40
1.125
309
GRIDFORMAT_END
 95
        8
302
GRIDFORMAT
  1
GRIDFORMAT_BEGIN
 90
        0
 91
        1
 62
     0
 92
       -2
340
14
 93
        0
 40
1.125
309
GRIDFORMAT_END
 95
       16
302
GRIDFORMAT
  1
GRIDFORMAT_BEGIN
 90
        0
 91
        1
 62
     0
 92
       -2
340
14
 93
        0
 40
1.125
309
GRIDFORMAT_END
 95
       32
302
GRIDFORMAT
  1
GRIDFORMAT_BEGIN
 90
        0
 91
        1
 62
     0
 92
       -2
340
14
 93
        0
 40
1.125
309
GRIDFORMAT_END
309
TABLEFORMAT_END
  1
CELLSTYLE_BEGIN
 90
        2
 91
        1
300
_HEADER
309
CELLSTYLE_END
300
CELLSTYLE
  1
TABLEFORMAT_BEGIN
 90
        5
170
     1
 91
        0
 92
        0
 62
   257
 93
        1
300
CONTENTFORMAT
  1
CONTENTFORMAT_BEGIN
 90
        0
 91
        0
 92
      512
 93
        0
300

 40
0.0
140
1.0
 94
        2
 62
     0
340
11
144
4.5
309
CONTENTFORMAT_END
171
     1
301
MARGIN
  1
CELLMARGIN_BEGIN
 40
1.5
 40
1.5
 40
1.5
 40
1.5
 40
4.5
 40
4.5
309
CELLMARGIN_END
 94
        6
 95
        1
302
GRIDFORMAT
  1
GRIDFORMAT_BEGIN
 90
        0
 91
        1
 62
     0
 92
       -2
340
14
 93
        0
 40
1.125
309
GRIDFORMAT_END
 95
        2
302
GRIDFORMAT
  1
GRIDFORMAT_BEGIN
 90
        0
 91
        1
 62
     0
 92
       -2
340
14
 93
        0
 40
1.125
309
GRIDFORMAT_END
 95
        4
302
GRIDFORMAT
  1
GRIDFORMAT_BEGIN
 90
        0
 91
        1
 62
     0
 92
       -2
340
14
 93
        0
 40
1.125
309
GRIDFORMAT_END
 95
        8
302
GRIDFORMAT
  1
GRIDFORMAT_BEGIN
 90
        0
 91
        1
 62
     0
 92
       -2
340
14
 93
        0
 40
1.125
309
GRIDFORMAT_END
 95
       16
302
GRIDFORMAT
  1
GRIDFORMAT_BEGIN
 90
        0
 91
        1
 62
     0
 92
       -2
340
14
 93
        0
 40
1.125
309
GRIDFORMAT_END
 95
       32
302
GRIDFORMAT
  1
GRIDFORMAT_BEGIN
 90
        0
 91
        1
 62
     0
 92
       -2
340
14
 93
        0
 40
1.125
309
GRIDFORMAT_END
309
TABLEFORMAT_END
  1
CELLSTYLE_BEGIN
 90
        3
 91
        2
300
_DATA
309
CELLSTYLE_END
  0
XRECORD
  5
3279
102
{ACAD_REACTORS
330
3278
102
}
330
3278
100
AcDbXrecord
280
     1
102
RTVSPost2010Prop28
280
     1
102
RTVSPost2010PropOp28
 70
     1
102
RTVSPost2010Prop29
280
     1
102
RTVSPost2010PropOp29
 70
     1
102
RTVSPost2010Prop30
280
     0
102
RTVSPost2010PropOp30
 70
     1
102
RTVSPost2010Prop31
280
     0
102
RTVSPost2010PropOp31
 70
     1
102
RTVSPost2010Prop32
280
     0
102
RTVSPost2010PropOp32
 70
     1
102
RTVSPost2010Prop33
280
     0
102
RTVSPost2010PropOp33
 70
     1
102
RTVSPost2010Prop34
280
     0
102
RTVSPost2010PropOp34
 70
     1
102
RTVSPost2010Prop35
280
     0
102
RTVSPost2010PropOp35
 70
     1
102
RTVSPost2010Prop36
280
     0
102
RTVSPost2010PropOp36
 70
     1
102
RTVSPost2010Prop37
 90
       50
102
RTVSPost2010PropOp37
 70
     1
102
RTVSPost2010Prop38
140
0.0
102
RTVSPost2010PropOp38
 70
     1
102
RTVSPost2010Prop39
140
1.0
102
RTVSPost2010PropOp39
 70
     1
102
RTVSPost2010Prop40
 90
        0
102
RTVSPost2010PropOp40
 70
     1
102
RTVSPost2010Prop41ColorIndex
 90
       18
102
RTVSPost2010Prop41ColorRGB
 90
        0
102
RTVSPost2010PropOp41
 70
     1
102
RTVSPost2010Prop42
 90
       50
102
RTVSPost2010PropOp42
 70
     1
102
RTVSPost2010Prop43
 90
        3
102
RTVSPost2010PropOp43
 70
     1
102
RTVSPost2010Prop44ColorIndex
 90
        5
102
RTVSPost2010Prop44ColorRGB
 90
      255
102
RTVSPost2010PropOp44
 70
     1
102
RTVSPost2010Prop45
280
     0
102
RTVSPost2010PropOp45
 70
     1
102
RTVSPost2010Prop46
 90
       50
102
RTVSPost2010PropOp46
 70
     1
102
RTVSPost2010Prop47
 90
       50
102
RTVSPost2010PropOp47
 70
     1
102
RTVSPost2010Prop48
 90
       50
102
RTVSPost2010PropOp48
 70
     1
102
RTVSPost2010Prop49
280
     0
102
RTVSPost2010PropOp49
 70
     1
102
RTVSPost2010Prop50
 90
       50
102
RTVSPost2010PropOp50
 70
     1
102
RTVSPost2010Prop51ColorIndex
 90
      256
102
RTVSPost2010Prop51ColorRGB
 90
-16777216
102
RTVSPost2010PropOp51
 70
     0
102
RTVSPost2010Prop52
140
1.0
102
RTVSPost2010PropOp52
 70
     0
102
RTVSPost2010Prop53
 90
        2
102
RTVSPost2010PropOp53
 70
     1
102
RTVSPost2010Prop54
  1
strokes_ogs.tif
102
RTVSPost2010PropOp54
 70
     1
102
RTVSPost2010Prop55
280
     0
102
RTVSPost2010PropOp55
 70
     1
102
RTVSPost2010Prop56
140
1.0
102
RTVSPost2010PropOp56
 70
     1
102
RTVSPost2010Prop57
140
1.0
102
RTVSPost2010PropOp57
 70
     1
  0
XRECORD
  5
3277
102
{ACAD_REACTORS
330
3276
102
}
330
3276
100
AcDbXrecord
280
     1
102
RTVSPost2010Prop28
280
     0
102
RTVSPost2010PropOp28
 70
     1
102
RTVSPost2010Prop29
280
     1
102
RTVSPost2010PropOp29
 70
     1
102
RTVSPost2010Prop30
280
     1
102
RTVSPost2010PropOp30
 70
     1
102
RTVSPost2010Prop31
280
     0
102
RTVSPost2010PropOp31
 70
     1
102
RTVSPost2010Prop32
280
     0
102
RTVSPost2010PropOp32
 70
     1
102
RTVSPost2010Prop33
280
     0
102
RTVSPost2010PropOp33
 70
     1
102
RTVSPost2010Prop34
280
     0
102
RTVSPost2010PropOp34
 70
     1
102
RTVSPost2010Prop35
280
     0
102
RTVSPost2010PropOp35
 70
     1
102
RTVSPost2010Prop36
280
     0
102
RTVSPost2010PropOp36
 70
     1
102
RTVSPost2010Prop37
 90
       50
102
RTVSPost2010PropOp37
 70
     1
102
RTVSPost2010Prop38
140
0.0
102
RTVSPost2010PropOp38
 70
     1
102
RTVSPost2010Prop39
140
1.0
102
RTVSPost2010PropOp39
 70
     1
102
RTVSPost2010Prop40
 90
        0
102
RTVSPost2010PropOp40
 70
     1
102
RTVSPost2010Prop41ColorIndex
 90
       18
102
RTVSPost2010Prop41ColorRGB
 90
        0
102
RTVSPost2010PropOp41
 70
     1
102
RTVSPost2010Prop42
 90
       50
102
RTVSPost2010PropOp42
 70
     1
102
RTVSPost2010Prop43
 90
        3
102
RTVSPost2010PropOp43
 70
     1
102
RTVSPost2010Prop44ColorIndex
 90
        5
102
RTVSPost2010Prop44ColorRGB
 90
      255
102
RTVSPost2010PropOp44
 70
     1
102
RTVSPost2010Prop45
280
     0
102
RTVSPost2010PropOp45
 70
     1
102
RTVSPost2010Prop46
 90
       50
102
RTVSPost2010PropOp46
 70
     1
102
RTVSPost2010Prop47
 90
       50
102
RTVSPost2010PropOp47
 70
     1
102
RTVSPost2010Prop48
 90
       50
102
RTVSPost2010PropOp48
 70
     1
102
RTVSPost2010Prop49
280
     0
102
RTVSPost2010PropOp49
 70
     1
102
RTVSPost2010Prop50
 90
       50
102
RTVSPost2010PropOp50
 70
     1
102
RTVSPost2010Prop51ColorIndex
 90
      256
102
RTVSPost2010Prop51ColorRGB
 90
-16777216
102
RTVSPost2010PropOp51
 70
     0
102
RTVSPost2010Prop52
140
1.0
102
RTVSPost2010PropOp52
 70
     0
102
RTVSPost2010Prop53
 90
        2
102
RTVSPost2010PropOp53
 70
     1
102
RTVSPost2010Prop54
  1
strokes_ogs.tif
102
RTVSPost2010PropOp54
 70
     1
102
RTVSPost2010Prop55
280
     0
102
RTVSPost2010PropOp55
 70
     1
102
RTVSPost2010Prop56
140
1.0
102
RTVSPost2010PropOp56
 70
     1
102
RTVSPost2010Prop57
140
1.0
102
RTVSPost2010PropOp57
 70
     1
  0
XRECORD
  5
3285
102
{ACAD_REACTORS
330
3284
102
}
330
3284
100
AcDbXrecord
280
     1
102
RTVSPost2010Prop28
280
     0
102
RTVSPost2010PropOp28
 70
     1
102
RTVSPost2010Prop29
280
     1
102
RTVSPost2010PropOp29
 70
     1
102
RTVSPost2010Prop30
280
     1
102
RTVSPost2010PropOp30
 70
     1
102
RTVSPost2010Prop31
280
     0
102
RTVSPost2010PropOp31
 70
     1
102
RTVSPost2010Prop32
280
     0
102
RTVSPost2010PropOp32
 70
     1
102
RTVSPost2010Prop33
280
     0
102
RTVSPost2010PropOp33
 70
     1
102
RTVSPost2010Prop34
280
     0
102
RTVSPost2010PropOp34
 70
     1
102
RTVSPost2010Prop35
280
     0
102
RTVSPost2010PropOp35
 70
     1
102
RTVSPost2010Prop36
280
     0
102
RTVSPost2010PropOp36
 70
     1
102
RTVSPost2010Prop37
 90
       50
102
RTVSPost2010PropOp37
 70
     1
102
RTVSPost2010Prop38
140
0.0
102
RTVSPost2010PropOp38
 70
     1
102
RTVSPost2010Prop39
140
1.0
102
RTVSPost2010PropOp39
 70
     1
102
RTVSPost2010Prop40
 90
        0
102
RTVSPost2010PropOp40
 70
     1
102
RTVSPost2010Prop41ColorIndex
 90
       18
102
RTVSPost2010Prop41ColorRGB
 90
        0
102
RTVSPost2010PropOp41
 70
     1
102
RTVSPost2010Prop42
 90
       50
102
RTVSPost2010PropOp42
 70
     1
102
RTVSPost2010Prop43
 90
        3
102
RTVSPost2010PropOp43
 70
     1
102
RTVSPost2010Prop44ColorIndex
 90
        5
102
RTVSPost2010Prop44ColorRGB
 90
      255
102
RTVSPost2010PropOp44
 70
     1
102
RTVSPost2010Prop45
280
     0
102
RTVSPost2010PropOp45
 70
     1
102
RTVSPost2010Prop46
 90
       50
102
RTVSPost2010PropOp46
 70
     1
102
RTVSPost2010Prop47
 90
       50
102
RTVSPost2010PropOp47
 70
     1
102
RTVSPost2010Prop48
 90
       50
102
RTVSPost2010PropOp48
 70
     1
102
RTVSPost2010Prop49
280
     0
102
RTVSPost2010PropOp49
 70
     1
102
RTVSPost2010Prop50
 90
       50
102
RTVSPost2010PropOp50
 70
     1
102
RTVSPost2010Prop51ColorIndex
 90
      256
102
RTVSPost2010Prop51ColorRGB
 90
-16777216
102
RTVSPost2010PropOp51
 70
     0
102
RTVSPost2010Prop52
140
1.0
102
RTVSPost2010PropOp52
 70
     0
102
RTVSPost2010Prop53
 90
        2
102
RTVSPost2010PropOp53
 70
     1
102
RTVSPost2010Prop54
  1
strokes_ogs.tif
102
RTVSPost2010PropOp54
 70
     1
102
RTVSPost2010Prop55
280
     0
102
RTVSPost2010PropOp55
 70
     1
102
RTVSPost2010Prop56
140
1.0
102
RTVSPost2010PropOp56
 70
     1
102
RTVSPost2010Prop57
140
1.0
102
RTVSPost2010PropOp57
 70
     1
  0
XRECORD
  5
328D
102
{ACAD_REACTORS
330
328C
102
}
330
328C
100
AcDbXrecord
280
     1
102
RTVSPost2010Prop28
280
     0
102
RTVSPost2010PropOp28
 70
     1
102
RTVSPost2010Prop29
280
     1
102
RTVSPost2010PropOp29
 70
     1
102
RTVSPost2010Prop30
280
     1
102
RTVSPost2010PropOp30
 70
     1
102
RTVSPost2010Prop31
280
     0
102
RTVSPost2010PropOp31
 70
     1
102
RTVSPost2010Prop32
280
     0
102
RTVSPost2010PropOp32
 70
     1
102
RTVSPost2010Prop33
280
     0
102
RTVSPost2010PropOp33
 70
     1
102
RTVSPost2010Prop34
280
     0
102
RTVSPost2010PropOp34
 70
     1
102
RTVSPost2010Prop35
280
     0
102
RTVSPost2010PropOp35
 70
     1
102
RTVSPost2010Prop36
280
     0
102
RTVSPost2010PropOp36
 70
     1
102
RTVSPost2010Prop37
 90
       50
102
RTVSPost2010PropOp37
 70
     1
102
RTVSPost2010Prop38
140
0.0
102
RTVSPost2010PropOp38
 70
     1
102
RTVSPost2010Prop39
140
1.0
102
RTVSPost2010PropOp39
 70
     1
102
RTVSPost2010Prop40
 90
        0
102
RTVSPost2010PropOp40
 70
     1
102
RTVSPost2010Prop41ColorIndex
 90
       18
102
RTVSPost2010Prop41ColorRGB
 90
        0
102
RTVSPost2010PropOp41
 70
     1
102
RTVSPost2010Prop42
 90
       50
102
RTVSPost2010PropOp42
 70
     1
102
RTVSPost2010Prop43
 90
        3
102
RTVSPost2010PropOp43
 70
     1
102
RTVSPost2010Prop44ColorIndex
 90
        5
102
RTVSPost2010Prop44ColorRGB
 90
      255
102
RTVSPost2010PropOp44
 70
     1
102
RTVSPost2010Prop45
280
     0
102
RTVSPost2010PropOp45
 70
     1
102
RTVSPost2010Prop46
 90
       50
102
RTVSPost2010PropOp46
 70
     1
102
RTVSPost2010Prop47
 90
       50
102
RTVSPost2010PropOp47
 70
     1
102
RTVSPost2010Prop48
 90
       50
102
RTVSPost2010PropOp48
 70
     1
102
RTVSPost2010Prop49
280
     0
102
RTVSPost2010PropOp49
 70
     1
102
RTVSPost2010Prop50
 90
       50
102
RTVSPost2010PropOp50
 70
     1
102
RTVSPost2010Prop51ColorIndex
 90
      256
102
RTVSPost2010Prop51ColorRGB
 90
-16777216
102
RTVSPost2010PropOp51
 70
     0
102
RTVSPost2010Prop52
140
1.0
102
RTVSPost2010PropOp52
 70
     0
102
RTVSPost2010Prop53
 90
        2
102
RTVSPost2010PropOp53
 70
     1
102
RTVSPost2010Prop54
  1
strokes_ogs.tif
102
RTVSPost2010PropOp54
 70
     1
102
RTVSPost2010Prop55
280
     0
102
RTVSPost2010PropOp55
 70
     1
102
RTVSPost2010Prop56
140
1.0
102
RTVSPost2010PropOp56
 70
     1
102
RTVSPost2010Prop57
140
1.0
102
RTVSPost2010PropOp57
 70
     1
  0
XRECORD
  5
327F
102
{ACAD_REACTORS
330
327E
102
}
330
327E
100
AcDbXrecord
280
     1
102
RTVSPost2010Prop28
280
     0
102
RTVSPost2010PropOp28
 70
     1
102
RTVSPost2010Prop29
280
     1
102
RTVSPost2010PropOp29
 70
     1
102
RTVSPost2010Prop30
280
     1
102
RTVSPost2010PropOp30
 70
     1
102
RTVSPost2010Prop31
280
     0
102
RTVSPost2010PropOp31
 70
     1
102
RTVSPost2010Prop32
280
     0
102
RTVSPost2010PropOp32
 70
     1
102
RTVSPost2010Prop33
280
     0
102
RTVSPost2010PropOp33
 70
     1
102
RTVSPost2010Prop34
280
     0
102
RTVSPost2010PropOp34
 70
     1
102
RTVSPost2010Prop35
280
     0
102
RTVSPost2010PropOp35
 70
     1
102
RTVSPost2010Prop36
280
     0
102
RTVSPost2010PropOp36
 70
     1
102
RTVSPost2010Prop37
 90
       50
102
RTVSPost2010PropOp37
 70
     1
102
RTVSPost2010Prop38
140
0.0
102
RTVSPost2010PropOp38
 70
     1
102
RTVSPost2010Prop39
140
1.0
102
RTVSPost2010PropOp39
 70
     1
102
RTVSPost2010Prop40
 90
        0
102
RTVSPost2010PropOp40
 70
     1
102
RTVSPost2010Prop41ColorIndex
 90
       18
102
RTVSPost2010Prop41ColorRGB
 90
        0
102
RTVSPost2010PropOp41
 70
     1
102
RTVSPost2010Prop42
 90
       50
102
RTVSPost2010PropOp42
 70
     1
102
RTVSPost2010Prop43
 90
        3
102
RTVSPost2010PropOp43
 70
     1
102
RTVSPost2010Prop44ColorIndex
 90
        5
102
RTVSPost2010Prop44ColorRGB
 90
      255
102
RTVSPost2010PropOp44
 70
     1
102
RTVSPost2010Prop45
280
     0
102
RTVSPost2010PropOp45
 70
     1
102
RTVSPost2010Prop46
 90
       50
102
RTVSPost2010PropOp46
 70
     1
102
RTVSPost2010Prop47
 90
       50
102
RTVSPost2010PropOp47
 70
     1
102
RTVSPost2010Prop48
 90
       50
102
RTVSPost2010PropOp48
 70
     1
102
RTVSPost2010Prop49
280
     0
102
RTVSPost2010PropOp49
 70
     1
102
RTVSPost2010Prop50
 90
       50
102
RTVSPost2010PropOp50
 70
     1
102
RTVSPost2010Prop51ColorIndex
 90
      256
102
RTVSPost2010Prop51ColorRGB
 90
-16777216
102
RTVSPost2010PropOp51
 70
     0
102
RTVSPost2010Prop52
140
1.0
102
RTVSPost2010PropOp52
 70
     0
102
RTVSPost2010Prop53
 90
        2
102
RTVSPost2010PropOp53
 70
     1
102
RTVSPost2010Prop54
  1
strokes_ogs.tif
102
RTVSPost2010PropOp54
 70
     1
102
RTVSPost2010Prop55
280
     0
102
RTVSPost2010PropOp55
 70
     1
102
RTVSPost2010Prop56
140
1.0
102
RTVSPost2010PropOp56
 70
     1
102
RTVSPost2010Prop57
140
1.0
102
RTVSPost2010PropOp57
 70
     1
  0
XRECORD
  5
3283
102
{ACAD_REACTORS
330
3282
102
}
330
3282
100
AcDbXrecord
280
     1
102
RTVSPost2010Prop28
280
     0
102
RTVSPost2010PropOp28
 70
     1
102
RTVSPost2010Prop29
280
     1
102
RTVSPost2010PropOp29
 70
     1
102
RTVSPost2010Prop30
280
     1
102
RTVSPost2010PropOp30
 70
     1
102
RTVSPost2010Prop31
280
     0
102
RTVSPost2010PropOp31
 70
     1
102
RTVSPost2010Prop32
280
     0
102
RTVSPost2010PropOp32
 70
     1
102
RTVSPost2010Prop33
280
     0
102
RTVSPost2010PropOp33
 70
     1
102
RTVSPost2010Prop34
280
     0
102
RTVSPost2010PropOp34
 70
     1
102
RTVSPost2010Prop35
280
     0
102
RTVSPost2010PropOp35
 70
     1
102
RTVSPost2010Prop36
280
     0
102
RTVSPost2010PropOp36
 70
     1
102
RTVSPost2010Prop37
 90
       50
102
RTVSPost2010PropOp37
 70
     1
102
RTVSPost2010Prop38
140
0.0
102
RTVSPost2010PropOp38
 70
     1
102
RTVSPost2010Prop39
140
1.0
102
RTVSPost2010PropOp39
 70
     1
102
RTVSPost2010Prop40
 90
        0
102
RTVSPost2010PropOp40
 70
     1
102
RTVSPost2010Prop41ColorIndex
 90
       18
102
RTVSPost2010Prop41ColorRGB
 90
        0
102
RTVSPost2010PropOp41
 70
     1
102
RTVSPost2010Prop42
 90
       50
102
RTVSPost2010PropOp42
 70
     1
102
RTVSPost2010Prop43
 90
        3
102
RTVSPost2010PropOp43
 70
     1
102
RTVSPost2010Prop44ColorIndex
 90
        5
102
RTVSPost2010Prop44ColorRGB
 90
      255
102
RTVSPost2010PropOp44
 70
     1
102
RTVSPost2010Prop45
280
     0
102
RTVSPost2010PropOp45
 70
     1
102
RTVSPost2010Prop46
 90
       50
102
RTVSPost2010PropOp46
 70
     1
102
RTVSPost2010Prop47
 90
       50
102
RTVSPost2010PropOp47
 70
     1
102
RTVSPost2010Prop48
 90
       50
102
RTVSPost2010PropOp48
 70
     1
102
RTVSPost2010Prop49
280
     0
102
RTVSPost2010PropOp49
 70
     1
102
RTVSPost2010Prop50
 90
       50
102
RTVSPost2010PropOp50
 70
     1
102
RTVSPost2010Prop51ColorIndex
 90
      256
102
RTVSPost2010Prop51ColorRGB
 90
-16777216
102
RTVSPost2010PropOp51
 70
     0
102
RTVSPost2010Prop52
140
1.0
102
RTVSPost2010PropOp52
 70
     0
102
RTVSPost2010Prop53
 90
        2
102
RTVSPost2010PropOp53
 70
     1
102
RTVSPost2010Prop54
  1
strokes_ogs.tif
102
RTVSPost2010PropOp54
 70
     1
102
RTVSPost2010Prop55
280
     0
102
RTVSPost2010PropOp55
 70
     1
102
RTVSPost2010Prop56
140
1.0
102
RTVSPost2010PropOp56
 70
     1
102
RTVSPost2010Prop57
140
1.0
102
RTVSPost2010PropOp57
 70
     1
  0
XRECORD
  5
3293
102
{ACAD_REACTORS
330
3292
102
}
330
3292
100
AcDbXrecord
280
     1
102
RTVSPost2010Prop28
280
     0
102
RTVSPost2010PropOp28
 70
     1
102
RTVSPost2010Prop29
280
     1
102
RTVSPost2010PropOp29
 70
     1
102
RTVSPost2010Prop30
280
     1
102
RTVSPost2010PropOp30
 70
     1
102
RTVSPost2010Prop31
280
     0
102
RTVSPost2010PropOp31
 70
     1
102
RTVSPost2010Prop32
280
     0
102
RTVSPost2010PropOp32
 70
     1
102
RTVSPost2010Prop33
280
     0
102
RTVSPost2010PropOp33
 70
     1
102
RTVSPost2010Prop34
280
     0
102
RTVSPost2010PropOp34
 70
     1
102
RTVSPost2010Prop35
280
     0
102
RTVSPost2010PropOp35
 70
     1
102
RTVSPost2010Prop36
280
     0
102
RTVSPost2010PropOp36
 70
     1
102
RTVSPost2010Prop37
 90
       50
102
RTVSPost2010PropOp37
 70
     1
102
RTVSPost2010Prop38
140
0.0
102
RTVSPost2010PropOp38
 70
     1
102
RTVSPost2010Prop39
140
1.0
102
RTVSPost2010PropOp39
 70
     1
102
RTVSPost2010Prop40
 90
        0
102
RTVSPost2010PropOp40
 70
     1
102
RTVSPost2010Prop41ColorIndex
 90
       18
102
RTVSPost2010Prop41ColorRGB
 90
        0
102
RTVSPost2010PropOp41
 70
     1
102
RTVSPost2010Prop42
 90
       50
102
RTVSPost2010PropOp42
 70
     1
102
RTVSPost2010Prop43
 90
        3
102
RTVSPost2010PropOp43
 70
     1
102
RTVSPost2010Prop44ColorIndex
 90
        5
102
RTVSPost2010Prop44ColorRGB
 90
      255
102
RTVSPost2010PropOp44
 70
     1
102
RTVSPost2010Prop45
280
     0
102
RTVSPost2010PropOp45
 70
     1
102
RTVSPost2010Prop46
 90
       50
102
RTVSPost2010PropOp46
 70
     1
102
RTVSPost2010Prop47
 90
       50
102
RTVSPost2010PropOp47
 70
     1
102
RTVSPost2010Prop48
 90
       50
102
RTVSPost2010PropOp48
 70
     1
102
RTVSPost2010Prop49
280
     0
102
RTVSPost2010PropOp49
 70
     1
102
RTVSPost2010Prop50
 90
       50
102
RTVSPost2010PropOp50
 70
     1
102
RTVSPost2010Prop51ColorIndex
 90
      256
102
RTVSPost2010Prop51ColorRGB
 90
-16777216
102
RTVSPost2010PropOp51
 70
     0
102
RTVSPost2010Prop52
140
1.0
102
RTVSPost2010PropOp52
 70
     0
102
RTVSPost2010Prop53
 90
        2
102
RTVSPost2010PropOp53
 70
     1
102
RTVSPost2010Prop54
  1
strokes_ogs.tif
102
RTVSPost2010PropOp54
 70
     1
102
RTVSPost2010Prop55
280
     0
102
RTVSPost2010PropOp55
 70
     1
102
RTVSPost2010Prop56
140
1.0
102
RTVSPost2010PropOp56
 70
     1
102
RTVSPost2010Prop57
140
1.0
102
RTVSPost2010PropOp57
 70
     1
  0
XRECORD
  5
328B
102
{ACAD_REACTORS
330
328A
102
}
330
328A
100
AcDbXrecord
280
     1
102
RTVSPost2010Prop28
280
     0
102
RTVSPost2010PropOp28
 70
     1
102
RTVSPost2010Prop29
280
     1
102
RTVSPost2010PropOp29
 70
     1
102
RTVSPost2010Prop30
280
     1
102
RTVSPost2010PropOp30
 70
     1
102
RTVSPost2010Prop31
280
     0
102
RTVSPost2010PropOp31
 70
     1
102
RTVSPost2010Prop32
280
     0
102
RTVSPost2010PropOp32
 70
     1
102
RTVSPost2010Prop33
280
     0
102
RTVSPost2010PropOp33
 70
     1
102
RTVSPost2010Prop34
280
     0
102
RTVSPost2010PropOp34
 70
     1
102
RTVSPost2010Prop35
280
     0
102
RTVSPost2010PropOp35
 70
     1
102
RTVSPost2010Prop36
280
     0
102
RTVSPost2010PropOp36
 70
     1
102
RTVSPost2010Prop37
 90
       50
102
RTVSPost2010PropOp37
 70
     1
102
RTVSPost2010Prop38
140
0.0
102
RTVSPost2010PropOp38
 70
     1
102
RTVSPost2010Prop39
140
1.0
102
RTVSPost2010PropOp39
 70
     1
102
RTVSPost2010Prop40
 90
        0
102
RTVSPost2010PropOp40
 70
     1
102
RTVSPost2010Prop41ColorIndex
 90
       18
102
RTVSPost2010Prop41ColorRGB
 90
        0
102
RTVSPost2010PropOp41
 70
     1
102
RTVSPost2010Prop42
 90
       50
102
RTVSPost2010PropOp42
 70
     1
102
RTVSPost2010Prop43
 90
        3
102
RTVSPost2010PropOp43
 70
     1
102
RTVSPost2010Prop44ColorIndex
 90
        5
102
RTVSPost2010Prop44ColorRGB
 90
      255
102
RTVSPost2010PropOp44
 70
     1
102
RTVSPost2010Prop45
280
     0
102
RTVSPost2010PropOp45
 70
     1
102
RTVSPost2010Prop46
 90
       50
102
RTVSPost2010PropOp46
 70
     1
102
RTVSPost2010Prop47
 90
       50
102
RTVSPost2010PropOp47
 70
     1
102
RTVSPost2010Prop48
 90
       50
102
RTVSPost2010PropOp48
 70
     1
102
RTVSPost2010Prop49
280
     0
102
RTVSPost2010PropOp49
 70
     1
102
RTVSPost2010Prop50
 90
       50
102
RTVSPost2010PropOp50
 70
     1
102
RTVSPost2010Prop51ColorIndex
 90
      256
102
RTVSPost2010Prop51ColorRGB
 90
-16777216
102
RTVSPost2010PropOp51
 70
     0
102
RTVSPost2010Prop52
140
1.0
102
RTVSPost2010PropOp52
 70
     0
102
RTVSPost2010Prop53
 90
        2
102
RTVSPost2010PropOp53
 70
     1
102
RTVSPost2010Prop54
  1
strokes_ogs.tif
102
RTVSPost2010PropOp54
 70
     1
102
RTVSPost2010Prop55
280
     0
102
RTVSPost2010PropOp55
 70
     1
102
RTVSPost2010Prop56
140
1.0
102
RTVSPost2010PropOp56
 70
     1
102
RTVSPost2010Prop57
140
1.0
102
RTVSPost2010PropOp57
 70
     1
  0
XRECORD
  5
326F
102
{ACAD_REACTORS
330
326E
102
}
330
326E
100
AcDbXrecord
280
     1
102
RTVSPost2010Prop28
280
     0
102
RTVSPost2010PropOp28
 70
     1
102
RTVSPost2010Prop29
280
     1
102
RTVSPost2010PropOp29
 70
     1
102
RTVSPost2010Prop30
280
     1
102
RTVSPost2010PropOp30
 70
     1
102
RTVSPost2010Prop31
280
     0
102
RTVSPost2010PropOp31
 70
     1
102
RTVSPost2010Prop32
280
     0
102
RTVSPost2010PropOp32
 70
     1
102
RTVSPost2010Prop33
280
     0
102
RTVSPost2010PropOp33
 70
     1
102
RTVSPost2010Prop34
280
     0
102
RTVSPost2010PropOp34
 70
     1
102
RTVSPost2010Prop35
280
     0
102
RTVSPost2010PropOp35
 70
     1
102
RTVSPost2010Prop36
280
     0
102
RTVSPost2010PropOp36
 70
     1
102
RTVSPost2010Prop37
 90
       50
102
RTVSPost2010PropOp37
 70
     1
102
RTVSPost2010Prop38
140
0.0
102
RTVSPost2010PropOp38
 70
     1
102
RTVSPost2010Prop39
140
1.0
102
RTVSPost2010PropOp39
 70
     1
102
RTVSPost2010Prop40
 90
        0
102
RTVSPost2010PropOp40
 70
     1
102
RTVSPost2010Prop41ColorIndex
 90
       18
102
RTVSPost2010Prop41ColorRGB
 90
        0
102
RTVSPost2010PropOp41
 70
     1
102
RTVSPost2010Prop42
 90
       50
102
RTVSPost2010PropOp42
 70
     1
102
RTVSPost2010Prop43
 90
        3
102
RTVSPost2010PropOp43
 70
     1
102
RTVSPost2010Prop44ColorIndex
 90
        5
102
RTVSPost2010Prop44ColorRGB
 90
      255
102
RTVSPost2010PropOp44
 70
     1
102
RTVSPost2010Prop45
280
     0
102
RTVSPost2010PropOp45
 70
     1
102
RTVSPost2010Prop46
 90
       50
102
RTVSPost2010PropOp46
 70
     1
102
RTVSPost2010Prop47
 90
       50
102
RTVSPost2010PropOp47
 70
     1
102
RTVSPost2010Prop48
 90
       50
102
RTVSPost2010PropOp48
 70
     1
102
RTVSPost2010Prop49
280
     0
102
RTVSPost2010PropOp49
 70
     1
102
RTVSPost2010Prop50
 90
       50
102
RTVSPost2010PropOp50
 70
     1
102
RTVSPost2010Prop51ColorIndex
 90
      256
102
RTVSPost2010Prop51ColorRGB
 90
-16777216
102
RTVSPost2010PropOp51
 70
     0
102
RTVSPost2010Prop52
140
1.0
102
RTVSPost2010PropOp52
 70
     0
102
RTVSPost2010Prop53
 90
        2
102
RTVSPost2010PropOp53
 70
     1
102
RTVSPost2010Prop54
  1
strokes_ogs.tif
102
RTVSPost2010PropOp54
 70
     1
102
RTVSPost2010Prop55
280
     0
102
RTVSPost2010PropOp55
 70
     1
102
RTVSPost2010Prop56
140
1.0
102
RTVSPost2010PropOp56
 70
     1
102
RTVSPost2010Prop57
140
1.0
102
RTVSPost2010PropOp57
 70
     1
  0
XRECORD
  5
3271
102
{ACAD_REACTORS
330
3270
102
}
330
3270
100
AcDbXrecord
280
     1
102
RTVSPost2010Prop28
280
     0
102
RTVSPost2010PropOp28
 70
     1
102
RTVSPost2010Prop29
280
     1
102
RTVSPost2010PropOp29
 70
     1
102
RTVSPost2010Prop30
280
     1
102
RTVSPost2010PropOp30
 70
     1
102
RTVSPost2010Prop31
280
     0
102
RTVSPost2010PropOp31
 70
     1
102
RTVSPost2010Prop32
280
     0
102
RTVSPost2010PropOp32
 70
     1
102
RTVSPost2010Prop33
280
     0
102
RTVSPost2010PropOp33
 70
     1
102
RTVSPost2010Prop34
280
     0
102
RTVSPost2010PropOp34
 70
     1
102
RTVSPost2010Prop35
280
     0
102
RTVSPost2010PropOp35
 70
     1
102
RTVSPost2010Prop36
280
     0
102
RTVSPost2010PropOp36
 70
     1
102
RTVSPost2010Prop37
 90
       50
102
RTVSPost2010PropOp37
 70
     1
102
RTVSPost2010Prop38
140
0.0
102
RTVSPost2010PropOp38
 70
     1
102
RTVSPost2010Prop39
140
1.0
102
RTVSPost2010PropOp39
 70
     1
102
RTVSPost2010Prop40
 90
        0
102
RTVSPost2010PropOp40
 70
     1
102
RTVSPost2010Prop41ColorIndex
 90
       18
102
RTVSPost2010Prop41ColorRGB
 90
        0
102
RTVSPost2010PropOp41
 70
     1
102
RTVSPost2010Prop42
 90
       50
102
RTVSPost2010PropOp42
 70
     1
102
RTVSPost2010Prop43
 90
        3
102
RTVSPost2010PropOp43
 70
     1
102
RTVSPost2010Prop44ColorIndex
 90
        5
102
RTVSPost2010Prop44ColorRGB
 90
      255
102
RTVSPost2010PropOp44
 70
     1
102
RTVSPost2010Prop45
280
     0
102
RTVSPost2010PropOp45
 70
     1
102
RTVSPost2010Prop46
 90
       50
102
RTVSPost2010PropOp46
 70
     1
102
RTVSPost2010Prop47
 90
       50
102
RTVSPost2010PropOp47
 70
     1
102
RTVSPost2010Prop48
 90
       50
102
RTVSPost2010PropOp48
 70
     1
102
RTVSPost2010Prop49
280
     0
102
RTVSPost2010PropOp49
 70
     1
102
RTVSPost2010Prop50
 90
       50
102
RTVSPost2010PropOp50
 70
     1
102
RTVSPost2010Prop51ColorIndex
 90
      256
102
RTVSPost2010Prop51ColorRGB
 90
-16777216
102
RTVSPost2010PropOp51
 70
     0
102
RTVSPost2010Prop52
140
1.0
102
RTVSPost2010PropOp52
 70
     0
102
RTVSPost2010Prop53
 90
        2
102
RTVSPost2010PropOp53
 70
     1
102
RTVSPost2010Prop54
  1
strokes_ogs.tif
102
RTVSPost2010PropOp54
 70
     1
102
RTVSPost2010Prop55
280
     0
102
RTVSPost2010PropOp55
 70
     1
102
RTVSPost2010Prop56
140
1.0
102
RTVSPost2010PropOp56
 70
     1
102
RTVSPost2010Prop57
140
1.0
102
RTVSPost2010PropOp57
 70
     1
  0
XRECORD
  5
3273
102
{ACAD_REACTORS
330
3272
102
}
330
3272
100
AcDbXrecord
280
     1
102
RTVSPost2010Prop28
280
     0
102
RTVSPost2010PropOp28
 70
     1
102
RTVSPost2010Prop29
280
     1
102
RTVSPost2010PropOp29
 70
     1
102
RTVSPost2010Prop30
280
     1
102
RTVSPost2010PropOp30
 70
     1
102
RTVSPost2010Prop31
280
     0
102
RTVSPost2010PropOp31
 70
     1
102
RTVSPost2010Prop32
280
     0
102
RTVSPost2010PropOp32
 70
     1
102
RTVSPost2010Prop33
280
     0
102
RTVSPost2010PropOp33
 70
     1
102
RTVSPost2010Prop34
280
     0
102
RTVSPost2010PropOp34
 70
     1
102
RTVSPost2010Prop35
280
     0
102
RTVSPost2010PropOp35
 70
     1
102
RTVSPost2010Prop36
280
     0
102
RTVSPost2010PropOp36
 70
     1
102
RTVSPost2010Prop37
 90
       50
102
RTVSPost2010PropOp37
 70
     1
102
RTVSPost2010Prop38
140
0.0
102
RTVSPost2010PropOp38
 70
     1
102
RTVSPost2010Prop39
140
1.0
102
RTVSPost2010PropOp39
 70
     1
102
RTVSPost2010Prop40
 90
        0
102
RTVSPost2010PropOp40
 70
     1
102
RTVSPost2010Prop41ColorIndex
 90
       18
102
RTVSPost2010Prop41ColorRGB
 90
        0
102
RTVSPost2010PropOp41
 70
     1
102
RTVSPost2010Prop42
 90
       50
102
RTVSPost2010PropOp42
 70
     1
102
RTVSPost2010Prop43
 90
        3
102
RTVSPost2010PropOp43
 70
     1
102
RTVSPost2010Prop44ColorIndex
 90
        5
102
RTVSPost2010Prop44ColorRGB
 90
      255
102
RTVSPost2010PropOp44
 70
     1
102
RTVSPost2010Prop45
280
     0
102
RTVSPost2010PropOp45
 70
     1
102
RTVSPost2010Prop46
 90
       50
102
RTVSPost2010PropOp46
 70
     1
102
RTVSPost2010Prop47
 90
       50
102
RTVSPost2010PropOp47
 70
     1
102
RTVSPost2010Prop48
 90
       50
102
RTVSPost2010PropOp48
 70
     1
102
RTVSPost2010Prop49
280
     0
102
RTVSPost2010PropOp49
 70
     1
102
RTVSPost2010Prop50
 90
       50
102
RTVSPost2010PropOp50
 70
     1
102
RTVSPost2010Prop51ColorIndex
 90
      256
102
RTVSPost2010Prop51ColorRGB
 90
-16777216
102
RTVSPost2010PropOp51
 70
     0
102
RTVSPost2010Prop52
140
1.0
102
RTVSPost2010PropOp52
 70
     0
102
RTVSPost2010Prop53
 90
        2
102
RTVSPost2010PropOp53
 70
     1
102
RTVSPost2010Prop54
  1
strokes_ogs.tif
102
RTVSPost2010PropOp54
 70
     1
102
RTVSPost2010Prop55
280
     0
102
RTVSPost2010PropOp55
 70
     1
102
RTVSPost2010Prop56
140
1.0
102
RTVSPost2010PropOp56
 70
     1
102
RTVSPost2010Prop57
140
1.0
102
RTVSPost2010PropOp57
 70
     1
  0
XRECORD
  5
3275
102
{ACAD_REACTORS
330
3274
102
}
330
3274
100
AcDbXrecord
280
     1
102
RTVSPost2010Prop28
280
     0
102
RTVSPost2010PropOp28
 70
     1
102
RTVSPost2010Prop29
280
     1
102
RTVSPost2010PropOp29
 70
     1
102
RTVSPost2010Prop30
280
     1
102
RTVSPost2010PropOp30
 70
     1
102
RTVSPost2010Prop31
280
     0
102
RTVSPost2010PropOp31
 70
     1
102
RTVSPost2010Prop32
280
     0
102
RTVSPost2010PropOp32
 70
     1
102
RTVSPost2010Prop33
280
     0
102
RTVSPost2010PropOp33
 70
     1
102
RTVSPost2010Prop34
280
     0
102
RTVSPost2010PropOp34
 70
     1
102
RTVSPost2010Prop35
280
     0
102
RTVSPost2010PropOp35
 70
     1
102
RTVSPost2010Prop36
280
     0
102
RTVSPost2010PropOp36
 70
     1
102
RTVSPost2010Prop37
 90
       50
102
RTVSPost2010PropOp37
 70
     1
102
RTVSPost2010Prop38
140
0.0
102
RTVSPost2010PropOp38
 70
     1
102
RTVSPost2010Prop39
140
1.0
102
RTVSPost2010PropOp39
 70
     1
102
RTVSPost2010Prop40
 90
        0
102
RTVSPost2010PropOp40
 70
     1
102
RTVSPost2010Prop41ColorIndex
 90
       18
102
RTVSPost2010Prop41ColorRGB
 90
        0
102
RTVSPost2010PropOp41
 70
     1
102
RTVSPost2010Prop42
 90
       50
102
RTVSPost2010PropOp42
 70
     1
102
RTVSPost2010Prop43
 90
        3
102
RTVSPost2010PropOp43
 70
     1
102
RTVSPost2010Prop44ColorIndex
 90
        5
102
RTVSPost2010Prop44ColorRGB
 90
      255
102
RTVSPost2010PropOp44
 70
     1
102
RTVSPost2010Prop45
280
     0
102
RTVSPost2010PropOp45
 70
     1
102
RTVSPost2010Prop46
 90
       50
102
RTVSPost2010PropOp46
 70
     1
102
RTVSPost2010Prop47
 90
       50
102
RTVSPost2010PropOp47
 70
     1
102
RTVSPost2010Prop48
 90
       50
102
RTVSPost2010PropOp48
 70
     1
102
RTVSPost2010Prop49
280
     0
102
RTVSPost2010PropOp49
 70
     1
102
RTVSPost2010Prop50
 90
       50
102
RTVSPost2010PropOp50
 70
     1
102
RTVSPost2010Prop51ColorIndex
 90
      256
102
RTVSPost2010Prop51ColorRGB
 90
-16777216
102
RTVSPost2010PropOp51
 70
     0
102
RTVSPost2010Prop52
140
1.0
102
RTVSPost2010PropOp52
 70
     0
102
RTVSPost2010Prop53
 90
        2
102
RTVSPost2010PropOp53
 70
     1
102
RTVSPost2010Prop54
  1
strokes_ogs.tif
102
RTVSPost2010PropOp54
 70
     1
102
RTVSPost2010Prop55
280
     0
102
RTVSPost2010PropOp55
 70
     1
102
RTVSPost2010Prop56
140
1.0
102
RTVSPost2010PropOp56
 70
     1
102
RTVSPost2010Prop57
140
1.0
102
RTVSPost2010PropOp57
 70
     1
  0
XRECORD
  5
327D
102
{ACAD_REACTORS
330
327C
102
}
330
327C
100
AcDbXrecord
280
     1
102
RTVSPost2010Prop28
280
     0
102
RTVSPost2010PropOp28
 70
     1
102
RTVSPost2010Prop29
280
     1
102
RTVSPost2010PropOp29
 70
     1
102
RTVSPost2010Prop30
280
     1
102
RTVSPost2010PropOp30
 70
     1
102
RTVSPost2010Prop31
280
     0
102
RTVSPost2010PropOp31
 70
     1
102
RTVSPost2010Prop32
280
     0
102
RTVSPost2010PropOp32
 70
     1
102
RTVSPost2010Prop33
280
     0
102
RTVSPost2010PropOp33
 70
     1
102
RTVSPost2010Prop34
280
     0
102
RTVSPost2010PropOp34
 70
     1
102
RTVSPost2010Prop35
280
     0
102
RTVSPost2010PropOp35
 70
     1
102
RTVSPost2010Prop36
280
     0
102
RTVSPost2010PropOp36
 70
     1
102
RTVSPost2010Prop37
 90
       50
102
RTVSPost2010PropOp37
 70
     1
102
RTVSPost2010Prop38
140
0.0
102
RTVSPost2010PropOp38
 70
     1
102
RTVSPost2010Prop39
140
1.0
102
RTVSPost2010PropOp39
 70
     1
102
RTVSPost2010Prop40
 90
        0
102
RTVSPost2010PropOp40
 70
     1
102
RTVSPost2010Prop41ColorIndex
 90
       18
102
RTVSPost2010Prop41ColorRGB
 90
        0
102
RTVSPost2010PropOp41
 70
     1
102
RTVSPost2010Prop42
 90
       50
102
RTVSPost2010PropOp42
 70
     1
102
RTVSPost2010Prop43
 90
        3
102
RTVSPost2010PropOp43
 70
     1
102
RTVSPost2010Prop44ColorIndex
 90
        5
102
RTVSPost2010Prop44ColorRGB
 90
      255
102
RTVSPost2010PropOp44
 70
     1
102
RTVSPost2010Prop45
280
     0
102
RTVSPost2010PropOp45
 70
     1
102
RTVSPost2010Prop46
 90
       50
102
RTVSPost2010PropOp46
 70
     1
102
RTVSPost2010Prop47
 90
       50
102
RTVSPost2010PropOp47
 70
     1
102
RTVSPost2010Prop48
 90
       50
102
RTVSPost2010PropOp48
 70
     1
102
RTVSPost2010Prop49
280
     0
102
RTVSPost2010PropOp49
 70
     1
102
RTVSPost2010Prop50
 90
       50
102
RTVSPost2010PropOp50
 70
     1
102
RTVSPost2010Prop51ColorIndex
 90
      256
102
RTVSPost2010Prop51ColorRGB
 90
-16777216
102
RTVSPost2010PropOp51
 70
     0
102
RTVSPost2010Prop52
140
1.0
102
RTVSPost2010PropOp52
 70
     0
102
RTVSPost2010Prop53
 90
        2
102
RTVSPost2010PropOp53
 70
     1
102
RTVSPost2010Prop54
  1
strokes_ogs.tif
102
RTVSPost2010PropOp54
 70
     1
102
RTVSPost2010Prop55
280
     0
102
RTVSPost2010PropOp55
 70
     1
102
RTVSPost2010Prop56
140
1.0
102
RTVSPost2010PropOp56
 70
     1
102
RTVSPost2010Prop57
140
1.0
102
RTVSPost2010PropOp57
 70
     1
  0
XRECORD
  5
328F
102
{ACAD_REACTORS
330
328E
102
}
330
328E
100
AcDbXrecord
280
     1
102
RTVSPost2010Prop28
280
     0
102
RTVSPost2010PropOp28
 70
     1
102
RTVSPost2010Prop29
280
     1
102
RTVSPost2010PropOp29
 70
     1
102
RTVSPost2010Prop30
280
     1
102
RTVSPost2010PropOp30
 70
     1
102
RTVSPost2010Prop31
280
     0
102
RTVSPost2010PropOp31
 70
     1
102
RTVSPost2010Prop32
280
     0
102
RTVSPost2010PropOp32
 70
     1
102
RTVSPost2010Prop33
280
     0
102
RTVSPost2010PropOp33
 70
     1
102
RTVSPost2010Prop34
280
     0
102
RTVSPost2010PropOp34
 70
     1
102
RTVSPost2010Prop35
280
     0
102
RTVSPost2010PropOp35
 70
     1
102
RTVSPost2010Prop36
280
     0
102
RTVSPost2010PropOp36
 70
     1
102
RTVSPost2010Prop37
 90
       50
102
RTVSPost2010PropOp37
 70
     1
102
RTVSPost2010Prop38
140
0.0
102
RTVSPost2010PropOp38
 70
     1
102
RTVSPost2010Prop39
140
1.0
102
RTVSPost2010PropOp39
 70
     1
102
RTVSPost2010Prop40
 90
        0
102
RTVSPost2010PropOp40
 70
     1
102
RTVSPost2010Prop41ColorIndex
 90
       18
102
RTVSPost2010Prop41ColorRGB
 90
        0
102
RTVSPost2010PropOp41
 70
     1
102
RTVSPost2010Prop42
 90
       50
102
RTVSPost2010PropOp42
 70
     1
102
RTVSPost2010Prop43
 90
        3
102
RTVSPost2010PropOp43
 70
     1
102
RTVSPost2010Prop44ColorIndex
 90
        5
102
RTVSPost2010Prop44ColorRGB
 90
      255
102
RTVSPost2010PropOp44
 70
     1
102
RTVSPost2010Prop45
280
     0
102
RTVSPost2010PropOp45
 70
     1
102
RTVSPost2010Prop46
 90
       50
102
RTVSPost2010PropOp46
 70
     1
102
RTVSPost2010Prop47
 90
       50
102
RTVSPost2010PropOp47
 70
     1
102
RTVSPost2010Prop48
 90
       50
102
RTVSPost2010PropOp48
 70
     1
102
RTVSPost2010Prop49
280
     0
102
RTVSPost2010PropOp49
 70
     1
102
RTVSPost2010Prop50
 90
       50
102
RTVSPost2010PropOp50
 70
     1
102
RTVSPost2010Prop51ColorIndex
 90
      256
102
RTVSPost2010Prop51ColorRGB
 90
-16777216
102
RTVSPost2010PropOp51
 70
     0
102
RTVSPost2010Prop52
140
1.0
102
RTVSPost2010PropOp52
 70
     0
102
RTVSPost2010Prop53
 90
        2
102
RTVSPost2010PropOp53
 70
     1
102
RTVSPost2010Prop54
  1
strokes_ogs.tif
102
RTVSPost2010PropOp54
 70
     1
102
RTVSPost2010Prop55
280
     0
102
RTVSPost2010PropOp55
 70
     1
102
RTVSPost2010Prop56
140
1.0
102
RTVSPost2010PropOp56
 70
     1
102
RTVSPost2010Prop57
140
1.0
102
RTVSPost2010PropOp57
 70
     1
  0
XRECORD
  5
3289
102
{ACAD_REACTORS
330
3288
102
}
330
3288
100
AcDbXrecord
280
     1
102
RTVSPost2010Prop28
280
     0
102
RTVSPost2010PropOp28
 70
     1
102
RTVSPost2010Prop29
280
     1
102
RTVSPost2010PropOp29
 70
     1
102
RTVSPost2010Prop30
280
     1
102
RTVSPost2010PropOp30
 70
     1
102
RTVSPost2010Prop31
280
     0
102
RTVSPost2010PropOp31
 70
     1
102
RTVSPost2010Prop32
280
     0
102
RTVSPost2010PropOp32
 70
     1
102
RTVSPost2010Prop33
280
     0
102
RTVSPost2010PropOp33
 70
     1
102
RTVSPost2010Prop34
280
     0
102
RTVSPost2010PropOp34
 70
     1
102
RTVSPost2010Prop35
280
     0
102
RTVSPost2010PropOp35
 70
     1
102
RTVSPost2010Prop36
280
     0
102
RTVSPost2010PropOp36
 70
     1
102
RTVSPost2010Prop37
 90
       50
102
RTVSPost2010PropOp37
 70
     1
102
RTVSPost2010Prop38
140
0.0
102
RTVSPost2010PropOp38
 70
     1
102
RTVSPost2010Prop39
140
1.0
102
RTVSPost2010PropOp39
 70
     1
102
RTVSPost2010Prop40
 90
        0
102
RTVSPost2010PropOp40
 70
     1
102
RTVSPost2010Prop41ColorIndex
 90
       18
102
RTVSPost2010Prop41ColorRGB
 90
        0
102
RTVSPost2010PropOp41
 70
     1
102
RTVSPost2010Prop42
 90
       50
102
RTVSPost2010PropOp42
 70
     1
102
RTVSPost2010Prop43
 90
        3
102
RTVSPost2010PropOp43
 70
     1
102
RTVSPost2010Prop44ColorIndex
 90
        5
102
RTVSPost2010Prop44ColorRGB
 90
      255
102
RTVSPost2010PropOp44
 70
     1
102
RTVSPost2010Prop45
280
     0
102
RTVSPost2010PropOp45
 70
     1
102
RTVSPost2010Prop46
 90
       50
102
RTVSPost2010PropOp46
 70
     1
102
RTVSPost2010Prop47
 90
       50
102
RTVSPost2010PropOp47
 70
     1
102
RTVSPost2010Prop48
 90
       50
102
RTVSPost2010PropOp48
 70
     1
102
RTVSPost2010Prop49
280
     0
102
RTVSPost2010PropOp49
 70
     1
102
RTVSPost2010Prop50
 90
       50
102
RTVSPost2010PropOp50
 70
     1
102
RTVSPost2010Prop51ColorIndex
 90
      256
102
RTVSPost2010Prop51ColorRGB
 90
-16777216
102
RTVSPost2010PropOp51
 70
     0
102
RTVSPost2010Prop52
140
1.0
102
RTVSPost2010PropOp52
 70
     0
102
RTVSPost2010Prop53
 90
        2
102
RTVSPost2010PropOp53
 70
     1
102
RTVSPost2010Prop54
  1
strokes_ogs.tif
102
RTVSPost2010PropOp54
 70
     1
102
RTVSPost2010Prop55
280
     0
102
RTVSPost2010PropOp55
 70
     1
102
RTVSPost2010Prop56
140
1.0
102
RTVSPost2010PropOp56
 70
     1
102
RTVSPost2010Prop57
140
1.0
102
RTVSPost2010PropOp57
 70
     1
  0
XRECORD
  5
3291
102
{ACAD_REACTORS
330
3290
102
}
330
3290
100
AcDbXrecord
280
     1
102
RTVSPost2010Prop28
280
     0
102
RTVSPost2010PropOp28
 70
     1
102
RTVSPost2010Prop29
280
     1
102
RTVSPost2010PropOp29
 70
     1
102
RTVSPost2010Prop30
280
     1
102
RTVSPost2010PropOp30
 70
     1
102
RTVSPost2010Prop31
280
     0
102
RTVSPost2010PropOp31
 70
     1
102
RTVSPost2010Prop32
280
     0
102
RTVSPost2010PropOp32
 70
     1
102
RTVSPost2010Prop33
280
     0
102
RTVSPost2010PropOp33
 70
     1
102
RTVSPost2010Prop34
280
     0
102
RTVSPost2010PropOp34
 70
     1
102
RTVSPost2010Prop35
280
     0
102
RTVSPost2010PropOp35
 70
     1
102
RTVSPost2010Prop36
280
     0
102
RTVSPost2010PropOp36
 70
     1
102
RTVSPost2010Prop37
 90
       50
102
RTVSPost2010PropOp37
 70
     1
102
RTVSPost2010Prop38
140
0.0
102
RTVSPost2010PropOp38
 70
     1
102
RTVSPost2010Prop39
140
1.0
102
RTVSPost2010PropOp39
 70
     1
102
RTVSPost2010Prop40
 90
        0
102
RTVSPost2010PropOp40
 70
     1
102
RTVSPost2010Prop41ColorIndex
 90
       18
102
RTVSPost2010Prop41ColorRGB
 90
        0
102
RTVSPost2010PropOp41
 70
     1
102
RTVSPost2010Prop42
 90
       50
102
RTVSPost2010PropOp42
 70
     1
102
RTVSPost2010Prop43
 90
        3
102
RTVSPost2010PropOp43
 70
     1
102
RTVSPost2010Prop44ColorIndex
 90
        5
102
RTVSPost2010Prop44ColorRGB
 90
      255
102
RTVSPost2010PropOp44
 70
     1
102
RTVSPost2010Prop45
280
     0
102
RTVSPost2010PropOp45
 70
     1
102
RTVSPost2010Prop46
 90
       50
102
RTVSPost2010PropOp46
 70
     1
102
RTVSPost2010Prop47
 90
       50
102
RTVSPost2010PropOp47
 70
     1
102
RTVSPost2010Prop48
 90
       50
102
RTVSPost2010PropOp48
 70
     1
102
RTVSPost2010Prop49
280
     0
102
RTVSPost2010PropOp49
 70
     1
102
RTVSPost2010Prop50
 90
       50
102
RTVSPost2010PropOp50
 70
     1
102
RTVSPost2010Prop51ColorIndex
 90
      256
102
RTVSPost2010Prop51ColorRGB
 90
-16777216
102
RTVSPost2010PropOp51
 70
     0
102
RTVSPost2010Prop52
140
1.0
102
RTVSPost2010PropOp52
 70
     0
102
RTVSPost2010Prop53
 90
        2
102
RTVSPost2010PropOp53
 70
     1
102
RTVSPost2010Prop54
  1
strokes_ogs.tif
102
RTVSPost2010PropOp54
 70
     1
102
RTVSPost2010Prop55
280
     0
102
RTVSPost2010PropOp55
 70
     1
102
RTVSPost2010Prop56
140
1.0
102
RTVSPost2010PropOp56
 70
     1
102
RTVSPost2010Prop57
140
1.0
102
RTVSPost2010PropOp57
 70
     1
  0
XRECORD
  5
3281
102
{ACAD_REACTORS
330
3280
102
}
330
3280
100
AcDbXrecord
280
     1
102
RTVSPost2010Prop28
280
     0
102
RTVSPost2010PropOp28
 70
     1
102
RTVSPost2010Prop29
280
     1
102
RTVSPost2010PropOp29
 70
     1
102
RTVSPost2010Prop30
280
     1
102
RTVSPost2010PropOp30
 70
     1
102
RTVSPost2010Prop31
280
     0
102
RTVSPost2010PropOp31
 70
     1
102
RTVSPost2010Prop32
280
     0
102
RTVSPost2010PropOp32
 70
     1
102
RTVSPost2010Prop33
280
     0
102
RTVSPost2010PropOp33
 70
     1
102
RTVSPost2010Prop34
280
     0
102
RTVSPost2010PropOp34
 70
     1
102
RTVSPost2010Prop35
280
     0
102
RTVSPost2010PropOp35
 70
     1
102
RTVSPost2010Prop36
280
     0
102
RTVSPost2010PropOp36
 70
     1
102
RTVSPost2010Prop37
 90
       50
102
RTVSPost2010PropOp37
 70
     1
102
RTVSPost2010Prop38
140
0.0
102
RTVSPost2010PropOp38
 70
     1
102
RTVSPost2010Prop39
140
1.0
102
RTVSPost2010PropOp39
 70
     1
102
RTVSPost2010Prop40
 90
        0
102
RTVSPost2010PropOp40
 70
     1
102
RTVSPost2010Prop41ColorIndex
 90
       18
102
RTVSPost2010Prop41ColorRGB
 90
        0
102
RTVSPost2010PropOp41
 70
     1
102
RTVSPost2010Prop42
 90
       50
102
RTVSPost2010PropOp42
 70
     1
102
RTVSPost2010Prop43
 90
        3
102
RTVSPost2010PropOp43
 70
     1
102
RTVSPost2010Prop44ColorIndex
 90
        5
102
RTVSPost2010Prop44ColorRGB
 90
      255
102
RTVSPost2010PropOp44
 70
     1
102
RTVSPost2010Prop45
280
     0
102
RTVSPost2010PropOp45
 70
     1
102
RTVSPost2010Prop46
 90
       50
102
RTVSPost2010PropOp46
 70
     1
102
RTVSPost2010Prop47
 90
       50
102
RTVSPost2010PropOp47
 70
     1
102
RTVSPost2010Prop48
 90
       50
102
RTVSPost2010PropOp48
 70
     1
102
RTVSPost2010Prop49
280
     0
102
RTVSPost2010PropOp49
 70
     1
102
RTVSPost2010Prop50
 90
       50
102
RTVSPost2010PropOp50
 70
     1
102
RTVSPost2010Prop51ColorIndex
 90
      256
102
RTVSPost2010Prop51ColorRGB
 90
-16777216
102
RTVSPost2010PropOp51
 70
     0
102
RTVSPost2010Prop52
140
1.0
102
RTVSPost2010PropOp52
 70
     0
102
RTVSPost2010Prop53
 90
        2
102
RTVSPost2010PropOp53
 70
     1
102
RTVSPost2010Prop54
  1
strokes_ogs.tif
102
RTVSPost2010PropOp54
 70
     1
102
RTVSPost2010Prop55
280
     0
102
RTVSPost2010PropOp55
 70
     1
102
RTVSPost2010Prop56
140
1.0
102
RTVSPost2010PropOp56
 70
     1
102
RTVSPost2010Prop57
140
1.0
102
RTVSPost2010PropOp57
 70
     1
  0
XRECORD
  5
329D
102
{ACAD_REACTORS
330
329C
102
}
330
329C
100
AcDbXrecord
280
     1
102
RTVSPost2010Prop28
280
     0
102
RTVSPost2010PropOp28
 70
     1
102
RTVSPost2010Prop29
280
     1
102
RTVSPost2010PropOp29
 70
     1
102
RTVSPost2010Prop30
280
     1
102
RTVSPost2010PropOp30
 70
     1
102
RTVSPost2010Prop31
280
     0
102
RTVSPost2010PropOp31
 70
     1
102
RTVSPost2010Prop32
280
     0
102
RTVSPost2010PropOp32
 70
     1
102
RTVSPost2010Prop33
280
     0
102
RTVSPost2010PropOp33
 70
     1
102
RTVSPost2010Prop34
280
     0
102
RTVSPost2010PropOp34
 70
     1
102
RTVSPost2010Prop35
280
     0
102
RTVSPost2010PropOp35
 70
     1
102
RTVSPost2010Prop36
280
     0
102
RTVSPost2010PropOp36
 70
     1
102
RTVSPost2010Prop37
 90
       50
102
RTVSPost2010PropOp37
 70
     1
102
RTVSPost2010Prop38
140
0.0
102
RTVSPost2010PropOp38
 70
     1
102
RTVSPost2010Prop39
140
1.0
102
RTVSPost2010PropOp39
 70
     1
102
RTVSPost2010Prop40
 90
        0
102
RTVSPost2010PropOp40
 70
     1
102
RTVSPost2010Prop41ColorIndex
 90
       18
102
RTVSPost2010Prop41ColorRGB
 90
        0
102
RTVSPost2010PropOp41
 70
     1
102
RTVSPost2010Prop42
 90
       50
102
RTVSPost2010PropOp42
 70
     1
102
RTVSPost2010Prop43
 90
        3
102
RTVSPost2010PropOp43
 70
     1
102
RTVSPost2010Prop44ColorIndex
 90
        5
102
RTVSPost2010Prop44ColorRGB
 90
      255
102
RTVSPost2010PropOp44
 70
     1
102
RTVSPost2010Prop45
280
     0
102
RTVSPost2010PropOp45
 70
     1
102
RTVSPost2010Prop46
 90
       50
102
RTVSPost2010PropOp46
 70
     1
102
RTVSPost2010Prop47
 90
       50
102
RTVSPost2010PropOp47
 70
     1
102
RTVSPost2010Prop48
 90
       50
102
RTVSPost2010PropOp48
 70
     1
102
RTVSPost2010Prop49
280
     0
102
RTVSPost2010PropOp49
 70
     1
102
RTVSPost2010Prop50
 90
       50
102
RTVSPost2010PropOp50
 70
     1
102
RTVSPost2010Prop51ColorIndex
 90
      256
102
RTVSPost2010Prop51ColorRGB
 90
-16777216
102
RTVSPost2010PropOp51
 70
     0
102
RTVSPost2010Prop52
140
1.0
102
RTVSPost2010PropOp52
 70
     0
102
RTVSPost2010Prop53
 90
        2
102
RTVSPost2010PropOp53
 70
     1
102
RTVSPost2010Prop54
  1
strokes_ogs.tif
102
RTVSPost2010PropOp54
 70
     1
102
RTVSPost2010Prop55
280
     0
102
RTVSPost2010PropOp55
 70
     1
102
RTVSPost2010Prop56
140
1.0
102
RTVSPost2010PropOp56
 70
     1
102
RTVSPost2010Prop57
140
1.0
102
RTVSPost2010PropOp57
 70
     1
  0
XRECORD
  5
329B
102
{ACAD_REACTORS
330
329A
102
}
330
329A
100
AcDbXrecord
280
     1
102
RTVSPost2010Prop28
280
     0
102
RTVSPost2010PropOp28
 70
     1
102
RTVSPost2010Prop29
280
     1
102
RTVSPost2010PropOp29
 70
     1
102
RTVSPost2010Prop30
280
     1
102
RTVSPost2010PropOp30
 70
     1
102
RTVSPost2010Prop31
280
     0
102
RTVSPost2010PropOp31
 70
     1
102
RTVSPost2010Prop32
280
     0
102
RTVSPost2010PropOp32
 70
     1
102
RTVSPost2010Prop33
280
     0
102
RTVSPost2010PropOp33
 70
     1
102
RTVSPost2010Prop34
280
     0
102
RTVSPost2010PropOp34
 70
     1
102
RTVSPost2010Prop35
280
     0
102
RTVSPost2010PropOp35
 70
     1
102
RTVSPost2010Prop36
280
     0
102
RTVSPost2010PropOp36
 70
     1
102
RTVSPost2010Prop37
 90
       50
102
RTVSPost2010PropOp37
 70
     1
102
RTVSPost2010Prop38
140
0.0
102
RTVSPost2010PropOp38
 70
     1
102
RTVSPost2010Prop39
140
1.0
102
RTVSPost2010PropOp39
 70
     1
102
RTVSPost2010Prop40
 90
        0
102
RTVSPost2010PropOp40
 70
     1
102
RTVSPost2010Prop41ColorIndex
 90
       18
102
RTVSPost2010Prop41ColorRGB
 90
        0
102
RTVSPost2010PropOp41
 70
     1
102
RTVSPost2010Prop42
 90
       50
102
RTVSPost2010PropOp42
 70
     1
102
RTVSPost2010Prop43
 90
        3
102
RTVSPost2010PropOp43
 70
     1
102
RTVSPost2010Prop44ColorIndex
 90
        5
102
RTVSPost2010Prop44ColorRGB
 90
      255
102
RTVSPost2010PropOp44
 70
     1
102
RTVSPost2010Prop45
280
     0
102
RTVSPost2010PropOp45
 70
     1
102
RTVSPost2010Prop46
 90
       50
102
RTVSPost2010PropOp46
 70
     1
102
RTVSPost2010Prop47
 90
       50
102
RTVSPost2010PropOp47
 70
     1
102
RTVSPost2010Prop48
 90
       50
102
RTVSPost2010PropOp48
 70
     1
102
RTVSPost2010Prop49
280
     0
102
RTVSPost2010PropOp49
 70
     1
102
RTVSPost2010Prop50
 90
       50
102
RTVSPost2010PropOp50
 70
     1
102
RTVSPost2010Prop51ColorIndex
 90
      256
102
RTVSPost2010Prop51ColorRGB
 90
-16777216
102
RTVSPost2010PropOp51
 70
     0
102
RTVSPost2010Prop52
140
1.0
102
RTVSPost2010PropOp52
 70
     0
102
RTVSPost2010Prop53
 90
        2
102
RTVSPost2010PropOp53
 70
     1
102
RTVSPost2010Prop54
  1
strokes_ogs.tif
102
RTVSPost2010PropOp54
 70
     1
102
RTVSPost2010Prop55
280
     0
102
RTVSPost2010PropOp55
 70
     1
102
RTVSPost2010Prop56
140
1.0
102
RTVSPost2010PropOp56
 70
     1
102
RTVSPost2010Prop57
140
1.0
102
RTVSPost2010PropOp57
 70
     1
  0
XRECORD
  5
3295
102
{ACAD_REACTORS
330
3294
102
}
330
3294
100
AcDbXrecord
280
     1
102
RTVSPost2010Prop28
280
     0
102
RTVSPost2010PropOp28
 70
     1
102
RTVSPost2010Prop29
280
     1
102
RTVSPost2010PropOp29
 70
     1
102
RTVSPost2010Prop30
280
     1
102
RTVSPost2010PropOp30
 70
     1
102
RTVSPost2010Prop31
280
     0
102
RTVSPost2010PropOp31
 70
     1
102
RTVSPost2010Prop32
280
     0
102
RTVSPost2010PropOp32
 70
     1
102
RTVSPost2010Prop33
280
     0
102
RTVSPost2010PropOp33
 70
     1
102
RTVSPost2010Prop34
280
     0
102
RTVSPost2010PropOp34
 70
     1
102
RTVSPost2010Prop35
280
     0
102
RTVSPost2010PropOp35
 70
     1
102
RTVSPost2010Prop36
280
     0
102
RTVSPost2010PropOp36
 70
     1
102
RTVSPost2010Prop37
 90
       50
102
RTVSPost2010PropOp37
 70
     1
102
RTVSPost2010Prop38
140
0.0
102
RTVSPost2010PropOp38
 70
     1
102
RTVSPost2010Prop39
140
1.0
102
RTVSPost2010PropOp39
 70
     1
102
RTVSPost2010Prop40
 90
        0
102
RTVSPost2010PropOp40
 70
     1
102
RTVSPost2010Prop41ColorIndex
 90
       18
102
RTVSPost2010Prop41ColorRGB
 90
        0
102
RTVSPost2010PropOp41
 70
     1
102
RTVSPost2010Prop42
 90
       50
102
RTVSPost2010PropOp42
 70
     1
102
RTVSPost2010Prop43
 90
        3
102
RTVSPost2010PropOp43
 70
     1
102
RTVSPost2010Prop44ColorIndex
 90
        5
102
RTVSPost2010Prop44ColorRGB
 90
      255
102
RTVSPost2010PropOp44
 70
     1
102
RTVSPost2010Prop45
280
     0
102
RTVSPost2010PropOp45
 70
     1
102
RTVSPost2010Prop46
 90
       50
102
RTVSPost2010PropOp46
 70
     1
102
RTVSPost2010Prop47
 90
       50
102
RTVSPost2010PropOp47
 70
     1
102
RTVSPost2010Prop48
 90
       50
102
RTVSPost2010PropOp48
 70
     1
102
RTVSPost2010Prop49
280
     0
102
RTVSPost2010PropOp49
 70
     1
102
RTVSPost2010Prop50
 90
       50
102
RTVSPost2010PropOp50
 70
     1
102
RTVSPost2010Prop51ColorIndex
 90
      256
102
RTVSPost2010Prop51ColorRGB
 90
-16777216
102
RTVSPost2010PropOp51
 70
     0
102
RTVSPost2010Prop52
140
1.0
102
RTVSPost2010PropOp52
 70
     0
102
RTVSPost2010Prop53
 90
        2
102
RTVSPost2010PropOp53
 70
     1
102
RTVSPost2010Prop54
  1
strokes_ogs.tif
102
RTVSPost2010PropOp54
 70
     1
102
RTVSPost2010Prop55
280
     0
102
RTVSPost2010PropOp55
 70
     1
102
RTVSPost2010Prop56
140
1.0
102
RTVSPost2010PropOp56
 70
     1
102
RTVSPost2010Prop57
140
1.0
102
RTVSPost2010PropOp57
 70
     1
  0
XRECORD
  5
3297
102
{ACAD_REACTORS
330
3296
102
}
330
3296
100
AcDbXrecord
280
     1
102
RTVSPost2010Prop28
280
     0
102
RTVSPost2010PropOp28
 70
     1
102
RTVSPost2010Prop29
280
     1
102
RTVSPost2010PropOp29
 70
     1
102
RTVSPost2010Prop30
280
     1
102
RTVSPost2010PropOp30
 70
     1
102
RTVSPost2010Prop31
280
     0
102
RTVSPost2010PropOp31
 70
     1
102
RTVSPost2010Prop32
280
     0
102
RTVSPost2010PropOp32
 70
     1
102
RTVSPost2010Prop33
280
     0
102
RTVSPost2010PropOp33
 70
     1
102
RTVSPost2010Prop34
280
     0
102
RTVSPost2010PropOp34
 70
     1
102
RTVSPost2010Prop35
280
     0
102
RTVSPost2010PropOp35
 70
     1
102
RTVSPost2010Prop36
280
     0
102
RTVSPost2010PropOp36
 70
     1
102
RTVSPost2010Prop37
 90
       50
102
RTVSPost2010PropOp37
 70
     1
102
RTVSPost2010Prop38
140
0.0
102
RTVSPost2010PropOp38
 70
     1
102
RTVSPost2010Prop39
140
1.0
102
RTVSPost2010PropOp39
 70
     1
102
RTVSPost2010Prop40
 90
        0
102
RTVSPost2010PropOp40
 70
     1
102
RTVSPost2010Prop41ColorIndex
 90
       18
102
RTVSPost2010Prop41ColorRGB
 90
        0
102
RTVSPost2010PropOp41
 70
     1
102
RTVSPost2010Prop42
 90
       50
102
RTVSPost2010PropOp42
 70
     1
102
RTVSPost2010Prop43
 90
        3
102
RTVSPost2010PropOp43
 70
     1
102
RTVSPost2010Prop44ColorIndex
 90
        5
102
RTVSPost2010Prop44ColorRGB
 90
      255
102
RTVSPost2010PropOp44
 70
     1
102
RTVSPost2010Prop45
280
     0
102
RTVSPost2010PropOp45
 70
     1
102
RTVSPost2010Prop46
 90
       50
102
RTVSPost2010PropOp46
 70
     1
102
RTVSPost2010Prop47
 90
       50
102
RTVSPost2010PropOp47
 70
     1
102
RTVSPost2010Prop48
 90
       50
102
RTVSPost2010PropOp48
 70
     1
102
RTVSPost2010Prop49
280
     0
102
RTVSPost2010PropOp49
 70
     1
102
RTVSPost2010Prop50
 90
       50
102
RTVSPost2010PropOp50
 70
     1
102
RTVSPost2010Prop51ColorIndex
 90
      256
102
RTVSPost2010Prop51ColorRGB
 90
-16777216
102
RTVSPost2010PropOp51
 70
     0
102
RTVSPost2010Prop52
140
1.0
102
RTVSPost2010PropOp52
 70
     0
102
RTVSPost2010Prop53
 90
        2
102
RTVSPost2010PropOp53
 70
     1
102
RTVSPost2010Prop54
  1
strokes_ogs.tif
102
RTVSPost2010PropOp54
 70
     1
102
RTVSPost2010Prop55
280
     0
102
RTVSPost2010PropOp55
 70
     1
102
RTVSPost2010Prop56
140
1.0
102
RTVSPost2010PropOp56
 70
     1
102
RTVSPost2010Prop57
140
1.0
102
RTVSPost2010PropOp57
 70
     1
  0
XRECORD
  5
3287
102
{ACAD_REACTORS
330
3286
102
}
330
3286
100
AcDbXrecord
280
     1
102
RTVSPost2010Prop28
280
     0
102
RTVSPost2010PropOp28
 70
     1
102
RTVSPost2010Prop29
280
     1
102
RTVSPost2010PropOp29
 70
     1
102
RTVSPost2010Prop30
280
     1
102
RTVSPost2010PropOp30
 70
     1
102
RTVSPost2010Prop31
280
     0
102
RTVSPost2010PropOp31
 70
     1
102
RTVSPost2010Prop32
280
     0
102
RTVSPost2010PropOp32
 70
     1
102
RTVSPost2010Prop33
280
     0
102
RTVSPost2010PropOp33
 70
     1
102
RTVSPost2010Prop34
280
     0
102
RTVSPost2010PropOp34
 70
     1
102
RTVSPost2010Prop35
280
     0
102
RTVSPost2010PropOp35
 70
     1
102
RTVSPost2010Prop36
280
     0
102
RTVSPost2010PropOp36
 70
     1
102
RTVSPost2010Prop37
 90
       50
102
RTVSPost2010PropOp37
 70
     1
102
RTVSPost2010Prop38
140
0.0
102
RTVSPost2010PropOp38
 70
     1
102
RTVSPost2010Prop39
140
1.0
102
RTVSPost2010PropOp39
 70
     1
102
RTVSPost2010Prop40
 90
        0
102
RTVSPost2010PropOp40
 70
     1
102
RTVSPost2010Prop41ColorIndex
 90
       18
102
RTVSPost2010Prop41ColorRGB
 90
        0
102
RTVSPost2010PropOp41
 70
     1
102
RTVSPost2010Prop42
 90
       50
102
RTVSPost2010PropOp42
 70
     1
102
RTVSPost2010Prop43
 90
        3
102
RTVSPost2010PropOp43
 70
     1
102
RTVSPost2010Prop44ColorIndex
 90
        5
102
RTVSPost2010Prop44ColorRGB
 90
      255
102
RTVSPost2010PropOp44
 70
     1
102
RTVSPost2010Prop45
280
     0
102
RTVSPost2010PropOp45
 70
     1
102
RTVSPost2010Prop46
 90
       50
102
RTVSPost2010PropOp46
 70
     1
102
RTVSPost2010Prop47
 90
       50
102
RTVSPost2010PropOp47
 70
     1
102
RTVSPost2010Prop48
 90
       50
102
RTVSPost2010PropOp48
 70
     1
102
RTVSPost2010Prop49
280
     0
102
RTVSPost2010PropOp49
 70
     1
102
RTVSPost2010Prop50
 90
       50
102
RTVSPost2010PropOp50
 70
     1
102
RTVSPost2010Prop51ColorIndex
 90
      256
102
RTVSPost2010Prop51ColorRGB
 90
-16777216
102
RTVSPost2010PropOp51
 70
     0
102
RTVSPost2010Prop52
140
1.0
102
RTVSPost2010PropOp52
 70
     0
102
RTVSPost2010Prop53
 90
        2
102
RTVSPost2010PropOp53
 70
     1
102
RTVSPost2010Prop54
  1
strokes_ogs.tif
102
RTVSPost2010PropOp54
 70
     1
102
RTVSPost2010Prop55
280
     0
102
RTVSPost2010PropOp55
 70
     1
102
RTVSPost2010Prop56
140
1.0
102
RTVSPost2010PropOp56
 70
     1
102
RTVSPost2010Prop57
140
1.0
102
RTVSPost2010PropOp57
 70
     1
  0
XRECORD
  5
327B
102
{ACAD_REACTORS
330
327A
102
}
330
327A
100
AcDbXrecord
280
     1
102
RTVSPost2010Prop28
280
     0
102
RTVSPost2010PropOp28
 70
     1
102
RTVSPost2010Prop29
280
     1
102
RTVSPost2010PropOp29
 70
     1
102
RTVSPost2010Prop30
280
     1
102
RTVSPost2010PropOp30
 70
     1
102
RTVSPost2010Prop31
280
     0
102
RTVSPost2010PropOp31
 70
     1
102
RTVSPost2010Prop32
280
     0
102
RTVSPost2010PropOp32
 70
     1
102
RTVSPost2010Prop33
280
     0
102
RTVSPost2010PropOp33
 70
     1
102
RTVSPost2010Prop34
280
     0
102
RTVSPost2010PropOp34
 70
     1
102
RTVSPost2010Prop35
280
     0
102
RTVSPost2010PropOp35
 70
     1
102
RTVSPost2010Prop36
280
     0
102
RTVSPost2010PropOp36
 70
     1
102
RTVSPost2010Prop37
 90
       50
102
RTVSPost2010PropOp37
 70
     1
102
RTVSPost2010Prop38
140
0.0
102
RTVSPost2010PropOp38
 70
     1
102
RTVSPost2010Prop39
140
1.0
102
RTVSPost2010PropOp39
 70
     1
102
RTVSPost2010Prop40
 90
        0
102
RTVSPost2010PropOp40
 70
     1
102
RTVSPost2010Prop41ColorIndex
 90
       18
102
RTVSPost2010Prop41ColorRGB
 90
        0
102
RTVSPost2010PropOp41
 70
     1
102
RTVSPost2010Prop42
 90
       50
102
RTVSPost2010PropOp42
 70
     1
102
RTVSPost2010Prop43
 90
        3
102
RTVSPost2010PropOp43
 70
     1
102
RTVSPost2010Prop44ColorIndex
 90
        5
102
RTVSPost2010Prop44ColorRGB
 90
      255
102
RTVSPost2010PropOp44
 70
     1
102
RTVSPost2010Prop45
280
     0
102
RTVSPost2010PropOp45
 70
     1
102
RTVSPost2010Prop46
 90
       50
102
RTVSPost2010PropOp46
 70
     1
102
RTVSPost2010Prop47
 90
       50
102
RTVSPost2010PropOp47
 70
     1
102
RTVSPost2010Prop48
 90
       50
102
RTVSPost2010PropOp48
 70
     1
102
RTVSPost2010Prop49
280
     0
102
RTVSPost2010PropOp49
 70
     1
102
RTVSPost2010Prop50
 90
       50
102
RTVSPost2010PropOp50
 70
     1
102
RTVSPost2010Prop51ColorIndex
 90
      256
102
RTVSPost2010Prop51ColorRGB
 90
-16777216
102
RTVSPost2010PropOp51
 70
     0
102
RTVSPost2010Prop52
140
1.0
102
RTVSPost2010PropOp52
 70
     0
102
RTVSPost2010Prop53
 90
        2
102
RTVSPost2010PropOp53
 70
     1
102
RTVSPost2010Prop54
  1
strokes_ogs.tif
102
RTVSPost2010PropOp54
 70
     1
102
RTVSPost2010Prop55
280
     0
102
RTVSPost2010PropOp55
 70
     1
102
RTVSPost2010Prop56
140
1.0
102
RTVSPost2010PropOp56
 70
     1
102
RTVSPost2010Prop57
140
1.0
102
RTVSPost2010PropOp57
 70
     1
  0
XRECORD
  5
3299
102
{ACAD_REACTORS
330
3298
102
}
330
3298
100
AcDbXrecord
280
     1
102
RTVSPost2010Prop28
280
     0
102
RTVSPost2010PropOp28
 70
     1
102
RTVSPost2010Prop29
280
     1
102
RTVSPost2010PropOp29
 70
     1
102
RTVSPost2010Prop30
280
     1
102
RTVSPost2010PropOp30
 70
     1
102
RTVSPost2010Prop31
280
     0
102
RTVSPost2010PropOp31
 70
     1
102
RTVSPost2010Prop32
280
     0
102
RTVSPost2010PropOp32
 70
     1
102
RTVSPost2010Prop33
280
     0
102
RTVSPost2010PropOp33
 70
     1
102
RTVSPost2010Prop34
280
     0
102
RTVSPost2010PropOp34
 70
     1
102
RTVSPost2010Prop35
280
     0
102
RTVSPost2010PropOp35
 70
     1
102
RTVSPost2010Prop36
280
     0
102
RTVSPost2010PropOp36
 70
     1
102
RTVSPost2010Prop37
 90
       50
102
RTVSPost2010PropOp37
 70
     1
102
RTVSPost2010Prop38
140
0.0
102
RTVSPost2010PropOp38
 70
     1
102
RTVSPost2010Prop39
140
1.0
102
RTVSPost2010PropOp39
 70
     1
102
RTVSPost2010Prop40
 90
        0
102
RTVSPost2010PropOp40
 70
     1
102
RTVSPost2010Prop41ColorIndex
 90
       18
102
RTVSPost2010Prop41ColorRGB
 90
        0
102
RTVSPost2010PropOp41
 70
     1
102
RTVSPost2010Prop42
 90
       50
102
RTVSPost2010PropOp42
 70
     1
102
RTVSPost2010Prop43
 90
        3
102
RTVSPost2010PropOp43
 70
     1
102
RTVSPost2010Prop44ColorIndex
 90
        5
102
RTVSPost2010Prop44ColorRGB
 90
      255
102
RTVSPost2010PropOp44
 70
     1
102
RTVSPost2010Prop45
280
     0
102
RTVSPost2010PropOp45
 70
     1
102
RTVSPost2010Prop46
 90
       50
102
RTVSPost2010PropOp46
 70
     1
102
RTVSPost2010Prop47
 90
       50
102
RTVSPost2010PropOp47
 70
     1
102
RTVSPost2010Prop48
 90
       50
102
RTVSPost2010PropOp48
 70
     1
102
RTVSPost2010Prop49
280
     0
102
RTVSPost2010PropOp49
 70
     1
102
RTVSPost2010Prop50
 90
       50
102
RTVSPost2010PropOp50
 70
     1
102
RTVSPost2010Prop51ColorIndex
 90
      256
102
RTVSPost2010Prop51ColorRGB
 90
-16777216
102
RTVSPost2010PropOp51
 70
     0
102
RTVSPost2010Prop52
140
1.0
102
RTVSPost2010PropOp52
 70
     0
102
RTVSPost2010Prop53
 90
        2
102
RTVSPost2010PropOp53
 70
     1
102
RTVSPost2010Prop54
  1
strokes_ogs.tif
102
RTVSPost2010PropOp54
 70
     1
102
RTVSPost2010Prop55
280
     0
102
RTVSPost2010PropOp55
 70
     1
102
RTVSPost2010Prop56
140
1.0
102
RTVSPost2010PropOp56
 70
     1
102
RTVSPost2010Prop57
140
1.0
102
RTVSPost2010PropOp57
 70
     1
  0
ENDSEC
  0
EOF
