  0
SECTION
  2
HEADER
  9
$ACADVER
  1
AC1014
  9
$ACADMAINTVER
 70
     9
  9
$DWGCODEPAGE
  3
ANSI_1252
  9
$INSBASE
 10
0.0
 20
0.0
 30
0.0
  9
$EXTMIN
 10
1.000000000000000E+20
 20
1.000000000000000E+20
 30
1.000000000000000E+20
  9
$EXTMAX
 10
-1.000000000000000E+20
 20
-1.000000000000000E+20
 30
-1.000000000000000E+20
  9
$LIMMIN
 10
0.0
 20
0.0
  9
$LIMMAX
 10
12.0
 20
9.0
  9
$ORTHOMODE
 70
     0
  9
$REGENMODE
 70
     1
  9
$FILLMODE
 70
     1
  9
$QTEXTMODE
 70
     0
  9
$MIRRTEXT
 70
     1
  9
$DRAGMODE
 70
     2
  9
$LTSCALE
 40
1.0
  9
$OSMODE
 70
    37
  9
$ATTMODE
 70
     1
  9
$TEXTSIZE
 40
0.2
  9
$TRACEWID
 40
0.05
  9
$TEXTSTYLE
  7
STANDARD
  9
$CLAYER
  8
0
  9
$CELTYPE
  6
BYLAYER
  9
$CECOLOR
 62
   256
  9
$CELTSCALE
 40
1.0
  9
$DELOBJ
 70
     1
  9
$DISPSILH
 70
     0
  9
$DIMSCALE
 40
1.0
  9
$DIMASZ
 40
0.18
  9
$DIMEXO
 40
0.0625
  9
$DIMDLI
 40
0.38
  9
$DIMRND
 40
0.0
  9
$DIMDLE
 40
0.0
  9
$DIMEXE
 40
0.18
  9
$DIMTP
 40
0.0
  9
$DIMTM
 40
0.0
  9
$DIMTXT
 40
0.18
  9
$DIMCEN
 40
0.09
  9
$DIMTSZ
 40
0.0
  9
$DIMTOL
 70
     0
  9
$DIMLIM
 70
     0
  9
$DIMTIH
 70
     1
  9
$DIMTOH
 70
     1
  9
$DIMSE1
 70
     0
  9
$DIMSE2
 70
     0
  9
$DIMTAD
 70
     0
  9
$DIMZIN
 70
     0
  9
$DIMBLK
  1

  9
$DIMASO
 70
     1
  9
$DIMSHO
 70
     1
  9
$DIMPOST
  1

  9
$DIMAPOST
  1

  9
$DIMALT
 70
     0
  9
$DIMALTD
 70
     2
  9
$DIMALTF
 40
25.4
  9
$DIMLFAC
 40
1.0
  9
$DIMTOFL
 70
     0
  9
$DIMTVP
 40
0.0
  9
$DIMTIX
 70
     0
  9
$DIMSOXD
 70
     0
  9
$DIMSAH
 70
     0
  9
$DIMBLK1
  1

  9
$DIMBLK2
  1

  9
$DIMSTYLE
  2
STANDARD
  9
$DIMCLRD
 70
     0
  9
$DIMCLRE
 70
     0
  9
$DIMCLRT
 70
     0
  9
$DIMTFAC
 40
1.0
  9
$DIMGAP
 40
0.09
  9
$DIMJUST
 70
     0
  9
$DIMSD1
 70
     0
  9
$DIMSD2
 70
     0
  9
$DIMTOLJ
 70
     1
  9
$DIMTZIN
 70
     0
  9
$DIMALTZ
 70
     0
  9
$DIMALTTZ
 70
     0
  9
$DIMFIT
 70
     3
  9
$DIMUPT
 70
     0
  9
$DIMUNIT
 70
     2
  9
$DIMDEC
 70
     4
  9
$DIMTDEC
 70
     4
  9
$DIMALTU
 70
     2
  9
$DIMALTTD
 70
     2
  9
$DIMTXSTY
  7
STANDARD
  9
$DIMAUNIT
 70
     0
  9
$LUNITS
 70
     2
  9
$LUPREC
 70
     4
  9
$SKETCHINC
 40
0.1
  9
$FILLETRAD
 40
0.5
  9
$AUNITS
 70
     0
  9
$AUPREC
 70
     0
  9
$MENU
  1
.
  9
$ELEVATION
 40
0.0
  9
$PELEVATION
 40
0.0
  9
$THICKNESS
 40
0.0
  9
$LIMCHECK
 70
     0
  9
$CHAMFERA
 40
0.0
  9
$CHAMFERB
 40
0.0
  9
$CHAMFERC
 40
0.0
  9
$CHAMFERD
 40
0.0
  9
$SKPOLY
 70
     0
  9
$TDCREATE
 40
2457828.319901065
  9
$TDUPDATE
 40
2457828.319902396
  9
$TDINDWG
 40
0.0000000116
  9
$TDUSRTIMER
 40
0.0000000116
  9
$USRTIMER
 70
     1
  9
$ANGBASE
 50
0.0
  9
$ANGDIR
 70
     0
  9
$PDMODE
 70
     0
  9
$PDSIZE
 40
0.0
  9
$PLINEWID
 40
0.0
  9
$COORDS
 70
     1
  9
$SPLFRAME
 70
     0
  9
$SPLINETYPE
 70
     6
  9
$SPLINESEGS
 70
     8
  9
$ATTDIA
 70
     0
  9
$ATTREQ
 70
     1
  9
$HANDLING
 70
     1
  9
$HANDSEED
  5
4A5
  9
$SURFTAB1
 70
     6
  9
$SURFTAB2
 70
     6
  9
$SURFTYPE
 70
     6
  9
$SURFU
 70
     6
  9
$SURFV
 70
     6
  9
$UCSNAME
  2

  9
$UCSORG
 10
0.0
 20
0.0
 30
0.0
  9
$UCSXDIR
 10
1.0
 20
0.0
 30
0.0
  9
$UCSYDIR
 10
0.0
 20
1.0
 30
0.0
  9
$PUCSNAME
  2

  9
$PUCSORG
 10
0.0
 20
0.0
 30
0.0
  9
$PUCSXDIR
 10
1.0
 20
0.0
 30
0.0
  9
$PUCSYDIR
 10
0.0
 20
1.0
 30
0.0
  9
$USERI1
 70
     0
  9
$USERI2
 70
     0
  9
$USERI3
 70
     0
  9
$USERI4
 70
     0
  9
$USERI5
 70
     0
  9
$USERR1
 40
0.0
  9
$USERR2
 40
0.0
  9
$USERR3
 40
0.0
  9
$USERR4
 40
0.0
  9
$USERR5
 40
0.0
  9
$WORLDVIEW
 70
     1
  9
$SHADEDGE
 70
     3
  9
$SHADEDIF
 70
    70
  9
$TILEMODE
 70
     1
  9
$MAXACTVP
 70
    64
  9
$PINSBASE
 10
0.0
 20
0.0
 30
0.0
  9
$PLIMCHECK
 70
     0
  9
$PEXTMIN
 10
1.000000000000000E+20
 20
1.000000000000000E+20
 30
1.000000000000000E+20
  9
$PEXTMAX
 10
-1.000000000000000E+20
 20
-1.000000000000000E+20
 30
-1.000000000000000E+20
  9
$PLIMMIN
 10
0.0
 20
0.0
  9
$PLIMMAX
 10
12.0
 20
9.0
  9
$UNITMODE
 70
     0
  9
$VISRETAIN
 70
     1
  9
$PLINEGEN
 70
     0
  9
$PSLTSCALE
 70
     1
  9
$TREEDEPTH
 70
  3020
  9
$PICKSTYLE
 70
     1
  9
$CMLSTYLE
  2
STANDARD
  9
$CMLJUST
 70
     0
  9
$CMLSCALE
 40
1.0
  9
$PROXYGRAPHICS
 70
     1
  9
$MEASUREMENT
 70
     1
  0
ENDSEC
  0
SECTION
  2
CLASSES
  0
CLASS
  1
ACDBDICTIONARYWDFLT
  2
AcDbDictionaryWithDefault
  3
ObjectDBX Classes
 90
        0
280
     0
281
     0
  0
CLASS
  1
VISUALSTYLE
  2
AcDbVisualStyle
  3
ObjectDBX Classes
 90
     4095
280
     0
281
     0
  0
CLASS
  1
MATERIAL
  2
AcDbMaterial
  3
ObjectDBX Classes
 90
     1153
280
     0
281
     0
  0
CLASS
  1
SCALE
  2
AcDbScale
  3
ObjectDBX Classes
 90
     1153
280
     0
281
     0
  0
CLASS
  1
TABLESTYLE
  2
AcDbTableStyle
  3
ObjectDBX Classes
 90
     4095
280
     0
281
     0
  0
CLASS
  1
MLEADERSTYLE
  2
AcDbMLeaderStyle
  3
ACDB_MLEADERSTYLE_CLASS
 90
     4095
280
     0
281
     0
  0
CLASS
  1
SUN
  2
AcDbSun
  3
SCENEOE
 90
     1153
280
     0
281
     0
  0
CLASS
  1
DICTIONARYVAR
  2
AcDbDictionaryVar
  3
ObjectDBX Classes
 90
        0
280
     0
281
     0
  0
CLASS
  1
XRECORD
  2
AcDbXrecord
  3
ObjectDBX Classes
 90
        0
280
     0
281
     0
  0
CLASS
  1
LWPOLYLINE
  2
AcDbPolyline
  3
ObjectDBX Classes
 90
        0
280
     0
281
     1
  0
CLASS
  1
HATCH
  2
AcDbHatch
  3
ObjectDBX Classes
 90
        0
280
     0
281
     1
  0
CLASS
  1
ACDBPLACEHOLDER
  2
AcDbPlaceHolder
  3
ObjectDBX Classes
 90
        0
280
     0
281
     0
  0
CLASS
  1
LAYOUT
  2
AcDbLayout
  3
ObjectDBX Classes
 90
        0
280
     0
281
     0
  0
ENDSEC
  0
SECTION
  2
TABLES
  0
TABLE
  2
VPORT
  5
8
102
{ACAD_XDICTIONARY
360
49A
102
}
330
0
100
AcDbSymbolTable
 70
     1
  0
VPORT
  5
29
330
8
100
AcDbSymbolTableRecord
100
AcDbViewportTableRecord
  2
*ACTIVE
 70
     0
 10
0.0
 20
0.0
 11
1.0
 21
1.0
 12
0.0
 22
0.0
 13
0.0
 23
0.0
 14
0.5
 24
0.5
 15
0.5
 25
0.5
 16
0.0
 26
0.0
 36
1.0
 17
0.0
 27
0.0
 37
-1000.0
 40
350.2984208055016
 41
2.403785488958991
 42
50.0
 43
1758.75345547538
 44
2177.527556692131
 50
0.0
 51
0.0
 71
     0
 72
   100
 73
     1
 74
     3
 75
     0
 76
     0
 77
     0
 78
     0
  0
ENDTAB
  0
TABLE
  2
LTYPE
  5
5
330
0
100
AcDbSymbolTable
 70
     1
  0
LTYPE
  5
14
330
5
100
AcDbSymbolTableRecord
100
AcDbLinetypeTableRecord
  2
BYBLOCK
 70
     0
  3

 72
    65
 73
     0
 40
0.0
  0
LTYPE
  5
15
330
5
100
AcDbSymbolTableRecord
100
AcDbLinetypeTableRecord
  2
BYLAYER
 70
     0
  3

 72
    65
 73
     0
 40
0.0
  0
LTYPE
  5
16
330
5
100
AcDbSymbolTableRecord
100
AcDbLinetypeTableRecord
  2
CONTINUOUS
 70
     0
  3
Solid line
 72
    65
 73
     0
 40
0.0
  0
ENDTAB
  0
TABLE
  2
LAYER
  5
2
330
0
100
AcDbSymbolTable
 70
     3
  0
LAYER
  5
10
330
2
100
AcDbSymbolTableRecord
100
AcDbLayerTableRecord
  2
0
 70
     0
 62
     7
  6
CONTINUOUS
  0
LAYER
  5
6E
330
2
100
AcDbSymbolTableRecord
100
AcDbLayerTableRecord
  2
PROFILEEDGES
 70
     0
 62
     7
  6
CONTINUOUS
  0
LAYER
  5
6F
330
2
100
AcDbSymbolTableRecord
100
AcDbLayerTableRecord
  2
SECTIONCUTEDGES
 70
     0
 62
     7
  6
CONTINUOUS
  0
ENDTAB
  0
TABLE
  2
STYLE
  5
3
330
0
100
AcDbSymbolTable
 70
     1
  0
STYLE
  5
11
330
3
100
AcDbSymbolTableRecord
100
AcDbTextStyleTableRecord
  2
STANDARD
 70
     0
 40
0.0
 41
1.0
 50
0.0
 71
     0
 42
0.2
  3
txt
  4

  0
ENDTAB
  0
TABLE
  2
VIEW
  5
6
330
0
100
AcDbSymbolTable
 70
     0
  0
ENDTAB
  0
TABLE
  2
UCS
  5
7
330
0
100
AcDbSymbolTable
 70
     0
  0
ENDTAB
  0
TABLE
  2
APPID
  5
9
330
0
100
AcDbSymbolTable
 70
     2
  0
APPID
  5
12
330
9
100
AcDbSymbolTableRecord
100
AcDbRegAppTableRecord
  2
ACAD
 70
     0
  0
APPID
  5
4A4
330
9
100
AcDbSymbolTableRecord
100
AcDbRegAppTableRecord
  2
ACAD_MLEADERVER
 70
     0
  0
ENDTAB
  0
TABLE
  2
DIMSTYLE
  5
A
330
0
100
AcDbSymbolTable
 70
     1
  0
DIMSTYLE
105
27
330
A
100
AcDbSymbolTableRecord
100
AcDbDimStyleTableRecord
  2
STANDARD
 70
     0
  3

  4

  5

  6

  7

 40
1.0
 41
0.18
 42
0.0625
 43
0.38
 44
0.18
 45
0.0
 46
0.0
 47
0.0
 48
0.0
140
0.18
141
0.09
142
0.0
143
25.4
144
1.0
145
0.0
146
1.0
147
0.09
 71
     0
 72
     0
 73
     1
 74
     1
 75
     0
 76
     0
 77
     0
 78
     0
170
     0
171
     2
172
     0
173
     0
174
     0
175
     0
176
     0
177
     0
178
     0
270
     2
271
     4
272
     4
273
     2
274
     2
340
11
275
     0
280
     0
281
     0
282
     0
283
     1
284
     0
285
     0
286
     0
287
     3
288
     0
  0
ENDTAB
  0
TABLE
  2
BLOCK_RECORD
  5
1
330
0
100
AcDbSymbolTable
 70
     1
  0
BLOCK_RECORD
  5
1F
330
1
100
AcDbSymbolTableRecord
100
AcDbBlockTableRecord
  2
*MODEL_SPACE
  0
BLOCK_RECORD
  5
1B
330
1
100
AcDbSymbolTableRecord
100
AcDbBlockTableRecord
  2
*PAPER_SPACE
  0
ENDTAB
  0
ENDSEC
  0
SECTION
  2
BLOCKS
  0
BLOCK
  5
20
330
1F
100
AcDbEntity
  8
0
100
AcDbBlockBegin
  2
*MODEL_SPACE
 70
     0
 10
0.0
 20
0.0
 30
0.0
  3
*MODEL_SPACE
  1

  0
ENDBLK
  5
21
330
1F
100
AcDbEntity
  8
0
100
AcDbBlockEnd
  0
BLOCK
  5
1C
330
1B
100
AcDbEntity
 67
     1
  8
0
100
AcDbBlockBegin
  2
*PAPER_SPACE
 70
     0
 10
0.0
 20
0.0
 30
0.0
  3
*PAPER_SPACE
  1

  0
ENDBLK
  5
1D
330
1B
100
AcDbEntity
 67
     1
  8
0
100
AcDbBlockEnd
  0
ENDSEC
  0
SECTION
  2
ENTITIES
  0
LINE
  5
70
330
1F
100
AcDbEntity
  8
0
100
AcDbLine
 10
-82.89706830254164
 20
-5.232303684199592
 30
0.0
 11
-82.86755737740997
 21
-5.205688688158228
 31
0.0
  0
LINE
  5
71
330
1F
100
AcDbEntity
  8
0
100
AcDbLine
 10
-82.69760658825932
 20
-5.104392442640728
 30
0.0
 11
-82.66015693050733
 21
-5.091096734661916
 31
0.0
  0
LINE
  5
72
330
1F
100
AcDbEntity
  8
0
100
AcDbLine
 10
-81.87806690569572
 20
-5.562486601855345
 30
0.0
 11
-81.87233273682034
 21
-5.601810538878743
 31
0.0
  0
LINE
  5
73
330
1F
100
AcDbEntity
  8
0
100
AcDbLine
 10
-188.4876508071492
 20
-27.43588919688234
 30
0.0
 11
-189.1625935205494
 21
-27.01618284693307
 31
0.0
  0
LINE
  5
74
330
1F
100
AcDbEntity
  8
0
100
AcDbLine
 10
-81.92619089549704
 20
-5.411433284909514
 30
0.0
 11
-81.91047432984396
 21
-5.447933179162385
 31
0.0
  0
LINE
  5
75
330
1F
100
AcDbEntity
  8
0
100
AcDbLine
 10
-187.0627519326318
 20
-28.13857155940761
 30
0.0
 11
-187.7867030892636
 21
-27.81055355781139
 31
0.0
  0
LINE
  5
76
330
1F
100
AcDbEntity
  8
0
100
AcDbLine
 10
-82.09711293929173
 20
-5.194979927943324
 30
0.0
 11
-82.06687368954466
 21
-5.220764428930218
 31
0.0
  0
LINE
  5
77
330
1F
100
AcDbEntity
  8
0
100
AcDbLine
 10
-184.7842910366798
 20
-28.82973511592373
 30
0.0
 11
-185.5583248123936
 21
-28.64925575252217
 31
0.0
  0
LINE
  5
78
330
1F
100
AcDbEntity
  8
0
100
AcDbLine
 10
-82.42469146049486
 20
-5.064596289130745
 30
0.0
 11
-82.38522334200992
 21
-5.069235291141443
 31
0.0
  0
LINE
  5
79
330
1F
100
AcDbEntity
  8
0
100
AcDbLine
 10
-81.88636070582332
 20
-5.523621892981672
 30
0.0
 11
-81.87806690569572
 21
-5.562486601855345
 31
0.0
  0
LINE
  5
7A
330
1F
100
AcDbEntity
  8
0
100
AcDbLine
 10
-82.73410648251226
 20
-5.120109008293736
 30
0.0
 11
-82.69760658825932
 21
-5.104392442640728
 31
0.0
  0
LINE
  5
7B
330
1F
100
AcDbEntity
  8
0
100
AcDbLine
 10
-193.3079718763473
 20
-22.28928477072767
 30
0.0
 11
-193.6359898779435
 21
-21.56533361409601
 31
0.0
  0
LINE
  5
7C
330
1F
100
AcDbEntity
  8
0
100
AcDbLine
 10
-194.1466740710579
 20
-20.06090649385774
 30
0.0
 11
-194.3271534344596
 21
-19.28687271814394
 31
0.0
  0
LINE
  5
7D
330
1F
100
AcDbEntity
  8
0
100
AcDbLine
 10
-82.38522334200992
 20
-5.069235291141443
 30
0.0
 11
-82.34614313304421
 21
-5.076445699146533
 31
0.0
  0
LINE
  5
7E
330
1F
100
AcDbEntity
  8
0
100
AcDbLine
 10
-82.58305316556634
 20
-5.071985018492402
 30
0.0
 11
-82.5437292285361
 21
-5.066250849604425
 31
0.0
  0
LINE
  5
7F
330
1F
100
AcDbEntity
  8
0
100
AcDbLine
 10
-190.4230268343591
 20
-26.04901834869918
 30
0.0
 11
-191.0031200658135
 21
-25.50570174727761
 31
0.0
  0
LINE
  5
80
330
1F
100
AcDbEntity
  8
0
100
AcDbLine
 10
-82.76950031511527
 20
-5.138179130873804
 30
0.0
 11
-82.73410648251226
 21
-5.120109008293736
 31
0.0
  0
LINE
  5
81
330
1F
100
AcDbEntity
  8
0
100
AcDbLine
 10
-193.9159568967657
 20
-20.82147908871395
 30
0.0
 11
-194.1466740710579
 21
-20.06090649385774
 31
0.0
  0
LINE
  5
82
330
1F
100
AcDbEntity
  8
0
100
AcDbLine
 10
-82.50411445448468
 20
-5.063100866547656
 30
0.0
 11
-82.46437847995652
 21
-5.062548558033177
 31
0.0
  0
LINE
  5
83
330
1F
100
AcDbEntity
  8
0
100
AcDbLine
 10
-184.0001106115678
 20
-28.9592038280929
 30
0.0
 11
-184.7842910366798
 21
-28.82973511592373
 31
0.0
  0
LINE
  5
84
330
1F
100
AcDbEntity
  8
0
100
AcDbLine
 10
-191.5464366672351
 20
-24.92560851582313
 30
0.0
 11
-192.0506500735249
 21
-24.31122270261024
 31
0.0
  0
LINE
  5
85
330
1F
100
AcDbEntity
  8
0
100
AcDbLine
 10
-82.3076181810523
 20
-5.086196637071992
 30
0.0
 11
-82.26981345579318
 21
-5.098446349904469
 31
0.0
  0
LINE
  5
86
330
1F
100
AcDbEntity
  8
0
100
AcDbLine
 10
-82.16231993303931
 20
-5.149611478229873
 30
0.0
 11
-82.1289738315338
 21
-5.171228375111383
 31
0.0
  0
LINE
  5
87
330
1F
100
AcDbEntity
  8
0
100
AcDbLine
 10
-82.5437292285361
 20
-5.066250849604425
 30
0.0
 11
-82.50411445448468
 21
-5.063100866547656
 31
0.0
  0
LINE
  5
88
330
1F
100
AcDbEntity
  8
0
100
AcDbLine
 10
-82.34614313304421
 20
-5.076445699146533
 30
0.0
 11
-82.3076181810523
 21
-5.086196637071992
 31
0.0
  0
LINE
  5
89
330
1F
100
AcDbEntity
  8
0
100
AcDbLine
 10
-189.8086410211462
 20
-26.55323175498901
 30
0.0
 11
-190.4230268343591
 21
-26.04901834869918
 31
0.0
  0
LINE
  5
8A
330
1F
100
AcDbEntity
  8
0
100
AcDbLine
 10
-82.19700845068213
 20
-5.130221804170017
 30
0.0
 11
-82.16231993303931
 21
-5.149611478229873
 31
0.0
  0
LINE
  5
8B
330
1F
100
AcDbEntity
  8
0
100
AcDbLine
 10
-82.46437847995652
 20
-5.062548558033177
 30
0.0
 11
-82.42469146049486
 21
-5.064596289130745
 31
0.0
  0
LINE
  5
8C
330
1F
100
AcDbEntity
  8
0
100
AcDbLine
 10
-82.23289084290411
 20
-5.113142382493012
 30
0.0
 11
-82.19700845068213
 21
-5.130221804170017
 31
0.0
  0
LINE
  5
8D
330
1F
100
AcDbEntity
  8
0
100
AcDbLine
 10
-82.6219178744401
 20
-5.080278818620006
 30
0.0
 11
-82.58305316556634
 21
-5.071985018492402
 31
0.0
  0
LINE
  5
8E
330
1F
100
AcDbEntity
  8
0
100
AcDbLine
 10
-81.94426101807719
 20
-5.376039452306368
 30
0.0
 11
-81.92619089549704
 21
-5.411433284909514
 31
0.0
  0
LINE
  5
8F
330
1F
100
AcDbEntity
  8
0
100
AcDbLine
 10
-82.0383855714029
 20
-5.248471464880218
 30
0.0
 11
-82.01177057536152
 21
-5.277982390011737
 31
0.0
  0
LINE
  5
90
330
1F
100
AcDbEntity
  8
0
100
AcDbLine
 10
-185.5583248123936
 20
-28.64925575252217
 30
0.0
 11
-186.3188974072497
 21
-28.41853857822994
 31
0.0
  0
LINE
  5
91
330
1F
100
AcDbEntity
  8
0
100
AcDbLine
 10
-182.4147708071492
 20
-29.06311248861337
 30
0.0
 11
-183.2091415180275
 21
-29.03710748412789
 31
0.0
  0
LINE
  5
92
330
1F
100
AcDbEntity
  8
0
100
AcDbLine
 10
-81.89717862186514
 20
-5.485382836914365
 30
0.0
 11
-81.88636070582332
 21
-5.523621892981672
 31
0.0
  0
LINE
  5
93
330
1F
100
AcDbEntity
  8
0
100
AcDbLine
 10
-82.86755737740997
 20
-5.205688688158228
 30
0.0
 11
-82.83636893340888
 21
-5.181060783716514
 31
0.0
  0
LINE
  5
94
330
1F
100
AcDbEntity
  8
0
100
AcDbLine
 10
-171.5435050834578
 20
85.28723151818907
 30
0.0
 11
-171.4174517318854
 21
85.13363506488585
 31
0.0
  0
LINE
  5
95
330
1F
100
AcDbEntity
  8
0
100
AcDbLine
 10
-82.59468346422098
 20
-11.18900063981722
 30
0.0
 11
-82.60640068145516
 21
-11.15014383335452
 31
0.0
  0
LINE
  5
96
330
1F
100
AcDbEntity
  8
0
100
AcDbLine
 10
-70.0664908071492
 20
-29.06311248861337
 30
0.0
 11
-70.0664908071492
 21
95.43092751138666
 31
0.0
  0
LINE
  5
97
330
1F
100
AcDbEntity
  8
0
100
AcDbLine
 10
-172.3082015484793
 20
80.65553333431954
 30
0.0
 11
-172.4834384779508
 21
80.56186724408707
 31
0.0
  0
LINE
  5
98
330
1F
100
AcDbEntity
  8
0
100
AcDbLine
 10
-170.7899815484794
 20
83.28516751138663
 30
0.0
 11
-170.7964827996007
 21
83.08657483366713
 31
0.0
  0
LINE
  5
99
330
1F
100
AcDbEntity
  8
0
100
AcDbLine
 10
-170.9511250260753
 20
82.30913586136168
 30
0.0
 11
-171.0211167807808
 21
82.12317223001592
 31
0.0
  0
LINE
  5
9A
330
1F
100
AcDbEntity
  8
0
100
AcDbLine
 10
-82.20394788165478
 20
-11.57292156817456
 30
0.0
 11
-82.24218074882607
 21
-11.55930567833731
 31
0.0
  0
LINE
  5
9B
330
1F
100
AcDbEntity
  8
0
100
AcDbLine
 10
-171.6793342338133
 20
81.13808019672064
 30
0.0
 11
-171.8243575416769
 21
81.00225104636517
 31
0.0
  0
LINE
  5
9C
330
1F
100
AcDbEntity
  8
0
100
AcDbLine
 10
-181.6288823058381
 20
-13.98437667263618
 30
0.0
 11
-181.4387391571241
 21
-14.04205596620899
 31
0.0
  0
LINE
  5
9D
330
1F
100
AcDbEntity
  8
0
100
AcDbLine
 10
-179.6914705398496
 20
-15.57436941808485
 30
0.0
 11
-179.6094660394506
 21
-15.75535720724264
 31
0.0
  0
LINE
  5
9E
330
1F
100
AcDbEntity
  8
0
100
AcDbLine
 10
-184.2632383606484
 20
-14.50838267201935
 30
0.0
 11
-184.1017264854993
 21
-14.39264489903345
 31
0.0
  0
LINE
  5
9F
330
1F
100
AcDbEntity
  8
0
100
AcDbLine
 10
-70.0664908071492
 20
95.43092751138666
 30
0.0
 11
-194.5605308071492
 21
95.43092751138666
 31
0.0
  0
LINE
  5
A0
330
1F
100
AcDbEntity
  8
0
100
AcDbLine
 10
-182.6133634848688
 20
-13.88741373973462
 30
0.0
 11
-182.4147708071492
 21
-13.88091248861339
 31
0.0
  0
LINE
  5
A1
330
1F
100
AcDbEntity
  8
0
100
AcDbLine
 10
-81.8441099400971
 20
-11.57576932212202
 30
0.0
 11
-81.88333657805428
 21
-11.58618159674251
 31
0.0
  0
LINE
  5
A2
330
1F
100
AcDbEntity
  8
0
100
AcDbLine
 10
-180.8965508071491
 20
-14.28771831154608
 30
0.0
 11
-180.7278151287991
 21
-14.39264489903345
 31
0.0
  0
LINE
  5
A3
330
1F
100
AcDbEntity
  8
0
100
AcDbLine
 10
-179.4043079722793
 20
-16.52101753750874
 30
0.0
 11
-179.3848320582705
 21
-16.71875981089383
 31
0.0
  0
LINE
  5
A4
330
1F
100
AcDbEntity
  8
0
100
AcDbLine
 10
-172.4834384779508
 20
80.56186724408707
 30
0.0
 11
-172.6644262671087
 21
80.47986274368802
 31
0.0
  0
LINE
  5
A5
330
1F
100
AcDbEntity
  8
0
100
AcDbLine
 10
-184.1017264854993
 20
-14.39264489903345
 30
0.0
 11
-183.9329908071492
 21
-14.28771831154608
 31
0.0
  0
LINE
  5
A6
330
1F
100
AcDbEntity
  8
0
100
AcDbLine
 10
-183.9329908071492
 20
-14.28771831154608
 30
0.0
 11
-183.7577538776778
 21
-14.19405222131379
 31
0.0
  0
LINE
  5
A7
330
1F
100
AcDbEntity
  8
0
100
AcDbLine
 10
-171.5435050834578
 20
81.28310350458418
 30
0.0
 11
-171.6793342338133
 21
81.13808019672064
 31
0.0
  0
LINE
  5
A8
330
1F
100
AcDbEntity
  8
0
100
AcDbLine
 10
-81.87233273682034
 20
-5.601810538878743
 30
0.0
 11
-81.41320488588421
 21
-10.95857541655325
 31
0.0
  0
LINE
  5
A9
330
1F
100
AcDbEntity
  8
0
100
AcDbLine
 10
-184.6976872721707
 20
-14.9152884818109
 30
0.0
 11
-184.5618581218152
 21
-14.77026517394718
 31
0.0
  0
LINE
  5
AA
330
1F
100
AcDbEntity
  8
0
100
AcDbLine
 10
-170.8934457325022
 20
82.49927901007561
 30
0.0
 11
-170.9511250260753
 21
82.30913586136168
 31
0.0
  0
LINE
  5
AB
330
1F
100
AcDbEntity
  8
0
100
AcDbLine
 10
-181.8223907497665
 20
-13.93925683178578
 30
0.0
 11
-181.6288823058381
 21
-13.98437667263618
 31
0.0
  0
LINE
  5
AC
330
1F
100
AcDbEntity
  8
0
100
AcDbLine
 10
-172.1394658701294
 20
80.76045992180674
 30
0.0
 11
-172.3082015484793
 21
80.65553333431954
 31
0.0
  0
LINE
  5
AD
330
1F
100
AcDbEntity
  8
0
100
AcDbLine
 10
-180.1318543421276
 20
-14.9152884818109
 30
0.0
 11
-180.0058009905553
 21
-15.06888493511413
 31
0.0
  0
LINE
  5
AE
330
1F
100
AcDbEntity
  8
0
100
AcDbLine
 10
-170.8159587136094
 20
82.88883256028203
 30
0.0
 11
-170.8483258916517
 21
82.69278745400406
 31
0.0
  0
LINE
  5
AF
330
1F
100
AcDbEntity
  8
0
100
AcDbLine
 10
-183.0071508645318
 20
-13.93925683178578
 30
0.0
 11
-182.8111057582539
 21
-13.90688965374342
 31
0.0
  0
LINE
  5
B0
330
1F
100
AcDbEntity
  8
0
100
AcDbLine
 10
-82.60640068145516
 20
-11.15014383335452
 30
0.0
 11
-82.61549638427852
 21
-11.11059117505775
 31
0.0
  0
LINE
  5
B1
330
1F
100
AcDbEntity
  8
0
100
AcDbLine
 10
-179.8900632175692
 20
-15.23039681026312
 30
0.0
 11
-179.785136630082
 21
-15.39913248861337
 31
0.0
  0
LINE
  5
B2
330
1F
100
AcDbEntity
  8
0
100
AcDbLine
 10
-82.1648909519736
 20
-11.58395337818309
 30
0.0
 11
-82.20394788165478
 21
-11.57292156817456
 31
0.0
  0
LINE
  5
B3
330
1F
100
AcDbEntity
  8
0
100
AcDbLine
 10
-81.4622328232113
 20
-11.23583719137633
 30
0.0
 11
-81.47960727681439
 21
-11.2725151541087
 31
0.0
  0
LINE
  5
B4
330
1F
100
AcDbEntity
  8
0
100
AcDbLine
 10
-173.2340414910967
 20
80.30707185455908
 30
0.0
 11
-173.4300865973747
 21
80.27470467651669
 31
0.0
  0
LINE
  5
B5
330
1F
100
AcDbEntity
  8
0
100
AcDbLine
 10
-81.41216978063557
 20
-10.99914724351897
 30
0.0
 11
-81.41384688609075
 21
-11.03969760610024
 31
0.0
  0
LINE
  5
B6
330
1F
100
AcDbEntity
  8
0
100
AcDbLine
 10
-179.785136630082
 20
-15.39913248861337
 30
0.0
 11
-179.6914705398496
 21
-15.57436941808485
 31
0.0
  0
LINE
  5
B7
330
1F
100
AcDbEntity
  8
0
100
AcDbLine
 10
-180.4127068003467
 20
-14.63443602359189
 30
0.0
 11
-180.2676834924831
 21
-14.77026517394718
 31
0.0
  0
LINE
  5
B8
330
1F
100
AcDbEntity
  8
0
100
AcDbLine
 10
-81.96343553961064
 20
-11.59904154086209
 30
0.0
 11
-82.0039501218034
 21
-11.60143177472872
 31
0.0
  0
LINE
  5
B9
330
1F
100
AcDbEntity
  8
0
100
AcDbLine
 10
-171.0211167807808
 20
82.12317223001592
 30
0.0
 11
-171.1031212811798
 21
81.9421844408583
 31
0.0
  0
LINE
  5
BA
330
1F
100
AcDbEntity
  8
0
100
AcDbLine
 10
-171.3017139588994
 20
81.59821183303657
 30
0.0
 11
-171.4174517318854
 21
81.4366999578874
 31
0.0
  0
LINE
  5
BB
330
1F
100
AcDbEntity
  8
0
100
AcDbLine
 10
-183.2006593084603
 20
-13.98437667263618
 30
0.0
 11
-183.0071508645318
 21
-13.93925683178578
 31
0.0
  0
LINE
  5
BC
330
1F
100
AcDbEntity
  8
0
100
AcDbLine
 10
-182.4147708071492
 20
-13.88091248861339
 30
0.0
 11
-182.2161781294296
 21
-13.88741373973462
 31
0.0
  0
LINE
  5
BD
330
1F
100
AcDbEntity
  8
0
100
AcDbLine
 10
-171.3017139588994
 20
84.97212318973668
 30
0.0
 11
-171.1967873714121
 21
84.80338751138662
 31
0.0
  0
LINE
  5
BE
330
1F
100
AcDbEntity
  8
0
100
AcDbLine
 10
-181.4387391571241
 20
-14.04205596620899
 30
0.0
 11
-181.2527755257785
 21
-14.11204772091474
 31
0.0
  0
LINE
  5
BF
330
1F
100
AcDbEntity
  8
0
100
AcDbLine
 10
-171.9779539949801
 20
80.87619769479278
 30
0.0
 11
-172.1394658701294
 21
80.76045992180674
 31
0.0
  0
LINE
  5
C0
330
1F
100
AcDbEntity
  8
0
100
AcDbLine
 10
-83.01531796325168
 20
-5.390926563478899
 30
0.0
 11
-82.99592828919182
 21
-5.356238045836093
 31
0.0
  0
LINE
  5
C1
330
1F
100
AcDbEntity
  8
0
100
AcDbLine
 10
-82.12518439751153
 20
-11.5923518376216
 30
0.0
 11
-82.1648909519736
 21
-11.58395337818309
 31
0.0
  0
LINE
  5
C2
330
1F
100
AcDbEntity
  8
0
100
AcDbLine
 10
-82.38352752732547
 20
-11.48038462050405
 30
0.0
 11
-82.41517858489742
 21
-11.45498077940123
 31
0.0
  0
LINE
  5
C3
330
1F
100
AcDbEntity
  8
0
100
AcDbLine
 10
-171.1031212811798
 20
81.9421844408583
 30
0.0
 11
-171.1967873714121
 21
81.76694751138665
 31
0.0
  0
LINE
  5
C4
330
1F
100
AcDbEntity
  8
0
100
AcDbLine
 10
-82.62192994907413
 20
-11.07051931670049
 30
0.0
 11
-82.62567264197996
 21
-11.03010722892948
 31
0.0
  0
LINE
  5
C5
330
1F
100
AcDbEntity
  8
0
100
AcDbLine
 10
-171.6793342338133
 20
85.43225482605294
 30
0.0
 11
-171.5435050834578
 21
85.28723151818907
 31
0.0
  0
LINE
  5
C6
330
1F
100
AcDbEntity
  8
0
100
AcDbLine
 10
-82.41517858489742
 20
-11.45498077940123
 30
0.0
 11
-82.44506217236159
 21
-11.42751961066323
 31
0.0
  0
LINE
  5
C7
330
1F
100
AcDbEntity
  8
0
100
AcDbLine
 10
-184.9394783967292
 20
-15.23039681026312
 30
0.0
 11
-184.8237406237431
 21
-15.06888493511413
 31
0.0
  0
LINE
  5
C8
330
1F
100
AcDbEntity
  8
0
100
AcDbLine
 10
-170.8483258916517
 20
82.69278745400406
 30
0.0
 11
-170.8934457325022
 21
82.49927901007561
 31
0.0
  0
LINE
  5
C9
330
1F
100
AcDbEntity
  8
0
100
AcDbLine
 10
-185.2200755748477
 20
-15.75535720724264
 30
0.0
 11
-185.1380710744488
 21
-15.57436941808469
 31
0.0
  0
LINE
  5
CA
330
1F
100
AcDbEntity
  8
0
100
AcDbLine
 10
-82.0039501218034
 20
-11.60143177472872
 30
0.0
 11
-82.0445338800318
 21
-11.60111059526338
 31
0.0
  0
LINE
  5
CB
330
1F
100
AcDbEntity
  8
0
100
AcDbLine
 10
-82.99592828919182
 20
-5.356238045836093
 30
0.0
 11
-82.9743113923104
 21
-5.322891944330504
 31
0.0
  0
LINE
  5
CC
330
1F
100
AcDbEntity
  8
0
100
AcDbLine
 10
-82.3154957096811
 20
-11.52457617618115
 30
0.0
 11
-82.35025036095233
 21
-11.50361767425004
 31
0.0
  0
LINE
  5
CD
330
1F
100
AcDbEntity
  8
0
100
AcDbLine
 10
-83.0593431303498
 20
-5.501536293849073
 30
0.0
 11
-83.0470934175174
 21
-5.463731568589949
 31
0.0
  0
LINE
  5
CE
330
1F
100
AcDbEntity
  8
0
100
AcDbLine
 10
-184.5618581218152
 20
-14.77026517394718
 30
0.0
 11
-184.4168348139517
 21
-14.63443602359189
 31
0.0
  0
LINE
  5
CF
330
1F
100
AcDbEntity
  8
0
100
AcDbLine
 10
-179.4366751503216
 20
-16.32497243123079
 30
0.0
 11
-179.4043079722793
 21
-16.52101753750874
 31
0.0
  0
LINE
  5
D0
330
1F
100
AcDbEntity
  8
0
100
AcDbLine
 10
-181.0717877366205
 20
-14.19405222131379
 30
0.0
 11
-180.8965508071491
 21
-14.28771831154608
 31
0.0
  0
LINE
  5
D1
330
1F
100
AcDbEntity
  8
0
100
AcDbLine
 10
-174.2227564995841
 20
86.29563034625656
 30
0.0
 11
-174.0250142261989
 21
86.31510626026534
 31
0.0
  0
LINE
  5
D2
330
1F
100
AcDbEntity
  8
0
100
AcDbLine
 10
-180.7278151287991
 20
-14.39264489903345
 30
0.0
 11
-180.56630325365
 21
-14.50838267201935
 31
0.0
  0
LINE
  5
D3
330
1F
100
AcDbEntity
  8
0
100
AcDbLine
 10
-175.5133772268294
 20
85.80987510096668
 30
0.0
 11
-175.3446415484794
 21
85.91480168845405
 31
0.0
  0
LINE
  5
D4
330
1F
100
AcDbEntity
  8
0
100
AcDbLine
 10
-180.2676834924831
 20
-14.77026517394718
 30
0.0
 11
-180.1318543421276
 21
-14.9152884818109
 31
0.0
  0
LINE
  5
D5
330
1F
100
AcDbEntity
  8
0
100
AcDbLine
 10
-173.8264215484794
 20
80.24872751138682
 30
0.0
 11
-174.0250142261989
 21
80.25522876250808
 31
0.0
  0
LINE
  5
D6
330
1F
100
AcDbEntity
  8
0
100
AcDbLine
 10
-176.8368843833493
 20
83.68150246249124
 30
0.0
 11
-176.804517205307
 21
83.87754756876936
 31
0.0
  0
LINE
  5
D7
330
1F
100
AcDbEntity
  8
0
100
AcDbLine
 10
-175.3446415484794
 20
85.91480168845405
 30
0.0
 11
-175.1694046190079
 21
86.00846777868618
 31
0.0
  0
LINE
  5
D8
330
1F
100
AcDbEntity
  8
0
100
AcDbLine
 10
-175.6748891019787
 20
85.69413732798064
 30
0.0
 11
-175.5133772268294
 21
85.80987510096668
 31
0.0
  0
LINE
  5
D9
330
1F
100
AcDbEntity
  8
0
100
AcDbLine
 10
-175.9735088631454
 20
85.43225482605294
 30
0.0
 11
-175.8284855552819
 21
85.56808397640809
 31
0.0
  0
LINE
  5
DA
330
1F
100
AcDbEntity
  8
0
100
AcDbLine
 10
-184.4168348139517
 20
-14.63443602359189
 30
0.0
 11
-184.2632383606484
 21
-14.50838267201935
 31
0.0
  0
LINE
  5
DB
330
1F
100
AcDbEntity
  8
0
100
AcDbLine
 10
-171.1967873714121
 20
81.76694751138665
 30
0.0
 11
-171.3017139588994
 21
81.59821183303657
 31
0.0
  0
LINE
  5
DC
330
1F
100
AcDbEntity
  8
0
100
AcDbLine
 10
-176.8628615484794
 20
83.28516751138663
 30
0.0
 11
-176.856360297358
 21
83.48376018910629
 31
0.0
  0
LINE
  5
DD
330
1F
100
AcDbEntity
  8
0
100
AcDbLine
 10
-172.4834384779508
 20
86.00846777868618
 30
0.0
 11
-172.3082015484793
 21
85.91480168845405
 31
0.0
  0
LINE
  5
DE
330
1F
100
AcDbEntity
  8
0
100
AcDbLine
 10
-179.481794991172
 20
-16.13146398730217
 30
0.0
 11
-179.4366751503216
 21
-16.32497243123079
 31
0.0
  0
LINE
  5
DF
330
1F
100
AcDbEntity
  8
0
100
AcDbLine
 10
-176.1093380135009
 20
85.28723151818907
 30
0.0
 11
-175.9735088631454
 21
85.43225482605294
 31
0.0
  0
LINE
  5
E0
330
1F
100
AcDbEntity
  8
0
100
AcDbLine
 10
-173.0405330471683
 20
80.35219169540963
 30
0.0
 11
-173.2340414910967
 21
80.30707185455908
 31
0.0
  0
LINE
  5
E1
330
1F
100
AcDbEntity
  8
0
100
AcDbLine
 10
-176.856360297358
 20
83.48376018910629
 30
0.0
 11
-176.8368843833493
 21
83.68150246249124
 31
0.0
  0
LINE
  5
E2
330
1F
100
AcDbEntity
  8
0
100
AcDbLine
 10
-185.1380710744488
 20
-15.57436941808469
 30
0.0
 11
-185.0444049842164
 21
-15.39913248861337
 31
0.0
  0
LINE
  5
E3
330
1F
100
AcDbEntity
  8
0
100
AcDbLine
 10
-179.3848320582705
 20
-16.71875981089383
 30
0.0
 11
-179.3783308071491
 21
-16.91735248861335
 31
0.0
  0
LINE
  5
E4
330
1F
100
AcDbEntity
  8
0
100
AcDbLine
 10
-176.856360297358
 20
83.08657483366713
 30
0.0
 11
-176.8628615484794
 21
83.28516751138663
 31
0.0
  0
LINE
  5
E5
330
1F
100
AcDbEntity
  8
0
100
AcDbLine
 10
-180.56630325365
 20
-14.50838267201935
 30
0.0
 11
-180.4127068003467
 21
-14.63443602359189
 31
0.0
  0
LINE
  5
E6
330
1F
100
AcDbEntity
  8
0
100
AcDbLine
 10
-173.0405330471683
 20
86.21814332736396
 30
0.0
 11
-172.8503898984542
 21
86.16046403379082
 31
0.0
  0
LINE
  5
E7
330
1F
100
AcDbEntity
  8
0
100
AcDbLine
 10
-170.7964827996007
 20
83.08657483366713
 30
0.0
 11
-170.8159587136094
 21
82.88883256028203
 31
0.0
  0
LINE
  5
E8
330
1F
100
AcDbEntity
  8
0
100
AcDbLine
 10
-83.08299120938854
 20
-5.658296592753205
 30
0.0
 11
-83.08094347829089
 21
-5.618609573291637
 31
0.0
  0
LINE
  5
E9
330
1F
100
AcDbEntity
  8
0
100
AcDbLine
 10
-173.2340414910967
 20
86.26326316821418
 30
0.0
 11
-173.0405330471683
 21
86.21814332736396
 31
0.0
  0
LINE
  5
EA
330
1F
100
AcDbEntity
  8
0
100
AcDbLine
 10
-179.6094660394506
 20
-15.75535720724264
 30
0.0
 11
-179.5394742847451
 21
-15.94132083858823
 31
0.0
  0
LINE
  5
EB
330
1F
100
AcDbEntity
  8
0
100
AcDbLine
 10
-173.4300865973747
 20
80.27470467651669
 30
0.0
 11
-173.6278288707598
 21
80.25522876250808
 31
0.0
  0
LINE
  5
EC
330
1F
100
AcDbEntity
  8
0
100
AcDbLine
 10
-183.7577538776778
 20
-14.19405222131379
 30
0.0
 11
-183.5767660885198
 21
-14.11204772091474
 31
0.0
  0
LINE
  5
ED
330
1F
100
AcDbEntity
  8
0
100
AcDbLine
 10
-183.5767660885198
 20
-14.11204772091474
 30
0.0
 11
-183.3908024571743
 21
-14.04205596620899
 31
0.0
  0
LINE
  5
EE
330
1F
100
AcDbEntity
  8
0
100
AcDbLine
 10
-173.6278288707598
 20
86.31510626026534
 30
0.0
 11
-173.4300865973747
 21
86.29563034625656
 31
0.0
  0
LINE
  5
EF
330
1F
100
AcDbEntity
  8
0
100
AcDbLine
 10
-176.7593973644566
 20
82.49927901007561
 30
0.0
 11
-176.804517205307
 21
82.69278745400406
 31
0.0
  0
LINE
  5
F0
330
1F
100
AcDbEntity
  8
0
100
AcDbLine
 10
-173.6278288707598
 20
80.25522876250808
 30
0.0
 11
-173.8264215484794
 21
80.24872751138682
 31
0.0
  0
LINE
  5
F1
330
1F
100
AcDbEntity
  8
0
100
AcDbLine
 10
-171.8243575416769
 20
81.00225104636517
 30
0.0
 11
-171.9779539949801
 21
80.87619769479278
 31
0.0
  0
LINE
  5
F2
330
1F
100
AcDbEntity
  8
0
100
AcDbLine
 10
-175.8284855552819
 20
85.56808397640809
 30
0.0
 11
-175.6748891019787
 21
85.69413732798064
 31
0.0
  0
LINE
  5
F3
330
1F
100
AcDbEntity
  8
0
100
AcDbLine
 10
-176.7017180708835
 20
82.30913586136168
 30
0.0
 11
-176.7593973644566
 21
82.49927901007561
 31
0.0
  0
LINE
  5
F4
330
1F
100
AcDbEntity
  8
0
100
AcDbLine
 10
-183.3908024571743
 20
-14.04205596620899
 30
0.0
 11
-183.2006593084603
 21
-13.98437667263618
 31
0.0
  0
LINE
  5
F5
330
1F
100
AcDbEntity
  8
0
100
AcDbLine
 10
-175.8284855552819
 20
81.00225104636517
 30
0.0
 11
-175.9735088631454
 21
81.13808019672064
 31
0.0
  0
LINE
  5
F6
330
1F
100
AcDbEntity
  8
0
100
AcDbLine
 10
-182.2161781294296
 20
-13.88741373973462
 30
0.0
 11
-182.0184358560445
 21
-13.90688965374342
 31
0.0
  0
LINE
  5
F7
330
1F
100
AcDbEntity
  8
0
100
AcDbLine
 10
-172.8503898984542
 20
86.16046403379082
 30
0.0
 11
-172.6644262671087
 21
86.09047227908523
 31
0.0
  0
LINE
  5
F8
330
1F
100
AcDbEntity
  8
0
100
AcDbLine
 10
-180.0058009905553
 20
-15.06888493511413
 30
0.0
 11
-179.8900632175692
 21
-15.23039681026312
 31
0.0
  0
LINE
  5
F9
330
1F
100
AcDbEntity
  8
0
100
AcDbLine
 10
-176.3511291380593
 20
81.59821183303657
 30
0.0
 11
-176.4560557255466
 21
81.76694751138665
 31
0.0
  0
LINE
  5
FA
330
1F
100
AcDbEntity
  8
0
100
AcDbLine
 10
-172.6644262671087
 20
86.09047227908523
 30
0.0
 11
-172.4834384779508
 21
86.00846777868618
 31
0.0
  0
LINE
  5
FB
330
1F
100
AcDbEntity
  8
0
100
AcDbLine
 10
-176.7017180708835
 20
84.2611991614119
 30
0.0
 11
-176.6317263161779
 21
84.44716279275734
 31
0.0
  0
LINE
  5
FC
330
1F
100
AcDbEntity
  8
0
100
AcDbLine
 10
-176.4560557255466
 20
81.76694751138665
 30
0.0
 11
-176.5497218157789
 21
81.9421844408583
 31
0.0
  0
LINE
  5
FD
330
1F
100
AcDbEntity
  8
0
100
AcDbLine
 10
-174.6123100497905
 20
86.21814332736396
 30
0.0
 11
-174.418801605862
 21
86.26326316821418
 31
0.0
  0
LINE
  5
FE
330
1F
100
AcDbEntity
  8
0
100
AcDbLine
 10
-172.3082015484793
 20
85.91480168845405
 30
0.0
 11
-172.1394658701294
 21
85.80987510096652
 31
0.0
  0
LINE
  5
FF
330
1F
100
AcDbEntity
  8
0
100
AcDbLine
 10
-175.1694046190079
 20
80.56186724408707
 30
0.0
 11
-175.3446415484794
 21
80.65553333431954
 31
0.0
  0
LINE
  5
100
330
1F
100
AcDbEntity
  8
0
100
AcDbLine
 10
-182.8111057582539
 20
-13.90688965374342
 30
0.0
 11
-182.6133634848688
 21
-13.88741373973462
 31
0.0
  0
LINE
  5
101
330
1F
100
AcDbEntity
  8
0
100
AcDbLine
 10
-185.0444049842164
 20
-15.39913248861337
 30
0.0
 11
-184.9394783967292
 21
-15.23039681026312
 31
0.0
  0
LINE
  5
102
330
1F
100
AcDbEntity
  8
0
100
AcDbLine
 10
-182.0184358560445
 20
-13.90688965374342
 30
0.0
 11
-181.8223907497665
 21
-13.93925683178578
 31
0.0
  0
LINE
  5
103
330
1F
100
AcDbEntity
  8
0
100
AcDbLine
 10
-176.804517205307
 20
82.69278745400406
 30
0.0
 11
-176.8368843833493
 21
82.88883256028203
 31
0.0
  0
LINE
  5
104
330
1F
100
AcDbEntity
  8
0
100
AcDbLine
 10
-174.9884168298501
 20
86.09047227908523
 30
0.0
 11
-174.8024531985046
 21
86.16046403379082
 31
0.0
  0
LINE
  5
105
330
1F
100
AcDbEntity
  8
0
100
AcDbLine
 10
-175.1694046190079
 20
86.00846777868618
 30
0.0
 11
-174.9884168298501
 21
86.09047227908523
 31
0.0
  0
LINE
  5
106
330
1F
100
AcDbEntity
  8
0
100
AcDbLine
 10
-82.92477533849156
 20
-5.260791802341441
 30
0.0
 11
-82.89706830254164
 21
-5.232303684199592
 31
0.0
  0
LINE
  5
107
330
1F
100
AcDbEntity
  8
0
100
AcDbLine
 10
-172.8503898984542
 20
80.40987098898245
 30
0.0
 11
-173.0405330471683
 21
80.35219169540963
 31
0.0
  0
LINE
  5
108
330
1F
100
AcDbEntity
  8
0
100
AcDbLine
 10
-181.2527755257785
 20
-14.11204772091474
 30
0.0
 11
-181.0717877366205
 21
-14.19405222131379
 31
0.0
  0
LINE
  5
109
330
1F
100
AcDbEntity
  8
0
100
AcDbLine
 10
-179.5394742847451
 20
-15.94132083858823
 30
0.0
 11
-179.481794991172
 21
-16.13146398730217
 31
0.0
  0
LINE
  5
10A
330
1F
100
AcDbEntity
  8
0
100
AcDbLine
 10
-176.6317263161779
 20
82.12317223001592
 30
0.0
 11
-176.7017180708835
 21
82.30913586136168
 31
0.0
  0
LINE
  5
10B
330
1F
100
AcDbEntity
  8
0
100
AcDbLine
 10
-176.2353913650733
 20
81.4366999578874
 30
0.0
 11
-176.3511291380593
 21
81.59821183303657
 31
0.0
  0
LINE
  5
10C
330
1F
100
AcDbEntity
  8
0
100
AcDbLine
 10
-173.4300865973747
 20
86.29563034625656
 30
0.0
 11
-173.2340414910967
 21
86.26326316821418
 31
0.0
  0
LINE
  5
10D
330
1F
100
AcDbEntity
  8
0
100
AcDbLine
 10
-171.4174517318854
 20
81.4366999578874
 30
0.0
 11
-171.5435050834578
 21
81.28310350458418
 31
0.0
  0
LINE
  5
10E
330
1F
100
AcDbEntity
  8
0
100
AcDbLine
 10
-172.6644262671087
 20
80.47986274368802
 30
0.0
 11
-172.8503898984542
 21
80.40987098898245
 31
0.0
  0
LINE
  5
10F
330
1F
100
AcDbEntity
  8
0
100
AcDbLine
 10
-184.8237406237431
 20
-15.06888493511413
 30
0.0
 11
-184.6976872721707
 21
-14.9152884818109
 31
0.0
  0
LINE
  5
110
330
1F
100
AcDbEntity
  8
0
100
AcDbLine
 10
-176.4560557255466
 20
84.80338751138662
 30
0.0
 11
-176.3511291380593
 21
84.97212318973668
 31
0.0
  0
LINE
  5
111
330
1F
100
AcDbEntity
  8
0
100
AcDbLine
 10
-189.1625935205494
 20
-27.01618284693307
 30
0.0
 11
-189.8086410211462
 21
-26.55323175498901
 31
0.0
  0
LINE
  5
112
330
1F
100
AcDbEntity
  8
0
100
AcDbLine
 10
-194.4566221466288
 20
-18.50269229303193
 30
0.0
 11
-194.5345258026637
 21
-17.71172319949168
 31
0.0
  0
LINE
  5
113
330
1F
100
AcDbEntity
  8
0
100
AcDbLine
 10
-81.69672891388579
 20
-11.50878963658541
 30
0.0
 11
-81.7318109219586
 21
-11.52919545187828
 31
0.0
  0
LINE
  5
114
330
1F
100
AcDbEntity
  8
0
100
AcDbLine
 10
-81.80566636322905
 20
-11.56276024891213
 30
0.0
 11
-81.8441099400971
 21
-11.57576932212202
 31
0.0
  0
LINE
  5
115
330
1F
100
AcDbEntity
  8
0
100
AcDbLine
 10
-191.0031200658135
 20
-25.50570174727761
 30
0.0
 11
-191.5464366672351
 21
-24.92560851582313
 31
0.0
  0
LINE
  5
116
330
1F
100
AcDbEntity
  8
0
100
AcDbLine
 10
-174.0250142261989
 20
86.31510626026534
 30
0.0
 11
-173.8264215484794
 21
86.32160751138676
 31
0.0
  0
LINE
  5
117
330
1F
100
AcDbEntity
  8
0
100
AcDbLine
 10
-176.6317263161779
 20
84.44716279275734
 30
0.0
 11
-176.5497218157789
 21
84.62815058191545
 31
0.0
  0
LINE
  5
118
330
1F
100
AcDbEntity
  8
0
100
AcDbLine
 10
-192.0506500735249
 20
-24.31122270261024
 30
0.0
 11
-192.513601165469
 21
-23.66517520201358
 31
0.0
  0
LINE
  5
119
330
1F
100
AcDbEntity
  8
0
100
AcDbLine
 10
-82.83636893340888
 20
-5.181060783716514
 30
0.0
 11
-82.80363652424364
 21
-5.158525431342198
 31
0.0
  0
LINE
  5
11A
330
1F
100
AcDbEntity
  8
0
100
AcDbLine
 10
-82.26981345579318
 20
-5.098446349904469
 30
0.0
 11
-82.23289084290411
 21
-5.113142382493012
 31
0.0
  0
LINE
  5
11B
330
1F
100
AcDbEntity
  8
0
100
AcDbLine
 10
-81.91047432984396
 20
-5.447933179162385
 30
0.0
 11
-81.89717862186514
 21
-5.485382836914365
 31
0.0
  0
LINE
  5
11C
330
1F
100
AcDbEntity
  8
0
100
AcDbLine
 10
-82.1289738315338
 20
-5.171228375111383
 30
0.0
 11
-82.09711293929173
 21
-5.194979927943324
 31
0.0
  0
LINE
  5
11D
330
1F
100
AcDbEntity
  8
0
100
AcDbLine
 10
-174.9884168298501
 20
80.47986274368802
 30
0.0
 11
-175.1694046190079
 21
80.56186724408707
 31
0.0
  0
LINE
  5
11E
330
1F
100
AcDbEntity
  8
0
100
AcDbLine
 10
-176.1093380135009
 20
81.28310350458418
 30
0.0
 11
-176.2353913650733
 21
81.4366999578874
 31
0.0
  0
LINE
  5
11F
330
1F
100
AcDbEntity
  8
0
100
AcDbLine
 10
-82.80363652424364
 20
-5.158525431342198
 30
0.0
 11
-82.76950031511527
 21
-5.138179130873804
 31
0.0
  0
LINE
  5
120
330
1F
100
AcDbEntity
  8
0
100
AcDbLine
 10
-176.804517205307
 20
83.87754756876936
 30
0.0
 11
-176.7593973644566
 21
84.07105601269781
 31
0.0
  0
LINE
  5
121
330
1F
100
AcDbEntity
  8
0
100
AcDbLine
 10
-171.0211167807807
 20
84.44716279275734
 30
0.0
 11
-170.9511250260753
 21
84.2611991614119
 31
0.0
  0
LINE
  5
122
330
1F
100
AcDbEntity
  8
0
100
AcDbLine
 10
-81.9871426709199
 20
-5.309170834012895
 30
0.0
 11
-81.9646073185455
 21
-5.341903243178211
 31
0.0
  0
LINE
  5
123
330
1F
100
AcDbEntity
  8
0
100
AcDbLine
 10
-176.3511291380593
 20
84.97212318973668
 30
0.0
 11
-176.2353913650734
 21
85.13363506488585
 31
0.0
  0
LINE
  5
124
330
1F
100
AcDbEntity
  8
0
100
AcDbLine
 10
-174.418801605862
 20
86.26326316821418
 30
0.0
 11
-174.2227564995841
 21
86.29563034625656
 31
0.0
  0
LINE
  5
125
330
1F
100
AcDbEntity
  8
0
100
AcDbLine
 10
-193.6359898779435
 20
-21.56533361409601
 30
0.0
 11
-193.9159568967657
 21
-20.82147908871395
 31
0.0
  0
LINE
  5
126
330
1F
100
AcDbEntity
  8
0
100
AcDbLine
 10
-82.66015693050733
 20
-5.091096734661916
 30
0.0
 11
-82.6219178744401
 21
-5.080278818620006
 31
0.0
  0
LINE
  5
127
330
1F
100
AcDbEntity
  8
0
100
AcDbLine
 10
-174.0250142261989
 20
80.25522876250808
 30
0.0
 11
-174.2227564995841
 21
80.27470467651669
 31
0.0
  0
LINE
  5
128
330
1F
100
AcDbEntity
  8
0
100
AcDbLine
 10
-176.2353913650734
 20
85.13363506488585
 30
0.0
 11
-176.1093380135009
 21
85.28723151818907
 31
0.0
  0
LINE
  5
129
330
1F
100
AcDbEntity
  8
0
100
AcDbLine
 10
-174.418801605862
 20
80.30707185455908
 30
0.0
 11
-174.6123100497905
 21
80.35219169540963
 31
0.0
  0
LINE
  5
12A
330
1F
100
AcDbEntity
  8
0
100
AcDbLine
 10
-175.3446415484794
 20
80.65553333431954
 30
0.0
 11
-175.5133772268294
 21
80.76045992180674
 31
0.0
  0
LINE
  5
12B
330
1F
100
AcDbEntity
  8
0
100
AcDbLine
 10
-186.3188974072497
 20
-28.41853857822994
 30
0.0
 11
-187.0627519326318
 21
-28.13857155940761
 31
0.0
  0
LINE
  5
12C
330
1F
100
AcDbEntity
  8
0
100
AcDbLine
 10
-174.2227564995841
 20
80.27470467651669
 30
0.0
 11
-174.418801605862
 21
80.30707185455908
 31
0.0
  0
LINE
  5
12D
330
1F
100
AcDbEntity
  8
0
100
AcDbLine
 10
-82.01177057536152
 20
-5.277982390011737
 30
0.0
 11
-81.9871426709199
 21
-5.309170834012895
 31
0.0
  0
LINE
  5
12E
330
1F
100
AcDbEntity
  8
0
100
AcDbLine
 10
-173.8264215484794
 20
86.32160751138676
 30
0.0
 11
-173.6278288707598
 21
86.31510626026534
 31
0.0
  0
LINE
  5
12F
330
1F
100
AcDbEntity
  8
0
100
AcDbLine
 10
-176.5497218157789
 20
81.9421844408583
 30
0.0
 11
-176.6317263161779
 21
82.12317223001592
 31
0.0
  0
LINE
  5
130
330
1F
100
AcDbEntity
  8
0
100
AcDbLine
 10
-192.9333075154181
 20
-22.99023248861344
 30
0.0
 11
-193.3079718763473
 21
-22.28928477072767
 31
0.0
  0
LINE
  5
131
330
1F
100
AcDbEntity
  8
0
100
AcDbLine
 10
-194.5345258026637
 20
-17.71172319949168
 30
0.0
 11
-194.5605308071492
 21
-16.91735248861335
 31
0.0
  0
LINE
  5
132
330
1F
100
AcDbEntity
  8
0
100
AcDbLine
 10
-82.06687368954466
 20
-5.220764428930218
 30
0.0
 11
-82.0383855714029
 21
-5.248471464880218
 31
0.0
  0
LINE
  5
133
330
1F
100
AcDbEntity
  8
0
100
AcDbLine
 10
-192.513601165469
 20
-23.66517520201358
 30
0.0
 11
-192.9333075154181
 21
-22.99023248861344
 31
0.0
  0
LINE
  5
134
330
1F
100
AcDbEntity
  8
0
100
AcDbLine
 10
-183.2091415180275
 20
-29.03710748412789
 30
0.0
 11
-184.0001106115678
 21
-28.9592038280929
 31
0.0
  0
LINE
  5
135
330
1F
100
AcDbEntity
  8
0
100
AcDbLine
 10
-81.9646073185455
 20
-5.341903243178211
 30
0.0
 11
-81.94426101807719
 21
-5.376039452306368
 31
0.0
  0
LINE
  5
136
330
1F
100
AcDbEntity
  8
0
100
AcDbLine
 10
-174.8024531985046
 20
86.16046403379082
 30
0.0
 11
-174.6123100497905
 21
86.21814332736396
 31
0.0
  0
LINE
  5
137
330
1F
100
AcDbEntity
  8
0
100
AcDbLine
 10
-187.7867030892636
 20
-27.81055355781139
 30
0.0
 11
-188.4876508071492
 21
-27.43588919688234
 31
0.0
  0
LINE
  5
138
330
1F
100
AcDbEntity
  8
0
100
AcDbLine
 10
-194.3271534344596
 20
-19.28687271814394
 30
0.0
 11
-194.4566221466288
 21
-18.50269229303193
 31
0.0
  0
LINE
  5
139
330
1F
100
AcDbEntity
  8
0
100
AcDbLine
 10
-81.7318109219586
 20
-11.52919545187828
 30
0.0
 11
-81.7681775457964
 21
-11.5472124787923
 31
0.0
  0
LINE
  5
13A
330
1F
100
AcDbEntity
  8
0
100
AcDbLine
 10
-181.6288823058381
 20
-19.8503283045905
 30
0.0
 11
-181.8223907497665
 21
-19.89544814544091
 31
0.0
  0
LINE
  5
13B
330
1F
100
AcDbEntity
  8
0
100
AcDbLine
 10
-185.2200755748477
 20
-18.07934776998404
 30
0.0
 11
-185.2900673295533
 21
-17.89338413863845
 31
0.0
  0
LINE
  5
13C
330
1F
100
AcDbEntity
  8
0
100
AcDbLine
 10
-81.41320488588421
 20
-10.95857541655325
 30
0.0
 11
-81.41216978063557
 21
-10.99914724351897
 31
0.0
  0
LINE
  5
13D
330
1F
100
AcDbEntity
  8
0
100
AcDbLine
 10
-81.499392748885
 20
-11.30795072498227
 30
0.0
 11
-81.5215008727018
 21
-11.34198564013559
 31
0.0
  0
LINE
  5
13E
330
1F
100
AcDbEntity
  8
0
100
AcDbLine
 10
-176.7593973644566
 20
84.07105601269781
 30
0.0
 11
-176.7017180708835
 21
84.2611991614119
 31
0.0
  0
LINE
  5
13F
330
1F
100
AcDbEntity
  8
0
100
AcDbLine
 10
-174.8024531985046
 20
80.40987098898245
 30
0.0
 11
-174.9884168298501
 21
80.47986274368802
 31
0.0
  0
LINE
  5
140
330
1F
100
AcDbEntity
  8
0
100
AcDbLine
 10
-185.4447095560278
 20
-17.11594516633286
 30
0.0
 11
-185.4512108071492
 21
-16.91735248861335
 31
0.0
  0
LINE
  5
141
330
1F
100
AcDbEntity
  8
0
100
AcDbLine
 10
-81.60072457486798
 20
-11.43420169014545
 30
0.0
 11
-81.63103904689429
 21
-11.46118645202984
 31
0.0
  0
LINE
  5
142
330
1F
100
AcDbEntity
  8
0
100
AcDbLine
 10
-170.8483258916517
 20
83.87754756876936
 30
0.0
 11
-170.8159587136094
 21
83.68150246249124
 31
0.0
  0
LINE
  5
143
330
1F
100
AcDbEntity
  8
0
100
AcDbLine
 10
-184.4168348139517
 20
-19.20026895363479
 30
0.0
 11
-184.5618581218152
 21
-19.06443980327932
 31
0.0
  0
LINE
  5
144
330
1F
100
AcDbEntity
  8
0
100
AcDbLine
 10
-184.2632383606484
 20
-19.32632230520718
 30
0.0
 11
-184.4168348139517
 21
-19.20026895363479
 31
0.0
  0
LINE
  5
145
330
1F
100
AcDbEntity
  8
0
100
AcDbLine
 10
-180.0058009905553
 20
-18.76582004211256
 30
0.0
 11
-180.1318543421276
 21
-18.91941649541579
 31
0.0
  0
LINE
  5
146
330
1F
100
AcDbEntity
  8
0
100
AcDbLine
 10
-181.8223907497665
 20
-19.89544814544091
 30
0.0
 11
-182.0184358560446
 21
-19.92781532348327
 31
0.0
  0
LINE
  5
147
330
1F
100
AcDbEntity
  8
0
100
AcDbLine
 10
-174.6123100497905
 20
80.35219169540963
 30
0.0
 11
-174.8024531985046
 21
80.40987098898245
 31
0.0
  0
LINE
  5
148
330
1F
100
AcDbEntity
  8
0
100
AcDbLine
 10
-180.2676834924831
 20
-19.06443980327932
 30
0.0
 11
-180.4127068003467
 21
-19.20026895363479
 31
0.0
  0
LINE
  5
149
330
1F
100
AcDbEntity
  8
0
100
AcDbLine
 10
-179.8900632175692
 20
-18.60430816696341
 30
0.0
 11
-180.0058009905553
 21
-18.76582004211256
 31
0.0
  0
LINE
  5
14A
330
1F
100
AcDbEntity
  8
0
100
AcDbLine
 10
-184.8237406237431
 20
-18.76582004211256
 30
0.0
 11
-184.9394783967292
 21
-18.60430816696341
 31
0.0
  0
LINE
  5
14B
330
1F
100
AcDbEntity
  8
0
100
AcDbLine
 10
-185.3928664639768
 20
-16.32497243123061
 30
0.0
 11
-185.3477466231264
 21
-16.13146398730217
 31
0.0
  0
LINE
  5
14C
330
1F
100
AcDbEntity
  8
0
100
AcDbLine
 10
-182.4147708071492
 20
-19.9537924886133
 30
0.0
 11
-182.6133634848688
 21
-19.94729123749191
 31
0.0
  0
LINE
  5
14D
330
1F
100
AcDbEntity
  8
0
100
AcDbLine
 10
-185.3477466231264
 20
-16.13146398730217
 30
0.0
 11
-185.2900673295533
 21
-15.94132083858823
 31
0.0
  0
LINE
  5
14E
330
1F
100
AcDbEntity
  8
0
100
AcDbLine
 10
-185.2900673295533
 20
-17.89338413863845
 30
0.0
 11
-185.3477466231264
 21
-17.70324098992435
 31
0.0
  0
LINE
  5
14F
330
1F
100
AcDbEntity
  8
0
100
AcDbLine
 10
-171.9779539949801
 20
85.69413732798064
 30
0.0
 11
-171.8243575416768
 21
85.56808397640809
 31
0.0
  0
LINE
  5
150
330
1F
100
AcDbEntity
  8
0
100
AcDbLine
 10
-179.3848320582705
 20
-17.11594516633286
 30
0.0
 11
-179.4043079722793
 21
-17.31368743971794
 31
0.0
  0
LINE
  5
151
330
1F
100
AcDbEntity
  8
0
100
AcDbLine
 10
-185.2900673295533
 20
-15.94132083858823
 30
0.0
 11
-185.2200755748477
 21
-15.75535720724264
 31
0.0
  0
LINE
  5
152
330
1F
100
AcDbEntity
  8
0
100
AcDbLine
 10
-81.42529568771178
 20
-11.12001041172069
 30
0.0
 11
-81.43501625075027
 21
-11.15941415827337
 31
0.0
  0
LINE
  5
153
330
1F
100
AcDbEntity
  8
0
100
AcDbLine
 10
-183.0071508645318
 20
-19.89544814544091
 30
0.0
 11
-183.2006593084603
 21
-19.8503283045905
 31
0.0
  0
LINE
  5
154
330
1F
100
AcDbEntity
  8
0
100
AcDbLine
 10
-172.1394658701294
 20
85.80987510096652
 30
0.0
 11
-171.9779539949801
 21
85.69413732798064
 31
0.0
  0
LINE
  5
155
330
1F
100
AcDbEntity
  8
0
100
AcDbLine
 10
-180.7278151287991
 20
-19.44206007819323
 30
0.0
 11
-180.8965508071491
 21
-19.5469866656806
 31
0.0
  0
LINE
  5
156
330
1F
100
AcDbEntity
  8
0
100
AcDbLine
 10
-185.4252336420191
 20
-17.31368743971794
 30
0.0
 11
-185.4447095560278
 21
-17.11594516633286
 31
0.0
  0
LINE
  5
157
330
1F
100
AcDbEntity
  8
0
100
AcDbLine
 10
-81.41822871188201
 20
-11.08004539650979
 30
0.0
 11
-81.42529568771178
 21
-11.12001041172069
 31
0.0
  0
LINE
  5
158
330
1F
100
AcDbEntity
  8
0
100
AcDbLine
 10
-179.3783308071491
 20
-16.91735248861335
 30
0.0
 11
-179.3848320582705
 21
-17.11594516633286
 31
0.0
  0
LINE
  5
159
330
1F
100
AcDbEntity
  8
0
100
AcDbLine
 10
-171.1967873714121
 20
84.80338751138662
 30
0.0
 11
-171.1031212811798
 21
84.62815058191545
 31
0.0
  0
LINE
  5
15A
330
1F
100
AcDbEntity
  8
0
100
AcDbLine
 10
-81.7681775457964
 20
-11.5472124787923
 30
0.0
 11
-81.80566636322905
 21
-11.56276024891213
 31
0.0
  0
LINE
  5
15B
330
1F
100
AcDbEntity
  8
0
100
AcDbLine
 10
-170.8159587136094
 20
83.68150246249124
 30
0.0
 11
-170.7964827996007
 21
83.48376018910614
 31
0.0
  0
LINE
  5
15C
330
1F
100
AcDbEntity
  8
0
100
AcDbLine
 10
-181.0717877366205
 20
-19.64065275591289
 30
0.0
 11
-181.2527755257786
 21
-19.72265725631195
 31
0.0
  0
LINE
  5
15D
330
1F
100
AcDbEntity
  8
0
100
AcDbLine
 10
-180.4127068003467
 20
-19.20026895363479
 30
0.0
 11
-180.56630325365
 21
-19.32632230520718
 31
0.0
  0
LINE
  5
15E
330
1F
100
AcDbEntity
  8
0
100
AcDbLine
 10
-182.2161781294296
 20
-19.94729123749191
 30
0.0
 11
-182.4147708071492
 21
-19.9537924886133
 31
0.0
  0
LINE
  5
15F
330
1F
100
AcDbEntity
  8
0
100
AcDbLine
 10
-185.3477466231264
 20
-17.70324098992435
 30
0.0
 11
-185.3928664639768
 21
-17.50973254599592
 31
0.0
  0
LINE
  5
160
330
1F
100
AcDbEntity
  8
0
100
AcDbLine
 10
-182.4147708071492
 20
-29.06311248861337
 30
0.0
 11
-70.0664908071492
 21
-29.06311248861337
 31
0.0
  0
LINE
  5
161
330
1F
100
AcDbEntity
  8
0
100
AcDbLine
 10
-180.56630325365
 20
-19.32632230520718
 30
0.0
 11
-180.7278151287991
 21
-19.44206007819323
 31
0.0
  0
LINE
  5
162
330
1F
100
AcDbEntity
  8
0
100
AcDbLine
 10
-175.6748891019787
 20
80.87619769479278
 30
0.0
 11
-175.8284855552819
 21
81.00225104636517
 31
0.0
  0
LINE
  5
163
330
1F
100
AcDbEntity
  8
0
100
AcDbLine
 10
-185.3928664639768
 20
-17.50973254599592
 30
0.0
 11
-185.4252336420191
 21
-17.31368743971794
 31
0.0
  0
LINE
  5
164
330
1F
100
AcDbEntity
  8
0
100
AcDbLine
 10
-81.63103904689429
 20
-11.46118645202984
 30
0.0
 11
-81.66308820634218
 21
-11.4860861702385
 31
0.0
  0
LINE
  5
165
330
1F
100
AcDbEntity
  8
0
100
AcDbLine
 10
-175.9735088631454
 20
81.13808019672064
 30
0.0
 11
-176.1093380135009
 21
81.28310350458418
 31
0.0
  0
LINE
  5
166
330
1F
100
AcDbEntity
  8
0
100
AcDbLine
 10
-175.5133772268294
 20
80.76045992180674
 30
0.0
 11
-175.6748891019787
 21
80.87619769479278
 31
0.0
  0
LINE
  5
167
330
1F
100
AcDbEntity
  8
0
100
AcDbLine
 10
-182.6133634848688
 20
-19.94729123749191
 30
0.0
 11
-182.8111057582539
 21
-19.92781532348327
 31
0.0
  0
LINE
  5
168
330
1F
100
AcDbEntity
  8
0
100
AcDbLine
 10
-176.5497218157789
 20
84.62815058191545
 30
0.0
 11
-176.4560557255466
 21
84.80338751138662
 31
0.0
  0
LINE
  5
169
330
1F
100
AcDbEntity
  8
0
100
AcDbLine
 10
-183.3908024571743
 20
-19.79264901101754
 30
0.0
 11
-183.5767660885198
 21
-19.72265725631195
 31
0.0
  0
LINE
  5
16A
330
1F
100
AcDbEntity
  8
0
100
AcDbLine
 10
-181.4387391571241
 20
-19.79264901101754
 30
0.0
 11
-181.6288823058381
 21
-19.8503283045905
 31
0.0
  0
LINE
  5
16B
330
1F
100
AcDbEntity
  8
0
100
AcDbLine
 10
-181.2527755257786
 20
-19.72265725631195
 30
0.0
 11
-181.4387391571241
 21
-19.79264901101754
 31
0.0
  0
LINE
  5
16C
330
1F
100
AcDbEntity
  8
0
100
AcDbLine
 10
-185.4512108071492
 20
-16.91735248861335
 30
0.0
 11
-185.4447095560278
 21
-16.71875981089383
 31
0.0
  0
LINE
  5
16D
330
1F
100
AcDbEntity
  8
0
100
AcDbLine
 10
-179.4043079722793
 20
-17.31368743971794
 30
0.0
 11
-179.4366751503216
 21
-17.50973254599592
 31
0.0
  0
LINE
  5
16E
330
1F
100
AcDbEntity
  8
0
100
AcDbLine
 10
-171.1031212811798
 20
84.62815058191545
 30
0.0
 11
-171.0211167807807
 21
84.44716279275734
 31
0.0
  0
LINE
  5
16F
330
1F
100
AcDbEntity
  8
0
100
AcDbLine
 10
-82.27941879622128
 20
-11.54316652054071
 30
0.0
 11
-82.3154957096811
 21
-11.52457617618115
 31
0.0
  0
LINE
  5
170
330
1F
100
AcDbEntity
  8
0
100
AcDbLine
 10
-194.5605308071492
 20
95.43092751138666
 30
0.0
 11
-194.5605308071492
 21
-16.91735248861335
 31
0.0
  0
LINE
  5
171
330
1F
100
AcDbEntity
  8
0
100
AcDbLine
 10
-180.8965508071491
 20
-19.5469866656806
 30
0.0
 11
-181.0717877366205
 21
-19.64065275591289
 31
0.0
  0
LINE
  5
172
330
1F
100
AcDbEntity
  8
0
100
AcDbLine
 10
-182.8111057582539
 20
-19.92781532348327
 30
0.0
 11
-183.0071508645318
 21
-19.89544814544091
 31
0.0
  0
LINE
  5
173
330
1F
100
AcDbEntity
  8
0
100
AcDbLine
 10
-184.1017264854993
 20
-19.44206007819323
 30
0.0
 11
-184.2632383606484
 21
-19.32632230520718
 31
0.0
  0
LINE
  5
174
330
1F
100
AcDbEntity
  8
0
100
AcDbLine
 10
-170.8934457325022
 20
84.07105601269781
 30
0.0
 11
-170.8483258916517
 21
83.87754756876936
 31
0.0
  0
LINE
  5
175
330
1F
100
AcDbEntity
  8
0
100
AcDbLine
 10
-81.92317108141272
 20
-11.59395056902793
 30
0.0
 11
-81.96343553961064
 21
-11.59904154086209
 31
0.0
  0
LINE
  5
176
330
1F
100
AcDbEntity
  8
0
100
AcDbLine
 10
-171.4174517318854
 20
85.13363506488585
 30
0.0
 11
-171.3017139588994
 21
84.97212318973668
 31
0.0
  0
LINE
  5
177
330
1F
100
AcDbEntity
  8
0
100
AcDbLine
 10
-183.9329908071492
 20
-19.5469866656806
 30
0.0
 11
-184.1017264854993
 21
-19.44206007819323
 31
0.0
  0
LINE
  5
178
330
1F
100
AcDbEntity
  8
0
100
AcDbLine
 10
-184.6976872721707
 20
-18.91941649541579
 30
0.0
 11
-184.8237406237431
 21
-18.76582004211256
 31
0.0
  0
LINE
  5
179
330
1F
100
AcDbEntity
  8
0
100
AcDbLine
 10
-81.88333657805428
 20
-11.58618159674251
 30
0.0
 11
-81.92317108141272
 21
-11.59395056902793
 31
0.0
  0
LINE
  5
17A
330
1F
100
AcDbEntity
  8
0
100
AcDbLine
 10
-83.0792889178199
 20
-5.737647341324767
 30
0.0
 11
-83.08243890087402
 21
-5.698032567281464
 31
0.0
  0
LINE
  5
17B
330
1F
100
AcDbEntity
  8
0
100
AcDbLine
 10
-81.47960727681439
 20
-11.2725151541087
 30
0.0
 11
-81.499392748885
 21
-11.30795072498227
 31
0.0
  0
LINE
  5
17C
330
1F
100
AcDbEntity
  8
0
100
AcDbLine
 10
-82.49900155759106
 20
-11.36692452401214
 30
0.0
 11
-82.52281644896789
 21
-11.33406123846583
 31
0.0
  0
LINE
  5
17D
330
1F
100
AcDbEntity
  8
0
100
AcDbLine
 10
-81.66308820634218
 20
-11.4860861702385
 30
0.0
 11
-81.69672891388579
 21
-11.50878963658541
 31
0.0
  0
LINE
  5
17E
330
1F
100
AcDbEntity
  8
0
100
AcDbLine
 10
-185.4252336420191
 20
-16.52101753750874
 30
0.0
 11
-185.3928664639768
 21
-16.32497243123061
 31
0.0
  0
LINE
  5
17F
330
1F
100
AcDbEntity
  8
0
100
AcDbLine
 10
-82.35025036095233
 20
-11.50361767425004
 30
0.0
 11
-82.38352752732547
 21
-11.48038462050405
 31
0.0
  0
LINE
  5
180
330
1F
100
AcDbEntity
  8
0
100
AcDbLine
 10
-184.9394783967292
 20
-18.60430816696341
 30
0.0
 11
-185.0444049842164
 21
-18.43557248861334
 31
0.0
  0
LINE
  5
181
330
1F
100
AcDbEntity
  8
0
100
AcDbLine
 10
-81.57228018205466
 20
-11.40525240508236
 30
0.0
 11
-81.60072457486798
 21
-11.43420169014545
 31
0.0
  0
LINE
  5
182
330
1F
100
AcDbEntity
  8
0
100
AcDbLine
 10
-171.8243575416768
 20
85.56808397640809
 30
0.0
 11
-171.6793342338133
 21
85.43225482605294
 31
0.0
  0
LINE
  5
183
330
1F
100
AcDbEntity
  8
0
100
AcDbLine
 10
-81.44734698660328
 20
-11.1980806494709
 30
0.0
 11
-81.4622328232113
 21
-11.23583719137633
 31
0.0
  0
LINE
  5
184
330
1F
100
AcDbEntity
  8
0
100
AcDbLine
 10
-183.5767660885198
 20
-19.72265725631195
 30
0.0
 11
-183.7577538776778
 21
-19.64065275591289
 31
0.0
  0
LINE
  5
185
330
1F
100
AcDbEntity
  8
0
100
AcDbLine
 10
-179.6914705398496
 20
-18.26033555914184
 30
0.0
 11
-179.785136630082
 21
-18.43557248861334
 31
0.0
  0
LINE
  5
186
330
1F
100
AcDbEntity
  8
0
100
AcDbLine
 10
-82.52281644896789
 20
-11.33406123846583
 30
0.0
 11
-82.54438313340647
 21
-11.29968068130755
 31
0.0
  0
LINE
  5
187
330
1F
100
AcDbEntity
  8
0
100
AcDbLine
 10
-83.0470934175174
 20
-5.463731568589949
 30
0.0
 11
-83.0323973849287
 21
-5.426808955700802
 31
0.0
  0
LINE
  5
188
330
1F
100
AcDbEntity
  8
0
100
AcDbLine
 10
-83.07630447628017
 20
-5.579141454806519
 30
0.0
 11
-83.06909406827516
 21
-5.540061245840971
 31
0.0
  0
LINE
  5
189
330
1F
100
AcDbEntity
  8
0
100
AcDbLine
 10
-83.0792889178199
 20
-5.737647341324767
 30
0.0
 11
-82.62567264197996
 21
-11.03010722892948
 31
0.0
  0
LINE
  5
18A
330
1F
100
AcDbEntity
  8
0
100
AcDbLine
 10
-82.0445338800318
 20
-11.60111059526338
 30
0.0
 11
-82.08500555737976
 21
-11.59807943693136
 31
0.0
  0
LINE
  5
18B
330
1F
100
AcDbEntity
  8
0
100
AcDbLine
 10
-182.0184358560446
 20
-19.92781532348327
 30
0.0
 11
-182.2161781294296
 21
-19.94729123749191
 31
0.0
  0
LINE
  5
18C
330
1F
100
AcDbEntity
  8
0
100
AcDbLine
 10
-170.7964827996007
 20
83.48376018910614
 30
0.0
 11
-170.7899815484794
 21
83.28516751138663
 31
0.0
  0
LINE
  5
18D
330
1F
100
AcDbEntity
  8
0
100
AcDbLine
 10
-83.06909406827516
 20
-5.540061245840971
 30
0.0
 11
-83.0593431303498
 21
-5.501536293849073
 31
0.0
  0
LINE
  5
18E
330
1F
100
AcDbEntity
  8
0
100
AcDbLine
 10
-185.4447095560278
 20
-16.71875981089383
 30
0.0
 11
-185.4252336420191
 21
-16.52101753750874
 31
0.0
  0
LINE
  5
18F
330
1F
100
AcDbEntity
  8
0
100
AcDbLine
 10
-82.9743113923104
 20
-5.322891944330504
 30
0.0
 11
-82.95055983947846
 21
-5.291031052088343
 31
0.0
  0
LINE
  5
190
330
1F
100
AcDbEntity
  8
0
100
AcDbLine
 10
-81.41384688609075
 20
-11.03969760610024
 30
0.0
 11
-81.41822871188201
 21
-11.08004539650979
 31
0.0
  0
LINE
  5
191
330
1F
100
AcDbEntity
  8
0
100
AcDbLine
 10
-82.56360528885875
 20
-11.26393640445159
 30
0.0
 11
-82.58039706451247
 21
-11.22698805051557
 31
0.0
  0
LINE
  5
192
330
1F
100
AcDbEntity
  8
0
100
AcDbLine
 10
-83.08243890087402
 20
-5.698032567281464
 30
0.0
 11
-83.08299120938854
 21
-5.658296592753205
 31
0.0
  0
LINE
  5
193
330
1F
100
AcDbEntity
  8
0
100
AcDbLine
 10
-176.8368843833493
 20
82.88883256028203
 30
0.0
 11
-176.856360297358
 21
83.08657483366713
 31
0.0
  0
LINE
  5
194
330
1F
100
AcDbEntity
  8
0
100
AcDbLine
 10
-81.43501625075027
 20
-11.15941415827337
 30
0.0
 11
-81.44734698660328
 21
-11.1980806494709
 31
0.0
  0
LINE
  5
195
330
1F
100
AcDbEntity
  8
0
100
AcDbLine
 10
-179.785136630082
 20
-18.43557248861334
 30
0.0
 11
-179.8900632175692
 21
-18.60430816696341
 31
0.0
  0
LINE
  5
196
330
1F
100
AcDbEntity
  8
0
100
AcDbLine
 10
-185.1380710744488
 20
-18.26033555914184
 30
0.0
 11
-185.2200755748477
 21
-18.07934776998404
 31
0.0
  0
LINE
  5
197
330
1F
100
AcDbEntity
  8
0
100
AcDbLine
 10
-180.1318543421276
 20
-18.91941649541579
 30
0.0
 11
-180.2676834924831
 21
-19.06443980327932
 31
0.0
  0
LINE
  5
198
330
1F
100
AcDbEntity
  8
0
100
AcDbLine
 10
-82.54438313340647
 20
-11.29968068130755
 30
0.0
 11
-82.56360528885875
 21
-11.26393640445159
 31
0.0
  0
LINE
  5
199
330
1F
100
AcDbEntity
  8
0
100
AcDbLine
 10
-179.4366751503216
 20
-17.50973254599592
 30
0.0
 11
-179.481794991172
 21
-17.70324098992435
 31
0.0
  0
LINE
  5
19A
330
1F
100
AcDbEntity
  8
0
100
AcDbLine
 10
-183.7577538776778
 20
-19.64065275591289
 30
0.0
 11
-183.9329908071492
 21
-19.5469866656806
 31
0.0
  0
LINE
  5
19B
330
1F
100
AcDbEntity
  8
0
100
AcDbLine
 10
-82.61549638427852
 20
-11.11059117505775
 30
0.0
 11
-82.62192994907413
 21
-11.07051931670049
 31
0.0
  0
LINE
  5
19C
330
1F
100
AcDbEntity
  8
0
100
AcDbLine
 10
-81.54583290801719
 20
-11.37446789137518
 30
0.0
 11
-81.57228018205466
 21
-11.40525240508236
 31
0.0
  0
LINE
  5
19D
330
1F
100
AcDbEntity
  8
0
100
AcDbLine
 10
-183.2006593084603
 20
-19.8503283045905
 30
0.0
 11
-183.3908024571743
 21
-19.79264901101754
 31
0.0
  0
LINE
  5
19E
330
1F
100
AcDbEntity
  8
0
100
AcDbLine
 10
-82.95055983947846
 20
-5.291031052088343
 30
0.0
 11
-82.92477533849156
 21
-5.260791802341441
 31
0.0
  0
LINE
  5
19F
330
1F
100
AcDbEntity
  8
0
100
AcDbLine
 10
-82.08500555737976
 20
-11.59807943693136
 30
0.0
 11
-82.12518439751153
 21
-11.5923518376216
 31
0.0
  0
LINE
  5
1A0
330
1F
100
AcDbEntity
  8
0
100
AcDbLine
 10
-82.58039706451247
 20
-11.22698805051557
 30
0.0
 11
-82.59468346422098
 21
-11.18900063981722
 31
0.0
  0
LINE
  5
1A1
330
1F
100
AcDbEntity
  8
0
100
AcDbLine
 10
-184.5618581218152
 20
-19.06443980327932
 30
0.0
 11
-184.6976872721707
 21
-18.91941649541579
 31
0.0
  0
LINE
  5
1A2
330
1F
100
AcDbEntity
  8
0
100
AcDbLine
 10
-179.6094660394506
 20
-18.07934776998404
 30
0.0
 11
-179.6914705398496
 21
-18.26033555914184
 31
0.0
  0
LINE
  5
1A3
330
1F
100
AcDbEntity
  8
0
100
AcDbLine
 10
-82.47304482236214
 20
-11.39812376253571
 30
0.0
 11
-82.49900155759106
 21
-11.36692452401214
 31
0.0
  0
LINE
  5
1A4
330
1F
100
AcDbEntity
  8
0
100
AcDbLine
 10
-179.481794991172
 20
-17.70324098992435
 30
0.0
 11
-179.5394742847451
 21
-17.89338413863845
 31
0.0
  0
LINE
  5
1A5
330
1F
100
AcDbEntity
  8
0
100
AcDbLine
 10
-185.0444049842164
 20
-18.43557248861334
 30
0.0
 11
-185.1380710744488
 21
-18.26033555914184
 31
0.0
  0
LINE
  5
1A6
330
1F
100
AcDbEntity
  8
0
100
AcDbLine
 10
-179.5394742847451
 20
-17.89338413863845
 30
0.0
 11
-179.6094660394506
 21
-18.07934776998404
 31
0.0
  0
LINE
  5
1A7
330
1F
100
AcDbEntity
  8
0
100
AcDbLine
 10
-83.08094347829089
 20
-5.618609573291637
 30
0.0
 11
-83.07630447628017
 21
-5.579141454806519
 31
0.0
  0
LINE
  5
1A8
330
1F
100
AcDbEntity
  8
0
100
AcDbLine
 10
-81.5215008727018
 20
-11.34198564013559
 30
0.0
 11
-81.54583290801719
 21
-11.37446789137518
 31
0.0
  0
LINE
  5
1A9
330
1F
100
AcDbEntity
  8
0
100
AcDbLine
 10
-170.9511250260753
 20
84.2611991614119
 30
0.0
 11
-170.8934457325022
 21
84.07105601269781
 31
0.0
  0
LINE
  5
1AA
330
1F
100
AcDbEntity
  8
0
100
AcDbLine
 10
-82.24218074882607
 20
-11.55930567833731
 30
0.0
 11
-82.27941879622128
 21
-11.54316652054071
 31
0.0
  0
LINE
  5
1AB
330
1F
100
AcDbEntity
  8
0
100
AcDbLine
 10
-82.44506217236159
 20
-11.42751961066323
 30
0.0
 11
-82.47304482236214
 21
-11.39812376253571
 31
0.0
  0
LINE
  5
1AC
330
1F
100
AcDbEntity
  8
0
100
AcDbLine
 10
-83.0323973849287
 20
-5.426808955700802
 30
0.0
 11
-83.01531796325168
 21
-5.390926563478899
 31
0.0
  0
LINE
  5
1AD
330
1F
100
AcDbEntity
  8
0
100
AcDbLine
 10
-50.32512165893555
 20
-11.46556215435458
 30
0.0
 11
-50.28865061677929
 21
-11.48336686362563
 31
0.0
  0
LINE
  5
1AE
330
1F
100
AcDbEntity
  8
0
100
AcDbLine
 10
-50.63401716622431
 20
-11.0581710014181
 30
0.0
 11
-50.62406705097666
 21
-11.09751740906533
 31
0.0
  0
LINE
  5
1AF
330
1F
100
AcDbEntity
  8
0
100
AcDbLine
 10
-50.28865061677929
 20
-11.48336686362563
 30
0.0
 11
-50.25107179546173
 21
-11.49869581585882
 31
0.0
  0
LINE
  5
1B0
330
1F
100
AcDbEntity
  8
0
100
AcDbLine
 10
38.57673125376275
 20
85.38694994607889
 30
0.0
 11
38.48408835789281
 21
85.21116993653658
 31
0.0
  0
LINE
  5
1B1
330
1F
100
AcDbEntity
  8
0
100
AcDbLine
 10
-50.64131701146174
 20
-11.01824786467132
 30
0.0
 11
-50.63401716622431
 21
-11.0581710014181
 31
0.0
  0
LINE
  5
1B2
330
1F
100
AcDbEntity
  8
0
100
AcDbLine
 10
39.51352607492908
 20
86.39891609321955
 30
0.0
 11
39.35269167673926
 21
86.28223869922665
 31
0.0
  0
LINE
  5
1B3
330
1F
100
AcDbEntity
  8
0
100
AcDbLine
 10
50.45834712441984
 20
-28.412216039075
 30
0.0
 11
-61.88802366926978
 21
-29.06718813411828
 31
0.0
  0
LINE
  5
1B4
330
1F
100
AcDbEntity
  8
0
100
AcDbLine
 10
38.23367319105289
 20
84.4590942634257
 30
0.0
 11
38.20244947394833
 21
84.26286379331414
 31
0.0
  0
LINE
  5
1B5
330
1F
100
AcDbEntity
  8
0
100
AcDbLine
 10
-50.55882570294585
 20
-11.24567614714318
 30
0.0
 11
-50.53651953683839
 21
-11.2795815971739
 31
0.0
  0
LINE
  5
1B6
330
1F
100
AcDbEntity
  8
0
100
AcDbLine
 10
38.20244947394833
 20
84.26286379331414
 30
0.0
 11
38.18412669601435
 21
84.06501133889729
 31
0.0
  0
LINE
  5
1B7
330
1F
100
AcDbEntity
  8
0
100
AcDbLine
 10
-50.42628830286331
 20
-11.39814179377465
 30
0.0
 11
-50.39409452676311
 21
-11.42285424748914
 31
0.0
  0
LINE
  5
1B8
330
1F
100
AcDbEntity
  8
0
100
AcDbLine
 10
-50.45675957648407
 20
-11.37133421887275
 30
0.0
 11
-50.42628830286331
 21
-11.39814179377465
 31
0.0
  0
LINE
  5
1B9
330
1F
100
AcDbEntity
  8
0
100
AcDbLine
 10
44.14351609065756
 20
84.68705999872465
 30
0.0
 11
44.08472927381137
 21
84.87686365536764
 31
0.0
  0
LINE
  5
1BA
330
1F
100
AcDbEntity
  8
0
100
AcDbLine
 10
-50.64704890220022
 20
-10.8968092370158
 30
0.0
 11
-50.64784746274402
 21
-10.93738640901277
 31
0.0
  0
LINE
  5
1BB
330
1F
100
AcDbEntity
  8
0
100
AcDbLine
 10
39.35269167673926
 20
86.28223869922665
 30
0.0
 11
39.19983270401953
 21
86.15529204756136
 31
0.0
  0
LINE
  5
1BC
330
1F
100
AcDbEntity
  8
0
100
AcDbLine
 10
48.2530056703605
 20
-18.4262304354277
 30
0.0
 11
48.39881837547839
 21
-18.5612118153885
 31
0.0
  0
LINE
  5
1BD
330
1F
100
AcDbEntity
  8
0
100
AcDbLine
 10
49.06045547709921
 20
-18.99774579989321
 30
0.0
 11
49.24191826343908
 21
-19.07869377753153
 31
0.0
  0
LINE
  5
1BE
330
1F
100
AcDbEntity
  8
0
100
AcDbLine
 10
51.74637597381274
 20
-18.98208705664734
 30
0.0
 11
51.92106386738605
 21
-18.88740095550867
 31
0.0
  0
LINE
  5
1BF
330
1F
100
AcDbEntity
  8
0
100
AcDbLine
 10
47.41294776105727
 20
-16.87639424098352
 30
0.0
 11
47.45919495773234
 21
-17.06963635520734
 31
0.0
  0
LINE
  5
1C0
330
1F
100
AcDbEntity
  8
0
100
AcDbLine
 10
47.58905647742108
 20
-17.44499244251581
 30
0.0
 11
47.67211471347087
 21
-17.62549908320867
 31
0.0
  0
LINE
  5
1C1
330
1F
100
AcDbEntity
  8
0
100
AcDbLine
 10
53.4162688267228
 20
-16.05040908956626
 30
0.0
 11
53.39564043857266
 21
-15.85278371793521
 31
0.0
  0
LINE
  5
1C2
330
1F
100
AcDbEntity
  8
0
100
AcDbLine
 10
43.07765175931816
 20
81.4859334673222
 30
0.0
 11
43.23051073203789
 21
81.61288011898768
 31
0.0
  0
LINE
  5
1C3
330
1F
100
AcDbEntity
  8
0
100
AcDbLine
 10
44.22789396210917
 20
83.5053083732349
 30
0.0
 11
44.24621674004307
 21
83.70316082765157
 31
0.0
  0
LINE
  5
1C4
330
1F
100
AcDbEntity
  8
0
100
AcDbLine
 10
53.19957066813532
 20
-17.41228350667922
 30
0.0
 11
53.26847709587443
 21
-17.22591499505175
 31
0.0
  0
LINE
  5
1C5
330
1F
100
AcDbEntity
  8
0
100
AcDbLine
 10
53.41858435237545
 20
-16.44758769537998
 30
0.0
 11
53.42392773019059
 21
-16.24896049124244
 31
0.0
  0
LINE
  5
1C6
330
1F
100
AcDbEntity
  8
0
100
AcDbLine
 10
49.61876295340283
 20
-19.2041700152081
 30
0.0
 11
49.81253115021001
 21
-19.24816096673313
 31
0.0
  0
LINE
  5
1C7
330
1F
100
AcDbEntity
  8
0
100
AcDbLine
 10
51.92106386738605
 20
-18.88740095550867
 30
0.0
 11
52.08918497346082
 21
-18.78149244970198
 31
0.0
  0
LINE
  5
1C8
330
1F
100
AcDbEntity
  8
0
100
AcDbLine
 10
52.68208870599258
 20
-18.25538339463991
 30
0.0
 11
52.8072444732614
 21
-18.10105468107899
 31
0.0
  0
LINE
  5
1C9
330
1F
100
AcDbEntity
  8
0
100
AcDbLine
 10
47.76680081460974
 20
-17.80018697678216
 30
0.0
 11
47.87270932041614
 21
-17.96830808285713
 31
0.0
  0
LINE
  5
1CA
330
1F
100
AcDbEntity
  8
0
100
AcDbLine
 10
51.5658693331196
 20
-19.06514529269714
 30
0.0
 11
51.74637597381274
 21
-18.98208705664734
 31
0.0
  0
LINE
  5
1CB
330
1F
100
AcDbEntity
  8
0
100
AcDbLine
 10
52.92203869162837
 20
-17.93887081832002
 30
0.0
 11
53.02597979462705
 21
-17.76952630256176
 31
0.0
  0
LINE
  5
1CC
330
1F
100
AcDbEntity
  8
0
100
AcDbLine
 10
48.11633336607425
 20
-18.28200145376656
 30
0.0
 11
48.2530056703605
 21
-18.4262304354277
 31
0.0
  0
LINE
  5
1CD
330
1F
100
AcDbEntity
  8
0
100
AcDbLine
 10
42.20794929012192
 20
81.01452852749178
 30
0.0
 11
42.39350172078731
 21
81.08560323033433
 31
0.0
  0
LINE
  5
1CE
330
1F
100
AcDbEntity
  8
0
100
AcDbLine
 10
53.36903785733691
 20
-16.8416706199082
 30
0.0
 11
53.40026157444156
 21
-16.64544014979682
 31
0.0
  0
LINE
  5
1CF
330
1F
100
AcDbEntity
  8
0
100
AcDbLine
 10
42.91681736112844
 20
81.36925607332948
 30
0.0
 11
43.07765175931816
 21
81.4859334673222
 31
0.0
  0
LINE
  5
1D0
330
1F
100
AcDbEntity
  8
0
100
AcDbLine
 10
50.80141805218318
 20
-19.27476354796867
 30
0.0
 11
50.9972711315875
 21
-19.24125400906096
 31
0.0
  0
LINE
  5
1D1
330
1F
100
AcDbEntity
  8
0
100
AcDbLine
 10
51.19051324581131
 20
-19.19500681238597
 30
0.0
 11
51.38031690245431
 21
-19.13621999553988
 31
0.0
  0
LINE
  5
1D2
330
1F
100
AcDbEntity
  8
0
100
AcDbLine
 10
48.55314708903923
 20
-18.68636758265741
 30
0.0
 11
48.71533095179829
 21
-18.80116180102447
 31
0.0
  0
LINE
  5
1D3
330
1F
100
AcDbEntity
  8
0
100
AcDbLine
 10
50.9972711315875
 20
-19.24125400906096
 30
0.0
 11
51.19051324581131
 21
-19.19500681238597
 31
0.0
  0
LINE
  5
1D4
330
1F
100
AcDbEntity
  8
0
100
AcDbLine
 10
47.35115093053169
 20
-16.28436438827191
 30
0.0
 11
47.35880983399939
 21
-16.48291578994817
 31
0.0
  0
LINE
  5
1D5
330
1F
100
AcDbEntity
  8
0
100
AcDbLine
 10
53.36213089966493
 20
-15.65693063853062
 30
0.0
 11
53.31588370298985
 21
-15.46368852430689
 31
0.0
  0
LINE
  5
1D6
330
1F
100
AcDbEntity
  8
0
100
AcDbLine
 10
52.8072444732614
 20
-18.10105468107899
 30
0.0
 11
52.92203869162837
 21
-17.93887081832002
 31
0.0
  0
LINE
  5
1D7
330
1F
100
AcDbEntity
  8
0
100
AcDbLine
 10
47.98938671440896
 20
-18.12914248104666
 30
0.0
 11
48.11633336607425
 21
-18.28200145376656
 31
0.0
  0
LINE
  5
1D8
330
1F
100
AcDbEntity
  8
0
100
AcDbLine
 10
47.45919495773234
 20
-17.06963635520734
 30
0.0
 11
47.51798177457853
 21
-17.25944001185049
 31
0.0
  0
LINE
  5
1D9
330
1F
100
AcDbEntity
  8
0
100
AcDbLine
 10
52.08918497346082
 20
-18.78149244970198
 30
0.0
 11
52.25001937165054
 21
-18.66481505570924
 31
0.0
  0
LINE
  5
1DA
330
1F
100
AcDbEntity
  8
0
100
AcDbLine
 10
53.31588370298985
 20
-15.46368852430689
 30
0.0
 11
53.25709688614366
 21
-15.27388486766399
 31
0.0
  0
LINE
  5
1DB
330
1F
100
AcDbEntity
  8
0
100
AcDbLine
 10
52.25001937165054
 20
-18.66481505570924
 30
0.0
 11
52.40287834437027
 21
-18.53786840404404
 31
0.0
  0
LINE
  5
1DC
330
1F
100
AcDbEntity
  8
0
100
AcDbLine
 10
49.42828677506654
 20
-19.14760020527073
 30
0.0
 11
49.61876295340283
 21
-19.2041700152081
 31
0.0
  0
LINE
  5
1DD
330
1F
100
AcDbEntity
  8
0
100
AcDbLine
 10
47.67211471347087
 20
-17.62549908320867
 30
0.0
 11
47.76680081460974
 21
-17.80018697678216
 31
0.0
  0
LINE
  5
1DE
330
1F
100
AcDbEntity
  8
0
100
AcDbLine
 10
52.54710732603168
 20
-18.4011960997579
 30
0.0
 11
52.68208870599258
 21
-18.25538339463991
 31
0.0
  0
LINE
  5
1DF
330
1F
100
AcDbEntity
  8
0
100
AcDbLine
 10
53.42392773019059
 20
-16.24896049124244
 30
0.0
 11
53.4162688267228
 21
-16.05040908956626
 31
0.0
  0
LINE
  5
1E0
330
1F
100
AcDbEntity
  8
0
100
AcDbLine
 10
50.20661407473823
 20
-19.29770746177139
 30
0.0
 11
50.40524127887569
 21
-19.30305083958669
 31
0.0
  0
LINE
  5
1E1
330
1F
100
AcDbEntity
  8
0
100
AcDbLine
 10
53.02597979462705
 20
-17.76952630256176
 30
0.0
 11
53.11862269049709
 21
-17.5937462930191
 31
0.0
  0
LINE
  5
1E2
330
1F
100
AcDbEntity
  8
0
100
AcDbLine
 10
47.51798177457853
 20
-17.25944001185049
 30
0.0
 11
47.58905647742108
 21
-17.44499244251581
 31
0.0
  0
LINE
  5
1E3
330
1F
100
AcDbEntity
  8
0
100
AcDbLine
 10
53.39564043857266
 20
-15.85278371793521
 30
0.0
 11
53.36213089966493
 21
-15.65693063853062
 31
0.0
  0
LINE
  5
1E4
330
1F
100
AcDbEntity
  8
0
100
AcDbLine
 10
47.37943822214972
 20
-16.6805411615792
 30
0.0
 11
47.41294776105727
 21
-16.87639424098352
 31
0.0
  0
LINE
  5
1E5
330
1F
100
AcDbEntity
  8
0
100
AcDbLine
 10
48.71533095179829
 20
-18.80116180102447
 30
0.0
 11
48.88467546755655
 21
-18.90510290402335
 31
0.0
  0
LINE
  5
1E6
330
1F
100
AcDbEntity
  8
0
100
AcDbLine
 10
-49.971531443212
 20
-11.53238590186719
 30
0.0
 11
-49.93138667683201
 21
-11.52642416382457
 31
0.0
  0
LINE
  5
1E7
330
1F
100
AcDbEntity
  8
0
100
AcDbLine
 10
-50.01198476164156
 20
-11.53565295194756
 30
0.0
 11
-49.971531443212
 21
-11.53238590186719
 31
0.0
  0
LINE
  5
1E8
330
1F
100
AcDbEntity
  8
0
100
AcDbLine
 10
-50.51199854880156
 20
-11.31192144463614
 30
0.0
 11
-50.48537225552012
 21
-11.34255125192062
 31
0.0
  0
LINE
  5
1E9
330
1F
100
AcDbEntity
  8
0
100
AcDbLine
 10
50.00876162032148
 20
-19.27938468383766
 30
0.0
 11
50.20661407473823
 21
-19.29770746177139
 31
0.0
  0
LINE
  5
1EA
330
1F
100
AcDbEntity
  8
0
100
AcDbLine
 10
43.37473971369929
 20
81.74955242327374
 30
0.0
 11
43.5097210936602
 21
81.89536512839172
 31
0.0
  0
LINE
  5
1EB
330
1F
100
AcDbEntity
  8
0
100
AcDbLine
 10
53.40026157444156
 20
-16.64544014979682
 30
0.0
 11
53.41858435237545
 21
-16.44758769537998
 31
0.0
  0
LINE
  5
1EC
330
1F
100
AcDbEntity
  8
0
100
AcDbLine
 10
53.3250469058119
 20
-17.03543881671529
 30
0.0
 11
53.36903785733691
 21
-16.8416706199082
 31
0.0
  0
LINE
  5
1ED
330
1F
100
AcDbEntity
  8
0
100
AcDbLine
 10
51.38031690245431
 20
-19.13621999553988
 30
0.0
 11
51.5658693331196
 21
-19.06514529269714
 31
0.0
  0
LINE
  5
1EE
330
1F
100
AcDbEntity
  8
0
100
AcDbLine
 10
50.40524127887569
 20
-19.30305083958669
 30
0.0
 11
50.60379268055213
 21
-19.29539193611873
 31
0.0
  0
LINE
  5
1EF
330
1F
100
AcDbEntity
  8
0
100
AcDbLine
 10
53.11862269049709
 20
-17.5937462930191
 30
0.0
 11
53.19957066813532
 21
-17.41228350667922
 31
0.0
  0
LINE
  5
1F0
330
1F
100
AcDbEntity
  8
0
100
AcDbLine
 10
47.87270932041614
 20
-17.96830808285713
 30
0.0
 11
47.98938671440896
 21
-18.12914248104666
 31
0.0
  0
LINE
  5
1F1
330
1F
100
AcDbEntity
  8
0
100
AcDbLine
 10
43.93059633491893
 20
85.24292272672608
 30
0.0
 11
43.83591023378016
 21
85.41761062029911
 31
0.0
  0
LINE
  5
1F2
330
1F
100
AcDbEntity
  8
0
100
AcDbLine
 10
53.26847709587443
 20
-17.22591499505175
 30
0.0
 11
53.3250469058119
 21
-17.03543881671529
 31
0.0
  0
LINE
  5
1F3
330
1F
100
AcDbEntity
  8
0
100
AcDbLine
 10
49.24191826343908
 20
-19.07869377753153
 30
0.0
 11
49.42828677506654
 21
-19.14760020527073
 31
0.0
  0
LINE
  5
1F4
330
1F
100
AcDbEntity
  8
0
100
AcDbLine
 10
52.40287834437027
 20
-18.53786840404404
 30
0.0
 11
52.54710732603168
 21
-18.4011960997579
 31
0.0
  0
LINE
  5
1F5
330
1F
100
AcDbEntity
  8
0
100
AcDbLine
 10
53.25709688614366
 20
-15.27388486766399
 30
0.0
 11
53.18602218330111
 21
-15.08833243699851
 31
0.0
  0
LINE
  5
1F6
330
1F
100
AcDbEntity
  8
0
100
AcDbLine
 10
47.35880983399939
 20
-16.48291578994817
 30
0.0
 11
47.37943822214972
 21
-16.6805411615792
 31
0.0
  0
LINE
  5
1F7
330
1F
100
AcDbEntity
  8
0
100
AcDbLine
 10
42.01814563347892
 20
80.95574171064567
 30
0.0
 11
42.20794929012192
 21
81.01452852749178
 31
0.0
  0
LINE
  5
1F8
330
1F
100
AcDbEntity
  8
0
100
AcDbLine
 10
48.39881837547839
 20
-18.5612118153885
 30
0.0
 11
48.55314708903923
 21
-18.68636758265741
 31
0.0
  0
LINE
  5
1F9
330
1F
100
AcDbEntity
  8
0
100
AcDbLine
 10
48.88467546755655
 20
-18.90510290402335
 30
0.0
 11
49.06045547709921
 21
-18.99774579989321
 31
0.0
  0
LINE
  5
1FA
330
1F
100
AcDbEntity
  8
0
100
AcDbLine
 10
50.60379268055213
 20
-19.29539193611873
 30
0.0
 11
50.80141805218318
 21
-19.27476354796867
 31
0.0
  0
LINE
  5
1FB
330
1F
100
AcDbEntity
  8
0
100
AcDbLine
 10
49.81253115021001
 20
-19.24816096673313
 30
0.0
 11
50.00876162032148
 21
-19.27938468383766
 31
0.0
  0
LINE
  5
1FC
330
1F
100
AcDbEntity
  8
0
100
AcDbLine
 10
-49.77744164147945
 20
-11.47634052126564
 30
0.0
 11
-49.74147371976438
 21
-11.45754017031963
 31
0.0
  0
LINE
  5
1FD
330
1F
100
AcDbEntity
  8
0
100
AcDbLine
 10
-50.13338723964643
 20
-11.52920057265107
 30
0.0
 11
-50.09309378615535
 21
-11.53405672276615
 31
0.0
  0
LINE
  5
1FE
330
1F
100
AcDbEntity
  8
0
100
AcDbLine
 10
-49.81458496741445
 20
-11.49269649652425
 30
0.0
 11
-49.77744164147945
 21
-11.47634052126564
 31
0.0
  0
LINE
  5
1FF
330
1F
100
AcDbEntity
  8
0
100
AcDbLine
 10
-50.64593398380814
 20
-10.97792630524525
 30
0.0
 11
-50.64131701146174
 21
-11.01824786467132
 31
0.0
  0
LINE
  5
200
330
1F
100
AcDbEntity
  8
0
100
AcDbLine
 10
-49.74147371976438
 20
-11.45754017031963
 30
0.0
 11
-49.70684184373926
 21
-11.43637941061769
 31
0.0
  0
LINE
  5
201
330
1F
100
AcDbEntity
  8
0
100
AcDbLine
 10
-49.14276093044072
 20
-5.220398656856982
 30
0.0
 11
-49.16872128313463
 21
-5.19031024040816
 31
0.0
  0
LINE
  5
202
330
1F
100
AcDbEntity
  8
0
100
AcDbLine
 10
-50.05256595778042
 20
-11.53621072262703
 30
0.0
 11
-50.01198476164156
 21
-11.53565295194756
 31
0.0
  0
LINE
  5
203
330
1F
100
AcDbEntity
  8
0
100
AcDbLine
 10
39.05560372235813
 20
86.01861974327511
 30
0.0
 11
38.92062234239723
 21
85.87280703815713
 31
0.0
  0
LINE
  5
204
330
1F
100
AcDbEntity
  8
0
100
AcDbLine
 10
-49.03275227706735
 20
-5.430266132575826
 30
0.0
 11
-49.04522217709697
 21
-5.39253346357861
 31
0.0
  0
LINE
  5
205
330
1F
100
AcDbEntity
  8
0
100
AcDbLine
 10
-50.21915791652262
 20
-5.537458750010143
 30
0.0
 11
-50.64704890220022
 21
-10.8968092370158
 31
0.0
  0
LINE
  5
206
330
1F
100
AcDbEntity
  8
0
100
AcDbLine
 10
-50.21255303112096
 20
-11.51148054823231
 30
0.0
 11
-50.1732663579094
 21
-11.52166396102747
 31
0.0
  0
LINE
  5
207
330
1F
100
AcDbEntity
  8
0
100
AcDbLine
 10
-50.39409452676311
 20
-11.42285424748914
 30
0.0
 11
-50.36032203340261
 21
-11.4453612081994
 31
0.0
  0
LINE
  5
208
330
1F
100
AcDbEntity
  8
0
100
AcDbLine
 10
-49.01533879397796
 20
-5.507771092866728
 30
0.0
 11
-49.02277691067757
 21
-5.468733583515375
 31
0.0
  0
LINE
  5
209
330
1F
100
AcDbEntity
  8
0
100
AcDbLine
 10
-49.02277691067757
 20
-5.468733583515375
 30
0.0
 11
-49.03275227706735
 21
-5.430266132575826
 31
0.0
  0
LINE
  5
20A
330
1F
100
AcDbEntity
  8
0
100
AcDbLine
 10
38.33423395251547
 20
84.843338638569
 30
0.0
 11
38.27766414257781
 21
84.6528624602327
 31
0.0
  0
LINE
  5
20B
330
1F
100
AcDbEntity
  8
0
100
AcDbLine
 10
-50.1732663579094
 20
-11.52166396102747
 30
0.0
 11
-50.13338723964643
 21
-11.52920057265107
 31
0.0
  0
LINE
  5
20C
330
1F
100
AcDbEntity
  8
0
100
AcDbLine
 10
-50.61151110534873
 20
-11.13611135700523
 30
0.0
 11
-50.5964054072419
 21
-11.17378047529723
 31
0.0
  0
LINE
  5
20D
330
1F
100
AcDbEntity
  8
0
100
AcDbLine
 10
38.18412669601435
 20
84.06501133889729
 30
0.0
 11
38.17878331819931
 21
83.86638413475966
 31
0.0
  0
LINE
  5
20E
330
1F
100
AcDbEntity
  8
0
100
AcDbLine
 10
-49.0104697781259
 20
-5.547211496021858
 30
0.0
 11
-49.01533879397796
 21
-5.507771092866728
 31
0.0
  0
LINE
  5
20F
330
1F
100
AcDbEntity
  8
0
100
AcDbLine
 10
-49.51390128961759
 20
-11.23131412099909
 30
0.0
 11
-49.49488784410671
 21
-11.19545838954647
 31
0.0
  0
LINE
  5
210
330
1F
100
AcDbEntity
  8
0
100
AcDbLine
 10
-50.53651953683839
 20
-11.2795815971739
 30
0.0
 11
-50.51199854880156
 21
-11.31192144463614
 31
0.0
  0
LINE
  5
211
330
1F
100
AcDbEntity
  8
0
100
AcDbLine
 10
38.79546657512841
 20
85.71847832459622
 30
0.0
 11
38.68067235676143
 21
85.55629446183724
 31
0.0
  0
LINE
  5
212
330
1F
100
AcDbEntity
  8
0
100
AcDbLine
 10
-49.06013321274008
 20
-5.35569715360526
 30
0.0
 11
-49.07742153265285
 21
-5.319914941390375
 31
0.0
  0
LINE
  5
213
330
1F
100
AcDbEntity
  8
0
100
AcDbLine
 10
38.48408835789281
 20
85.21116993653658
 30
0.0
 11
38.40314038025449
 21
85.02970715019654
 31
0.0
  0
LINE
  5
214
330
1F
100
AcDbEntity
  8
0
100
AcDbLine
 10
-50.57881742237124
 20
-11.21035652451478
 30
0.0
 11
-50.55882570294585
 21
-11.24567614714318
 31
0.0
  0
LINE
  5
215
330
1F
100
AcDbEntity
  8
0
100
AcDbLine
 10
-49.64219826830219
 20
-11.38736482136199
 30
0.0
 11
-49.61247528279076
 21
-11.35972990286243
 31
0.0
  0
LINE
  5
216
330
1F
100
AcDbEntity
  8
0
100
AcDbLine
 10
-49.93138667683201
 20
-11.52642416382457
 30
0.0
 11
-49.89172975877363
 21
-11.51779436438879
 31
0.0
  0
LINE
  5
217
330
1F
100
AcDbEntity
  8
0
100
AcDbLine
 10
-49.85273780645963
 20
-11.50653504633967
 30
0.0
 11
-49.81458496741445
 21
-11.49269649652425
 31
0.0
  0
LINE
  5
218
330
1F
100
AcDbEntity
  8
0
100
AcDbLine
 10
-49.55889007363105
 20
-11.29882138814967
 30
0.0
 11
-49.53526717453511
 21
-11.26581982414908
 31
0.0
  0
LINE
  5
219
330
1F
100
AcDbEntity
  8
0
100
AcDbLine
 10
-50.62406705097666
 20
-11.09751740906533
 30
0.0
 11
-50.61151110534873
 21
-11.13611135700523
 31
0.0
  0
LINE
  5
21A
330
1F
100
AcDbEntity
  8
0
100
AcDbLine
 10
38.92062234239723
 20
85.87280703815713
 30
0.0
 11
38.79546657512841
 21
85.71847832459622
 31
0.0
  0
LINE
  5
21B
330
1F
100
AcDbEntity
  8
0
100
AcDbLine
 10
-49.67370068776923
 20
-11.41295275124939
 30
0.0
 11
-49.64219826830219
 21
-11.38736482136199
 31
0.0
  0
LINE
  5
21C
330
1F
100
AcDbEntity
  8
0
100
AcDbLine
 10
-49.01143033976393
 20
-5.666256886986837
 30
0.0
 11
-49.00851135789218
 21
-5.626624422256843
 31
0.0
  0
LINE
  5
21D
330
1F
100
AcDbEntity
  8
0
100
AcDbLine
 10
39.19983270401953
 20
86.15529204756136
 30
0.0
 11
39.05560372235813
 21
86.01861974327511
 31
0.0
  0
LINE
  5
21E
330
1F
100
AcDbEntity
  8
0
100
AcDbLine
 10
-49.89172975877363
 20
-11.51779436438879
 30
0.0
 11
-49.85273780645963
 21
-11.50653504633967
 31
0.0
  0
LINE
  5
21F
330
1F
100
AcDbEntity
  8
0
100
AcDbLine
 10
-50.64784746274402
 20
-10.93738640901277
 30
0.0
 11
-50.64593398380814
 21
-10.97792630524525
 31
0.0
  0
LINE
  5
220
330
1F
100
AcDbEntity
  8
0
100
AcDbLine
 10
61.87812083463545
 20
96.15051614799071
 30
0.0
 11
62.53309292967882
 21
-16.19585464569838
 31
0.0
  0
LINE
  5
221
330
1F
100
AcDbEntity
  8
0
100
AcDbLine
 10
-49.53526717453511
 20
-11.26581982414908
 30
0.0
 11
-49.51390128961759
 21
-11.23131412099909
 31
0.0
  0
LINE
  5
222
330
1F
100
AcDbEntity
  8
0
100
AcDbLine
 10
-50.5964054072419
 20
-11.17378047529723
 30
0.0
 11
-50.57881742237124
 21
-11.21035652451478
 31
0.0
  0
LINE
  5
223
330
1F
100
AcDbEntity
  8
0
100
AcDbLine
 10
38.27766414257781
 20
84.6528624602327
 30
0.0
 11
38.23367319105289
 21
84.4590942634257
 31
0.0
  0
LINE
  5
224
330
1F
100
AcDbEntity
  8
0
100
AcDbLine
 10
-49.11882403744399
 20
-5.252120539998932
 30
0.0
 11
-49.14276093044072
 21
-5.220398656856982
 31
0.0
  0
LINE
  5
225
330
1F
100
AcDbEntity
  8
0
100
AcDbLine
 10
-49.45275657083592
 20
-11.08141826206085
 30
0.0
 11
-49.4438916081097
 21
-11.04181324944804
 31
0.0
  0
LINE
  5
226
330
1F
100
AcDbEntity
  8
0
100
AcDbLine
 10
38.68067235676143
 20
85.55629446183724
 30
0.0
 11
38.57673125376275
 21
85.38694994607889
 31
0.0
  0
LINE
  5
227
330
1F
100
AcDbEntity
  8
0
100
AcDbLine
 10
-49.01143033976393
 20
-5.666256886986837
 30
0.0
 11
-49.43418473158054
 21
-10.96127134511747
 31
0.0
  0
LINE
  5
228
330
1F
100
AcDbEntity
  8
0
100
AcDbLine
 10
-50.48537225552012
 20
-11.34255125192062
 30
0.0
 11
-50.45675957648407
 21
-11.37133421887275
 31
0.0
  0
LINE
  5
229
330
1F
100
AcDbEntity
  8
0
100
AcDbLine
 10
-49.04522217709697
 20
-5.39253346357861
 30
0.0
 11
-49.06013321274008
 21
-5.35569715360526
 31
0.0
  0
LINE
  5
22A
330
1F
100
AcDbEntity
  8
0
100
AcDbLine
 10
-49.70684184373926
 20
-11.43637941061769
 30
0.0
 11
-49.67370068776923
 21
-11.41295275124939
 31
0.0
  0
LINE
  5
22B
330
1F
100
AcDbEntity
  8
0
100
AcDbLine
 10
-49.49488784410671
 20
-11.19545838954647
 30
0.0
 11
-49.47831175666619
 21
-11.15841277019224
 31
0.0
  0
LINE
  5
22C
330
1F
100
AcDbEntity
  8
0
100
AcDbLine
 10
-49.47831175666619
 20
-11.15841277019224
 30
0.0
 11
-49.46424706012622
 21
-11.12034271766483
 31
0.0
  0
LINE
  5
22D
330
1F
100
AcDbEntity
  8
0
100
AcDbLine
 10
-49.61247528279076
 20
-11.35972990286243
 30
0.0
 11
-49.58466448130342
 21
-11.33017142000521
 31
0.0
  0
LINE
  5
22E
330
1F
100
AcDbEntity
  8
0
100
AcDbLine
 10
-49.4438916081097
 20
-11.04181324944804
 30
0.0
 11
-49.437691765023
 21
-11.00170456542731
 31
0.0
  0
LINE
  5
22F
330
1F
100
AcDbEntity
  8
0
100
AcDbLine
 10
-49.58466448130342
 20
-11.33017142000521
 30
0.0
 11
-49.55889007363105
 21
-11.29882138814967
 31
0.0
  0
LINE
  5
230
330
1F
100
AcDbEntity
  8
0
100
AcDbLine
 10
-49.00851135789218
 20
-5.626624422256843
 30
0.0
 11
-49.00819071299507
 21
-5.586885903119172
 31
0.0
  0
LINE
  5
231
330
1F
100
AcDbEntity
  8
0
100
AcDbLine
 10
39.88808786476682
 20
81.15300272313836
 30
0.0
 11
40.06955065110678
 21
81.07205474550003
 31
0.0
  0
LINE
  5
232
330
1F
100
AcDbEntity
  8
0
100
AcDbLine
 10
47.85303996909383
 20
-14.59445406119451
 30
0.0
 11
47.74909886609515
 21
-14.76379857695284
 31
0.0
  0
LINE
  5
233
330
1F
100
AcDbEntity
  8
0
100
AcDbLine
 10
50.17128598017015
 20
-13.23793294339541
 30
0.0
 11
49.97366060853901
 21
-13.25856133154576
 31
0.0
  0
LINE
  5
234
330
1F
100
AcDbEntity
  8
0
100
AcDbLine
 10
47.40604080338527
 20
-15.69165425960612
 30
0.0
 11
47.37481708628063
 21
-15.8878847297175
 31
0.0
  0
LINE
  5
235
330
1F
100
AcDbEntity
  8
0
100
AcDbLine
 10
47.9678341874608
 20
-14.43227019843533
 30
0.0
 11
47.85303996909383
 21
-14.59445406119451
 31
0.0
  0
LINE
  5
236
330
1F
100
AcDbEntity
  8
0
100
AcDbLine
 10
38.41668886508879
 20
82.70575608051574
 30
0.0
 11
38.49974710113849
 21
82.52524943982297
 31
0.0
  0
LINE
  5
237
330
1F
100
AcDbEntity
  8
0
100
AcDbLine
 10
39.54296333946608
 20
81.34958672200707
 30
0.0
 11
39.71230785522425
 21
81.24564561900839
 31
0.0
  0
LINE
  5
238
330
1F
100
AcDbEntity
  8
0
100
AcDbLine
 10
51.15631570731945
 20
-13.3291548643064
 30
0.0
 11
50.96254751051227
 21
-13.28516391278121
 31
0.0
  0
LINE
  5
239
330
1F
100
AcDbEntity
  8
0
100
AcDbLine
 10
38.59443320227734
 20
82.35056154624975
 30
0.0
 11
38.70034170808376
 21
82.1824404401746
 31
0.0
  0
LINE
  5
23A
330
1F
100
AcDbEntity
  8
0
100
AcDbLine
 10
47.74909886609515
 20
-14.76379857695284
 30
0.0
 11
47.6564559702252
 21
-14.93957858649549
 31
0.0
  0
LINE
  5
23B
330
1F
100
AcDbEntity
  8
0
100
AcDbLine
 10
38.81701910207648
 20
82.02160604198507
 30
0.0
 11
38.94396575374187
 21
81.86874706926515
 31
0.0
  0
LINE
  5
23C
330
1F
100
AcDbEntity
  8
0
100
AcDbLine
 10
48.52505928907173
 20
-13.86850982380488
 30
0.0
 11
48.37220031635191
 21
-13.99545647547026
 31
0.0
  0
LINE
  5
23D
330
1F
100
AcDbEntity
  8
0
100
AcDbLine
 10
47.57550799258687
 20
-15.12104137283519
 30
0.0
 11
47.50660156484785
 21
-15.30740988446263
 31
0.0
  0
LINE
  5
23E
330
1F
100
AcDbEntity
  8
0
100
AcDbLine
 10
40.25591916273415
 20
81.003148317761
 30
0.0
 11
40.44639534107044
 21
80.94657850782362
 31
0.0
  0
LINE
  5
23F
330
1F
100
AcDbEntity
  8
0
100
AcDbLine
 10
50.96254751051227
 20
-13.28516391278121
 30
0.0
 11
50.7663170404008
 21
-13.25394019567666
 31
0.0
  0
LINE
  5
240
330
1F
100
AcDbEntity
  8
0
100
AcDbLine
 10
-49.00819071299507
 20
-5.586885903119172
 30
0.0
 11
-49.0104697781259
 21
-5.547211496021858
 31
0.0
  0
LINE
  5
241
330
1F
100
AcDbEntity
  8
0
100
AcDbLine
 10
-49.16872128313463
 20
-5.19031024040816
 30
0.0
 11
-49.19659392931
 21
-5.161984133870694
 31
0.0
  0
LINE
  5
242
330
1F
100
AcDbEntity
  8
0
100
AcDbLine
 10
48.37220031635191
 20
-13.99545647547026
 30
0.0
 11
48.22797133469051
 21
-14.13212877975651
 31
0.0
  0
LINE
  5
243
330
1F
100
AcDbEntity
  8
0
100
AcDbLine
 10
38.94396575374187
 20
81.86874706926515
 30
0.0
 11
39.08063805802803
 21
81.72451808760384
 31
0.0
  0
LINE
  5
244
330
1F
100
AcDbEntity
  8
0
100
AcDbLine
 10
53.10296394725132
 20
-14.90782579630565
 30
0.0
 11
53.00827784611246
 21
-14.73313790273234
 31
0.0
  0
LINE
  5
245
330
1F
100
AcDbEntity
  8
0
100
AcDbLine
 10
51.53316039728311
 20
-13.4546311019829
 30
0.0
 11
51.34679188565556
 21
-13.38572467424379
 31
0.0
  0
LINE
  5
246
330
1F
100
AcDbEntity
  8
0
100
AcDbLine
 10
-49.09701310559529
 20
-5.28534005185998
 30
0.0
 11
-49.11882403744399
 21
-5.252120539998932
 31
0.0
  0
LINE
  5
247
330
1F
100
AcDbEntity
  8
0
100
AcDbLine
 10
38.17878331819931
 20
83.86638413475966
 30
0.0
 11
38.18644222166692
 21
83.6678327330834
 31
0.0
  0
LINE
  5
248
330
1F
100
AcDbEntity
  8
0
100
AcDbLine
 10
38.34561416224624
 20
82.89130851118139
 30
0.0
 11
38.41668886508879
 21
82.70575608051574
 31
0.0
  0
LINE
  5
249
330
1F
100
AcDbEntity
  8
0
100
AcDbLine
 10
53.18602218330111
 20
-15.08833243699851
 30
0.0
 11
53.10296394725132
 21
-14.90782579630565
 31
0.0
  0
LINE
  5
24A
330
1F
100
AcDbEntity
  8
0
100
AcDbLine
 10
38.28682734539995
 20
83.0811121678244
 30
0.0
 11
38.34561416224624
 21
82.89130851118139
 31
0.0
  0
LINE
  5
24B
330
1F
100
AcDbEntity
  8
0
100
AcDbLine
 10
49.58456541491088
 20
-13.33831806712845
 30
0.0
 11
49.39476175826788
 21
-13.39710488397465
 31
0.0
  0
LINE
  5
24C
330
1F
100
AcDbEntity
  8
0
100
AcDbLine
 10
39.71230785522425
 20
81.24564561900839
 30
0.0
 11
39.88808786476682
 21
81.15300272313836
 31
0.0
  0
LINE
  5
24D
330
1F
100
AcDbEntity
  8
0
100
AcDbLine
 10
48.85401479333615
 20
-13.64592392400594
 30
0.0
 11
48.68589368726128
 21
-13.75183242981235
 31
0.0
  0
LINE
  5
24E
330
1F
100
AcDbEntity
  8
0
100
AcDbLine
 10
51.89040319316565
 20
-13.62822197549126
 30
0.0
 11
51.71462318362298
 21
-13.53557907962122
 31
0.0
  0
LINE
  5
24F
330
1F
100
AcDbEntity
  8
0
100
AcDbLine
 10
49.02870268690945
 20
-13.55123782286701
 30
0.0
 11
48.85401479333615
 21
-13.64592392400594
 31
0.0
  0
LINE
  5
250
330
1F
100
AcDbEntity
  8
0
100
AcDbLine
 10
52.22193157168297
 20
-13.84695729685671
 30
0.0
 11
52.0597477089239
 21
-13.73216307848985
 31
0.0
  0
LINE
  5
251
330
1F
100
AcDbEntity
  8
0
100
AcDbLine
 10
50.36983738184641
 20
-13.23027403992779
 30
0.0
 11
50.17128598017015
 21
-13.23793294339541
 31
0.0
  0
LINE
  5
252
330
1F
100
AcDbEntity
  8
0
100
AcDbLine
 10
52.52207299036178
 20
-14.10709444408671
 30
0.0
 11
52.37626028524371
 21
-13.9721130641258
 31
0.0
  0
LINE
  5
253
330
1F
100
AcDbEntity
  8
0
100
AcDbLine
 10
48.09298995472961
 20
-14.2779414848745
 30
0.0
 11
47.9678341874608
 21
-14.43227019843533
 31
0.0
  0
LINE
  5
254
330
1F
100
AcDbEntity
  8
0
100
AcDbLine
 10
-49.46424706012622
 20
-11.12034271766483
 30
0.0
 11
-49.45275657083592
 21
-11.08141826206085
 31
0.0
  0
LINE
  5
255
330
1F
100
AcDbEntity
  8
0
100
AcDbLine
 10
38.24058014872497
 20
83.27435428204821
 30
0.0
 11
38.28682734539995
 21
83.0811121678244
 31
0.0
  0
LINE
  5
256
330
1F
100
AcDbEntity
  8
0
100
AcDbLine
 10
40.06955065110678
 20
81.07205474550003
 30
0.0
 11
40.25591916273415
 21
81.003148317761
 31
0.0
  0
LINE
  5
257
330
1F
100
AcDbEntity
  8
0
100
AcDbLine
 10
-62.61380355837188
 20
95.42473625888879
 30
0.0
 11
61.87812083463545
 21
96.15051614799071
 31
0.0
  0
LINE
  5
258
330
1F
100
AcDbEntity
  8
0
100
AcDbLine
 10
39.2264507631461
 20
81.58953670764295
 30
0.0
 11
39.38077947670675
 21
81.46438094037431
 31
0.0
  0
LINE
  5
259
330
1F
100
AcDbEntity
  8
0
100
AcDbLine
 10
47.50660156484785
 20
-15.30740988446263
 30
0.0
 11
47.45003175491028
 21
-15.49788606279876
 31
0.0
  0
LINE
  5
25A
330
1F
100
AcDbEntity
  8
0
100
AcDbLine
 10
38.70034170808376
 20
82.1824404401746
 30
0.0
 11
38.81701910207648
 21
82.02160604198507
 31
0.0
  0
LINE
  5
25B
330
1F
100
AcDbEntity
  8
0
100
AcDbLine
 10
52.65874529464803
 20
-14.25132342574803
 30
0.0
 11
52.52207299036178
 21
-14.10709444408671
 31
0.0
  0
LINE
  5
25C
330
1F
100
AcDbEntity
  8
0
100
AcDbLine
 10
-49.437691765023
 20
-11.00170456542731
 30
0.0
 11
-49.43418473158054
 21
-10.96127134511747
 31
0.0
  0
LINE
  5
25D
330
1F
100
AcDbEntity
  8
0
100
AcDbLine
 10
51.71462318362298
 20
-13.53557907962122
 30
0.0
 11
51.53316039728311
 21
-13.4546311019829
 31
0.0
  0
LINE
  5
25E
330
1F
100
AcDbEntity
  8
0
100
AcDbLine
 10
47.37481708628063
 20
-15.8878847297175
 30
0.0
 11
47.35649430834673
 21
-16.08573718413445
 31
0.0
  0
LINE
  5
25F
330
1F
100
AcDbEntity
  8
0
100
AcDbLine
 10
52.78569194631332
 20
-14.40418239846766
 30
0.0
 11
52.65874529464803
 21
-14.25132342574803
 31
0.0
  0
LINE
  5
260
330
1F
100
AcDbEntity
  8
0
100
AcDbLine
 10
49.39476175826788
 20
-13.39710488397465
 30
0.0
 11
49.20920932760259
 21
-13.46817958681721
 31
0.0
  0
LINE
  5
261
330
1F
100
AcDbEntity
  8
0
100
AcDbLine
 10
-49.07742153265285
 20
-5.319914941390375
 30
0.0
 11
-49.09701310559529
 21
-5.28534005185998
 31
0.0
  0
LINE
  5
262
330
1F
100
AcDbEntity
  8
0
100
AcDbLine
 10
48.22797133469051
 20
-14.13212877975651
 30
0.0
 11
48.09298995472961
 21
-14.2779414848745
 31
0.0
  0
LINE
  5
263
330
1F
100
AcDbEntity
  8
0
100
AcDbLine
 10
52.0597477089239
 20
-13.73216307848985
 30
0.0
 11
51.89040319316565
 21
-13.62822197549126
 31
0.0
  0
LINE
  5
264
330
1F
100
AcDbEntity
  8
0
100
AcDbLine
 10
50.7663170404008
 20
-13.25394019567666
 30
0.0
 11
50.56846458598404
 21
-13.23561741774275
 31
0.0
  0
LINE
  5
265
330
1F
100
AcDbEntity
  8
0
100
AcDbLine
 10
-50.09309378615535
 20
-11.53405672276615
 30
0.0
 11
-50.05256595778042
 21
-11.53621072262703
 31
0.0
  0
LINE
  5
266
330
1F
100
AcDbEntity
  8
0
100
AcDbLine
 10
-61.88802366926978
 20
-29.06718813411828
 30
0.0
 11
-62.61380355837188
 21
95.42473625888879
 31
0.0
  0
LINE
  5
267
330
1F
100
AcDbEntity
  8
0
100
AcDbLine
 10
49.77780752913469
 20
-13.29207087045339
 30
0.0
 11
49.58456541491088
 21
-13.33831806712845
 31
0.0
  0
LINE
  5
268
330
1F
100
AcDbEntity
  8
0
100
AcDbLine
 10
40.64016353787762
 20
80.90258755629861
 30
0.0
 11
40.83639400798901
 21
80.87136383919388
 31
0.0
  0
LINE
  5
269
330
1F
100
AcDbEntity
  8
0
100
AcDbLine
 10
38.49974710113849
 20
82.52524943982297
 30
0.0
 11
38.59443320227734
 21
82.35056154624975
 31
0.0
  0
LINE
  5
26A
330
1F
100
AcDbEntity
  8
0
100
AcDbLine
 10
39.38077947670675
 20
81.46438094037431
 30
0.0
 11
39.54296333946608
 21
81.34958672200707
 31
0.0
  0
LINE
  5
26B
330
1F
100
AcDbEntity
  8
0
100
AcDbLine
 10
52.90236934030604
 20
-14.56501679665749
 30
0.0
 11
52.78569194631332
 21
-14.40418239846766
 31
0.0
  0
LINE
  5
26C
330
1F
100
AcDbEntity
  8
0
100
AcDbLine
 10
39.08063805802803
 20
81.72451808760384
 30
0.0
 11
39.2264507631461
 21
81.58953670764295
 31
0.0
  0
LINE
  5
26D
330
1F
100
AcDbEntity
  8
0
100
AcDbLine
 10
47.6564559702252
 20
-14.93957858649549
 30
0.0
 11
47.57550799258687
 21
-15.12104137283519
 31
0.0
  0
LINE
  5
26E
330
1F
100
AcDbEntity
  8
0
100
AcDbLine
 10
50.56846458598404
 20
-13.23561741774275
 30
0.0
 11
50.36983738184641
 21
-13.23027403992779
 31
0.0
  0
LINE
  5
26F
330
1F
100
AcDbEntity
  8
0
100
AcDbLine
 10
38.20707060981724
 20
83.47020736145234
 30
0.0
 11
38.24058014872497
 21
83.27435428204821
 31
0.0
  0
LINE
  5
270
330
1F
100
AcDbEntity
  8
0
100
AcDbLine
 10
41.43142506821965
 20
80.8553565869129
 30
0.0
 11
41.62905043985079
 21
80.87598497506269
 31
0.0
  0
LINE
  5
271
330
1F
100
AcDbEntity
  8
0
100
AcDbLine
 10
44.01365457096872
 20
85.06241608603293
 30
0.0
 11
43.93059633491893
 21
85.24292272672608
 31
0.0
  0
LINE
  5
272
330
1F
100
AcDbEntity
  8
0
100
AcDbLine
 10
40.99891836783776
 20
86.91281557963632
 30
0.0
 11
40.80129299620663
 21
86.89218719148617
 31
0.0
  0
LINE
  5
273
330
1F
100
AcDbEntity
  8
0
100
AcDbLine
 10
51.34679188565556
 20
-13.38572467424379
 30
0.0
 11
51.15631570731945
 21
-13.3291548643064
 31
0.0
  0
LINE
  5
274
330
1F
100
AcDbEntity
  8
0
100
AcDbLine
 10
42.74869625505366
 20
81.26334756752307
 30
0.0
 11
42.91681736112844
 21
81.36925607332948
 31
0.0
  0
LINE
  5
275
330
1F
100
AcDbEntity
  8
0
100
AcDbLine
 10
42.36079278495073
 20
86.69611742104865
 30
0.0
 11
42.17442427332336
 21
86.76502384878803
 31
0.0
  0
LINE
  5
276
330
1F
100
AcDbEntity
  8
0
100
AcDbLine
 10
43.94625507816478
 20
82.55700223001264
 30
0.0
 11
44.02720305580302
 21
82.73846501635232
 31
0.0
  0
LINE
  5
277
330
1F
100
AcDbEntity
  8
0
100
AcDbLine
 10
43.73000172797357
 20
85.58573172637425
 30
0.0
 11
43.61332433398093
 21
85.74656612456397
 31
0.0
  0
LINE
  5
278
330
1F
100
AcDbEntity
  8
0
100
AcDbLine
 10
43.85361218229475
 20
82.38122222046998
 30
0.0
 11
43.94625507816478
 21
82.55700223001264
 31
0.0
  0
LINE
  5
279
330
1F
100
AcDbEntity
  8
0
100
AcDbLine
 10
41.79017989817989
 20
86.86558461025025
 30
0.0
 11
41.59394942806842
 21
86.89680832735516
 31
0.0
  0
LINE
  5
27A
330
1F
100
AcDbEntity
  8
0
100
AcDbLine
 10
42.39350172078731
 20
81.08560323033433
 30
0.0
 11
42.57400836148035
 21
81.16866146638411
 31
0.0
  0
LINE
  5
27B
330
1F
100
AcDbEntity
  8
0
100
AcDbLine
 10
44.19667024500453
 20
83.30907790312334
 30
0.0
 11
44.22789396210917
 21
83.5053083732349
 31
0.0
  0
LINE
  5
27C
330
1F
100
AcDbEntity
  8
0
100
AcDbLine
 10
-50.36032203340261
 20
-11.4453612081994
 30
0.0
 11
-50.32512165893555
 21
-11.46556215435458
 31
0.0
  0
LINE
  5
27D
330
1F
100
AcDbEntity
  8
0
100
AcDbLine
 10
40.44639534107044
 20
80.94657850782362
 30
0.0
 11
40.64016353787762
 21
80.90258755629861
 31
0.0
  0
LINE
  5
27E
330
1F
100
AcDbEntity
  8
0
100
AcDbLine
 10
52.37626028524371
 20
-13.9721130641258
 30
0.0
 11
52.22193157168297
 21
-13.84695729685671
 31
0.0
  0
LINE
  5
27F
330
1F
100
AcDbEntity
  8
0
100
AcDbLine
 10
44.24390121439041
 20
84.10033943346582
 30
0.0
 11
44.22327282624018
 21
84.2979648050967
 31
0.0
  0
LINE
  5
280
330
1F
100
AcDbEntity
  8
0
100
AcDbLine
 10
40.80129299620663
 20
86.89218719148617
 30
0.0
 11
40.60543991680231
 21
86.85867765257817
 31
0.0
  0
LINE
  5
281
330
1F
100
AcDbEntity
  8
0
100
AcDbLine
 10
43.20389267291149
 20
86.17863545890592
 30
0.0
 11
43.04956395935066
 21
86.30379122617474
 31
0.0
  0
LINE
  5
282
330
1F
100
AcDbEntity
  8
0
100
AcDbLine
 10
40.4121978025785
 20
86.81243045590318
 30
0.0
 11
40.2223941459355
 21
86.75364363905727
 31
0.0
  0
LINE
  5
283
330
1F
100
AcDbEntity
  8
0
100
AcDbLine
 10
43.74967107929606
 20
82.21187770471163
 30
0.0
 11
43.85361218229475
 21
82.38122222046998
 31
0.0
  0
LINE
  5
284
330
1F
100
AcDbEntity
  8
0
100
AcDbLine
 10
42.71803558083325
 20
86.52252654754065
 30
0.0
 11
42.5422555712906
 21
86.61516944341051
 31
0.0
  0
LINE
  5
285
330
1F
100
AcDbEntity
  8
0
100
AcDbLine
 10
40.83639400798901
 20
80.87136383919388
 30
0.0
 11
41.03424646240585
 21
80.85304106126024
 31
0.0
  0
LINE
  5
286
330
1F
100
AcDbEntity
  8
0
100
AcDbLine
 10
43.23051073203789
 20
81.61288011898768
 30
0.0
 11
43.37473971369929
 21
81.74955242327374
 31
0.0
  0
LINE
  5
287
330
1F
100
AcDbEntity
  8
0
100
AcDbLine
 10
40.03684171527021
 20
86.68256893621435
 30
0.0
 11
39.85633507457715
 21
86.59951070016474
 31
0.0
  0
LINE
  5
288
330
1F
100
AcDbEntity
  8
0
100
AcDbLine
 10
49.97366060853901
 20
-13.25856133154576
 30
0.0
 11
49.77780752913469
 21
-13.29207087045339
 31
0.0
  0
LINE
  5
289
330
1F
100
AcDbEntity
  8
0
100
AcDbLine
 10
47.35649430834673
 20
-16.08573718413445
 30
0.0
 11
47.35115093053169
 21
-16.28436438827191
 31
0.0
  0
LINE
  5
28A
330
1F
100
AcDbEntity
  8
0
100
AcDbLine
 10
44.24621674004307
 20
83.70316082765157
 30
0.0
 11
44.25156011785812
 21
83.90178803178902
 31
0.0
  0
LINE
  5
28B
330
1F
100
AcDbEntity
  8
0
100
AcDbLine
 10
44.15267929347952
 20
83.11530970631634
 30
0.0
 11
44.19667024500453
 21
83.30907790312334
 31
0.0
  0
LINE
  5
28C
330
1F
100
AcDbEntity
  8
0
100
AcDbLine
 10
39.68164718100385
 20
86.5048245990258
 30
0.0
 11
39.51352607492908
 21
86.39891609321955
 31
0.0
  0
LINE
  5
28D
330
1F
100
AcDbEntity
  8
0
100
AcDbLine
 10
41.59394942806842
 20
86.89680832735516
 30
0.0
 11
41.39609697365157
 21
86.91513110528898
 31
0.0
  0
LINE
  5
28E
330
1F
100
AcDbEntity
  8
0
100
AcDbLine
 10
44.25156011785812
 20
83.90178803178902
 30
0.0
 11
44.24390121439041
 21
84.10033943346582
 31
0.0
  0
LINE
  5
28F
330
1F
100
AcDbEntity
  8
0
100
AcDbLine
 10
43.61332433398093
 20
85.74656612456397
 30
0.0
 11
43.48637768231565
 21
85.8994250972837
 31
0.0
  0
LINE
  5
290
330
1F
100
AcDbEntity
  8
0
100
AcDbLine
 10
41.8249035192552
 20
80.90949451397087
 30
0.0
 11
42.01814563347892
 21
80.95574171064567
 31
0.0
  0
LINE
  5
291
330
1F
100
AcDbEntity
  8
0
100
AcDbLine
 10
44.18976328733262
 20
84.49381788450101
 30
0.0
 11
44.14351609065756
 21
84.68705999872465
 31
0.0
  0
LINE
  5
292
330
1F
100
AcDbEntity
  8
0
100
AcDbLine
 10
42.17442427332336
 20
86.76502384878803
 30
0.0
 11
41.98394809498707
 21
86.82159365872542
 31
0.0
  0
LINE
  5
293
330
1F
100
AcDbEntity
  8
0
100
AcDbLine
 10
42.5422555712906
 20
86.61516944341051
 30
0.0
 11
42.36079278495073
 21
86.69611742104865
 31
0.0
  0
LINE
  5
294
330
1F
100
AcDbEntity
  8
0
100
AcDbLine
 10
41.62905043985079
 20
80.87598497506269
 30
0.0
 11
41.8249035192552
 21
80.90949451397087
 31
0.0
  0
LINE
  5
295
330
1F
100
AcDbEntity
  8
0
100
AcDbLine
 10
43.63487686092901
 20
82.04969384195265
 30
0.0
 11
43.74967107929606
 21
82.21187770471163
 31
0.0
  0
LINE
  5
296
330
1F
100
AcDbEntity
  8
0
100
AcDbLine
 10
48.68589368726128
 20
-13.75183242981235
 30
0.0
 11
48.52505928907173
 21
-13.86850982380488
 31
0.0
  0
LINE
  5
297
330
1F
100
AcDbEntity
  8
0
100
AcDbLine
 10
38.40314038025449
 20
85.02970715019654
 30
0.0
 11
38.33423395251547
 21
84.843338638569
 31
0.0
  0
LINE
  5
298
330
1F
100
AcDbEntity
  8
0
100
AcDbLine
 10
40.60543991680231
 20
86.85867765257817
 30
0.0
 11
40.4121978025785
 21
86.81243045590318
 31
0.0
  0
LINE
  5
299
330
1F
100
AcDbEntity
  8
0
100
AcDbLine
 10
43.04956395935066
 20
86.30379122617474
 30
0.0
 11
42.88738009659152
 21
86.41858544454179
 31
0.0
  0
LINE
  5
29A
330
1F
100
AcDbEntity
  8
0
100
AcDbLine
 10
53.00827784611246
 20
-14.73313790273234
 30
0.0
 11
52.90236934030604
 21
-14.56501679665749
 31
0.0
  0
LINE
  5
29B
330
1F
100
AcDbEntity
  8
0
100
AcDbLine
 10
41.39609697365157
 20
86.91513110528898
 30
0.0
 11
41.19746976951411
 21
86.92047448310383
 31
0.0
  0
LINE
  5
29C
330
1F
100
AcDbEntity
  8
0
100
AcDbLine
 10
47.45003175491028
 20
-15.49788606279876
 30
0.0
 11
47.40604080338527
 21
-15.69165425960612
 31
0.0
  0
LINE
  5
29D
330
1F
100
AcDbEntity
  8
0
100
AcDbLine
 10
41.03424646240585
 20
80.85304106126024
 30
0.0
 11
41.23287366654348
 21
80.8476976834452
 31
0.0
  0
LINE
  5
29E
330
1F
100
AcDbEntity
  8
0
100
AcDbLine
 10
44.02720305580302
 20
82.73846501635232
 30
0.0
 11
44.09610948354204
 21
82.92483352798006
 31
0.0
  0
LINE
  5
29F
330
1F
100
AcDbEntity
  8
0
100
AcDbLine
 10
40.2223941459355
 20
86.75364363905727
 30
0.0
 11
40.03684171527021
 21
86.68256893621435
 31
0.0
  0
LINE
  5
2A0
330
1F
100
AcDbEntity
  8
0
100
AcDbLine
 10
44.09610948354204
 20
82.92483352798006
 30
0.0
 11
44.15267929347952
 21
83.11530970631634
 31
0.0
  0
LINE
  5
2A1
330
1F
100
AcDbEntity
  8
0
100
AcDbLine
 10
42.57400836148035
 20
81.16866146638411
 30
0.0
 11
42.74869625505366
 21
81.26334756752307
 31
0.0
  0
LINE
  5
2A2
330
1F
100
AcDbEntity
  8
0
100
AcDbLine
 10
41.23287366654348
 20
80.8476976834452
 30
0.0
 11
41.43142506821965
 21
80.8553565869129
 31
0.0
  0
LINE
  5
2A3
330
1F
100
AcDbEntity
  8
0
100
AcDbLine
 10
42.88738009659152
 20
86.41858544454179
 30
0.0
 11
42.71803558083325
 21
86.52252654754065
 31
0.0
  0
LINE
  5
2A4
330
1F
100
AcDbEntity
  8
0
100
AcDbLine
 10
43.48637768231565
 20
85.8994250972837
 30
0.0
 11
43.3497053780294
 21
86.0436540789452
 31
0.0
  0
LINE
  5
2A5
330
1F
100
AcDbEntity
  8
0
100
AcDbLine
 10
38.18644222166692
 20
83.6678327330834
 30
0.0
 11
38.20707060981724
 21
83.47020736145234
 31
0.0
  0
LINE
  5
2A6
330
1F
100
AcDbEntity
  8
0
100
AcDbLine
 10
43.3497053780294
 20
86.0436540789452
 30
0.0
 11
43.20389267291149
 21
86.17863545890592
 31
0.0
  0
LINE
  5
2A7
330
1F
100
AcDbEntity
  8
0
100
AcDbLine
 10
49.20920932760259
 20
-13.46817958681721
 30
0.0
 11
49.02870268690945
 21
-13.55123782286701
 31
0.0
  0
LINE
  5
2A8
330
1F
100
AcDbEntity
  8
0
100
AcDbLine
 10
39.85633507457715
 20
86.59951070016474
 30
0.0
 11
39.68164718100385
 21
86.5048245990258
 31
0.0
  0
LINE
  5
2A9
330
1F
100
AcDbEntity
  8
0
100
AcDbLine
 10
44.08472927381137
 20
84.87686365536764
 30
0.0
 11
44.01365457096872
 21
85.06241608603293
 31
0.0
  0
LINE
  5
2AA
330
1F
100
AcDbEntity
  8
0
100
AcDbLine
 10
44.22327282624018
 20
84.2979648050967
 30
0.0
 11
44.18976328733262
 21
84.49381788450101
 31
0.0
  0
LINE
  5
2AB
330
1F
100
AcDbEntity
  8
0
100
AcDbLine
 10
41.98394809498707
 20
86.82159365872542
 30
0.0
 11
41.79017989817989
 21
86.86558461025025
 31
0.0
  0
LINE
  5
2AC
330
1F
100
AcDbEntity
  8
0
100
AcDbLine
 10
43.83591023378016
 20
85.41761062029911
 30
0.0
 11
43.73000172797357
 21
85.58573172637425
 31
0.0
  0
LINE
  5
2AD
330
1F
100
AcDbEntity
  8
0
100
AcDbLine
 10
43.5097210936602
 20
81.89536512839172
 30
0.0
 11
43.63487686092901
 21
82.04969384195265
 31
0.0
  0
LINE
  5
2AE
330
1F
100
AcDbEntity
  8
0
100
AcDbLine
 10
41.19746976951411
 20
86.92047448310383
 30
0.0
 11
40.99891836783776
 21
86.91281557963632
 31
0.0
  0
LINE
  5
2AF
330
1F
100
AcDbEntity
  8
0
100
AcDbLine
 10
-50.19499120815762
 20
-5.420888179130688
 30
0.0
 11
-50.2055860129218
 21
-5.459189652058015
 31
0.0
  0
LINE
  5
2B0
330
1F
100
AcDbEntity
  8
0
100
AcDbLine
 10
-49.5508950596619
 20
-4.997994030121672
 30
0.0
 11
-49.59052752439995
 21
-4.995075048247422
 31
0.0
  0
LINE
  5
2B1
330
1F
100
AcDbEntity
  8
0
100
AcDbLine
 10
-49.43432448877554
 20
-5.022160738499351
 30
0.0
 11
-49.47262596170293
 21
-5.011565933735172
 31
0.0
  0
LINE
  5
2B2
330
1F
100
AcDbEntity
  8
0
100
AcDbLine
 10
-50.12840011989795
 20
-5.277017925363072
 30
0.0
 11
-50.14854706609324
 21
-5.31127216999646
 31
0.0
  0
LINE
  5
2B3
330
1F
100
AcDbEntity
  8
0
100
AcDbLine
 10
51.25255273112534
 20
-28.38158042520383
 30
0.0
 11
52.04305421764935
 21
-28.29906687260309
 31
0.0
  0
LINE
  5
2B4
330
1F
100
AcDbEntity
  8
0
100
AcDbLine
 10
-49.47262596170293
 20
-5.011565933735172
 30
0.0
 11
-49.51153836162161
 21
-5.003498849444727
 31
0.0
  0
LINE
  5
2B5
330
1F
100
AcDbEntity
  8
0
100
AcDbLine
 10
-49.19659392931
 20
-5.161984133870694
 30
0.0
 11
-49.22625951401687
 21
-5.13554163398101
 31
0.0
  0
LINE
  5
2B6
330
1F
100
AcDbEntity
  8
0
100
AcDbLine
 10
-49.36020705663298
 20
-5.050741405314889
 30
0.0
 11
-49.39679795562702
 21
-5.035237895156678
 31
0.0
  0
LINE
  5
2B7
330
1F
100
AcDbEntity
  8
0
100
AcDbLine
 10
-50.2055860129218
 20
-5.459189652058015
 30
0.0
 11
-50.21365309721205
 21
-5.498102051976964
 31
0.0
  0
LINE
  5
2B8
330
1F
100
AcDbEntity
  8
0
100
AcDbLine
 10
60.94130118742518
 20
-22.2781178909753
 30
0.0
 11
61.31187277090505
 21
-21.57499785280491
 31
0.0
  0
LINE
  5
2B9
330
1F
100
AcDbEntity
  8
0
100
AcDbLine
 10
57.19412190276029
 20
-26.32598247953675
 30
0.0
 11
57.83745949551898
 21
-25.8592729035661
 31
0.0
  0
LINE
  5
2BA
330
1F
100
AcDbEntity
  8
0
100
AcDbLine
 10
-49.3247084796413
 20
-5.068604880563339
 30
0.0
 11
-49.36020705663298
 21
-5.050741405314889
 31
0.0
  0
LINE
  5
2BB
330
1F
100
AcDbEntity
  8
0
100
AcDbLine
 10
-49.51153836162161
 20
-5.003498849444727
 30
0.0
 11
-49.5508950596619
 21
-4.997994030121672
 31
0.0
  0
LINE
  5
2BC
330
1F
100
AcDbEntity
  8
0
100
AcDbLine
 10
52.04305421764935
 20
-28.29906687260309
 30
0.0
 11
52.8264665352668
 21
-28.16502871697252
 31
0.0
  0
LINE
  5
2BD
330
1F
100
AcDbEntity
  8
0
100
AcDbLine
 10
62.51171941841847
 20
-16.99036346224873
 30
0.0
 11
62.53309292967882
 21
-16.19585464569838
 31
0.0
  0
LINE
  5
2BE
330
1F
100
AcDbEntity
  8
0
100
AcDbLine
 10
-50.25107179546173
 20
-11.49869581585882
 30
0.0
 11
-50.21255303112096
 21
-11.51148054823231
 31
0.0
  0
LINE
  5
2BF
330
1F
100
AcDbEntity
  8
0
100
AcDbLine
 10
-49.89723700526641
 20
-5.063985223008022
 30
0.0
 11
-49.93181189479699
 21
-5.083576795950271
 31
0.0
  0
LINE
  5
2C0
330
1F
100
AcDbEntity
  8
0
100
AcDbLine
 10
-49.25759100466725
 20
-5.111095971584207
 30
0.0
 11
-49.2904542350079
 21
-5.08875182675883
 31
0.0
  0
LINE
  5
2C1
330
1F
100
AcDbEntity
  8
0
100
AcDbLine
 10
-50.02684170624862
 20
-5.155284973490069
 30
0.0
 11
-50.05516781278617
 21
-5.183157619665348
 31
0.0
  0
LINE
  5
2C2
330
1F
100
AcDbEntity
  8
0
100
AcDbLine
 10
-49.96503140665794
 20
-5.105387727799326
 30
0.0
 11
-49.99675328979961
 21
-5.129324620795964
 31
0.0
  0
LINE
  5
2C3
330
1F
100
AcDbEntity
  8
0
100
AcDbLine
 10
52.8264665352668
 20
-28.16502871697252
 30
0.0
 11
53.59943499216186
 21
-27.98003993027233
 31
0.0
  0
LINE
  5
2C4
330
1F
100
AcDbEntity
  8
0
100
AcDbLine
 10
-49.59052752439995
 20
-4.995075048247422
 30
0.0
 11
-49.63026604353777
 21
-4.994754403350156
 31
0.0
  0
LINE
  5
2C5
330
1F
100
AcDbEntity
  8
0
100
AcDbLine
 10
62.13756963216443
 20
-19.34176794759018
 30
0.0
 11
62.31353343826466
 21
-18.56669516036163
 31
0.0
  0
LINE
  5
2C6
330
1F
100
AcDbEntity
  8
0
100
AcDbLine
 10
-49.39679795562702
 20
-5.035237895156678
 30
0.0
 11
-49.43432448877554
 21
-5.022160738499351
 31
0.0
  0
LINE
  5
2C7
330
1F
100
AcDbEntity
  8
0
100
AcDbLine
 10
59.56573683288694
 20
-24.22154625928782
 30
0.0
 11
60.06635990196231
 21
-23.60423140504459
 31
0.0
  0
LINE
  5
2C8
330
1F
100
AcDbEntity
  8
0
100
AcDbLine
 10
60.06635990196231
 20
-23.60423140504459
 30
0.0
 11
60.52553677543045
 21
-22.95549595400817
 31
0.0
  0
LINE
  5
2C9
330
1F
100
AcDbEntity
  8
0
100
AcDbLine
 10
-50.08161031267568
 20
-5.2128232043723
 30
0.0
 11
-50.10605597507249
 21
-5.244154695022607
 31
0.0
  0
LINE
  5
2CA
330
1F
100
AcDbEntity
  8
0
100
AcDbLine
 10
55.82288590416742
 20
-27.12836090731808
 30
0.0
 11
56.52163747846089
 21
-26.74961650276264
 31
0.0
  0
LINE
  5
2CB
330
1F
100
AcDbEntity
  8
0
100
AcDbLine
 10
-49.2904542350079
 20
-5.08875182675883
 30
0.0
 11
-49.3247084796413
 21
-5.068604880563339
 31
0.0
  0
LINE
  5
2CC
330
1F
100
AcDbEntity
  8
0
100
AcDbLine
 10
61.63566468145816
 20
-20.84914670744519
 30
0.0
 11
61.91129039241444
 21
-20.10367266093562
 31
0.0
  0
LINE
  5
2CD
330
1F
100
AcDbEntity
  8
0
100
AcDbLine
 10
60.52553677543045
 20
-22.95549595400817
 30
0.0
 11
60.94130118742518
 21
-22.2781178909753
 31
0.0
  0
LINE
  5
2CE
330
1F
100
AcDbEntity
  8
0
100
AcDbLine
 10
62.43842830668304
 20
-17.78177327991587
 30
0.0
 11
62.51171941841847
 21
-16.99036346224873
 31
0.0
  0
LINE
  5
2CF
330
1F
100
AcDbEntity
  8
0
100
AcDbLine
 10
62.31353343826466
 20
-18.56669516036163
 30
0.0
 11
62.43842830668304
 21
-17.78177327991587
 31
0.0
  0
LINE
  5
2D0
330
1F
100
AcDbEntity
  8
0
100
AcDbLine
 10
54.35864961873404
 20
-27.74489266288766
 30
0.0
 11
55.10085934139538
 21
-27.46059385151709
 31
0.0
  0
LINE
  5
2D1
330
1F
100
AcDbEntity
  8
0
100
AcDbLine
 10
-49.82461848307815
 20
-5.031785867452231
 30
0.0
 11
-49.86145479305143
 21
-5.04669690309525
 31
0.0
  0
LINE
  5
2D2
330
1F
100
AcDbEntity
  8
0
100
AcDbLine
 10
-50.10605597507249
 20
-5.244154695022607
 30
0.0
 11
-50.12840011989795
 21
-5.277017925363072
 31
0.0
  0
LINE
  5
2D3
330
1F
100
AcDbEntity
  8
0
100
AcDbLine
 10
59.02581131304325
 20
-24.80479707975976
 30
0.0
 11
59.56573683288694
 21
-24.22154625928782
 31
0.0
  0
LINE
  5
2D4
330
1F
100
AcDbEntity
  8
0
100
AcDbLine
 10
-50.18191405150011
 20
-5.383361645982084
 30
0.0
 11
-50.19499120815762
 21
-5.420888179130688
 31
0.0
  0
LINE
  5
2D5
330
1F
100
AcDbEntity
  8
0
100
AcDbLine
 10
-49.70938085379006
 20
-5.001902484333042
 30
0.0
 11
-49.74841836314148
 21
-5.009340601032756
 31
0.0
  0
LINE
  5
2D6
330
1F
100
AcDbEntity
  8
0
100
AcDbLine
 10
-49.63026604353777
 20
-4.994754403350156
 30
0.0
 11
-49.66994045063491
 21
-4.997033468481074
 31
0.0
  0
LINE
  5
2D7
330
1F
100
AcDbEntity
  8
0
100
AcDbLine
 10
56.52163747846089
 20
-26.74961650276264
 30
0.0
 11
57.19412190276029
 21
-26.32598247953675
 31
0.0
  0
LINE
  5
2D8
330
1F
100
AcDbEntity
  8
0
100
AcDbLine
 10
-50.16641054134171
 20
-5.346770746988335
 30
0.0
 11
-50.18191405150011
 21
-5.383361645982084
 31
0.0
  0
LINE
  5
2D9
330
1F
100
AcDbEntity
  8
0
100
AcDbLine
 10
-49.99675328979961
 20
-5.129324620795964
 30
0.0
 11
-50.02684170624862
 21
-5.155284973490069
 31
0.0
  0
LINE
  5
2DA
330
1F
100
AcDbEntity
  8
0
100
AcDbLine
 10
-50.14854706609324
 20
-5.31127216999646
 30
0.0
 11
-50.16641054134171
 21
-5.346770746988335
 31
0.0
  0
LINE
  5
2DB
330
1F
100
AcDbEntity
  8
0
100
AcDbLine
 10
58.44889538639807
 20
-25.35148629690476
 30
0.0
 11
59.02581131304325
 21
-24.80479707975976
 31
0.0
  0
LINE
  5
2DC
330
1F
100
AcDbEntity
  8
0
100
AcDbLine
 10
-50.21365309721205
 20
-5.498102051976964
 30
0.0
 11
-50.21915791652262
 21
-5.537458750010143
 31
0.0
  0
LINE
  5
2DD
330
1F
100
AcDbEntity
  8
0
100
AcDbLine
 10
53.59943499216186
 20
-27.98003993027233
 30
0.0
 11
54.35864961873404
 21
-27.74489266288766
 31
0.0
  0
LINE
  5
2DE
330
1F
100
AcDbEntity
  8
0
100
AcDbLine
 10
55.10085934139538
 20
-27.46059385151709
 30
0.0
 11
55.82288590416742
 21
-27.12836090731808
 31
0.0
  0
LINE
  5
2DF
330
1F
100
AcDbEntity
  8
0
100
AcDbLine
 10
-49.66994045063491
 20
-4.997033468481074
 30
0.0
 11
-49.70938085379006
 21
-5.001902484333042
 31
0.0
  0
LINE
  5
2E0
330
1F
100
AcDbEntity
  8
0
100
AcDbLine
 10
61.91129039241444
 20
-20.10367266093562
 30
0.0
 11
62.13756963216443
 21
-19.34176794759018
 31
0.0
  0
LINE
  5
2E1
330
1F
100
AcDbEntity
  8
0
100
AcDbLine
 10
-49.78688581408104
 20
-5.019315967422695
 30
0.0
 11
-49.82461848307815
 21
-5.031785867452231
 31
0.0
  0
LINE
  5
2E2
330
1F
100
AcDbEntity
  8
0
100
AcDbLine
 10
-49.22625951401687
 20
-5.13554163398101
 30
0.0
 11
-49.25759100466725
 21
-5.111095971584207
 31
0.0
  0
LINE
  5
2E3
330
1F
100
AcDbEntity
  8
0
100
AcDbLine
 10
-50.05516781278617
 20
-5.183157619665348
 30
0.0
 11
-50.08161031267568
 21
-5.2128232043723
 31
0.0
  0
LINE
  5
2E4
330
1F
100
AcDbEntity
  8
0
100
AcDbLine
 10
61.31187277090505
 20
-21.57499785280491
 30
0.0
 11
61.63566468145816
 21
-20.84914670744519
 31
0.0
  0
LINE
  5
2E5
330
1F
100
AcDbEntity
  8
0
100
AcDbLine
 10
57.83745949551898
 20
-25.8592729035661
 30
0.0
 11
58.44889538639807
 21
-25.35148629690476
 31
0.0
  0
LINE
  5
2E6
330
1F
100
AcDbEntity
  8
0
100
AcDbLine
 10
-49.86145479305143
 20
-5.04669690309525
 30
0.0
 11
-49.89723700526641
 21
-5.063985223008022
 31
0.0
  0
LINE
  5
2E7
330
1F
100
AcDbEntity
  8
0
100
AcDbLine
 10
-49.74841836314148
 20
-5.009340601032756
 30
0.0
 11
-49.78688581408104
 21
-5.019315967422695
 31
0.0
  0
LINE
  5
2E8
330
1F
100
AcDbEntity
  8
0
100
AcDbLine
 10
-49.93181189479699
 20
-5.083576795950271
 30
0.0
 11
-49.96503140665794
 21
-5.105387727799326
 31
0.0
  0
LINE
  5
2E9
330
1F
100
AcDbEntity
  8
0
100
AcDbLine
 10
50.45834712441984
 20
-28.412216039075
 30
0.0
 11
51.25255273112534
 21
-28.38158042520383
 31
0.0
  0
LINE
  5
2EA
330
1F
100
AcDbEntity
  8
0
100
AcDbLine
 10
-28.06031614412272
 20
-62.45946165860909
 30
0.0
 11
-171.0861970046986
 21
-62.45946165860909
 31
0.0
  0
LINE
  5
2EB
330
1F
100
AcDbEntity
  8
0
100
AcDbLine
 10
-164.8567165744107
 20
-54.07888725860897
 30
0.0
 11
-34.28979657441077
 21
-54.07888725860897
 31
0.0
  0
LINE
  5
2EC
330
1F
100
AcDbEntity
  8
0
100
AcDbLine
 10
-171.0861970046986
 20
-51.77119285860906
 30
0.0
 11
-28.06031614412272
 21
-51.77119285860906
 31
0.0
  0
LINE
  5
2ED
330
1F
100
AcDbEntity
  8
0
100
AcDbLine
 10
-34.28979657441077
 20
-60.15176725860891
 30
0.0
 11
-164.8567165744107
 21
-60.15176725860891
 31
0.0
  0
LINE
  5
2EE
330
1F
100
AcDbEntity
  8
0
100
AcDbLine
 10
-28.06031614412272
 20
-62.45946165860909
 30
0.0
 11
-27.71079303133627
 21
-62.44801945663524
 31
0.0
  0
LINE
  5
2EF
330
1F
100
AcDbEntity
  8
0
100
AcDbLine
 10
-27.71079303133627
 20
-62.44801945663524
 30
0.0
 11
-27.36276663017856
 21
-62.41374184798006
 31
0.0
  0
LINE
  5
2F0
330
1F
100
AcDbEntity
  8
0
100
AcDbLine
 10
-27.36276663017856
 20
-62.41374184798006
 30
0.0
 11
-27.01772724312935
 21
-62.35677561462545
 31
0.0
  0
LINE
  5
2F1
330
1F
100
AcDbEntity
  8
0
100
AcDbLine
 10
-27.01772724312935
 20
-62.35677561462545
 30
0.0
 11
-26.67715238181519
 21
-62.27736469472888
 31
0.0
  0
LINE
  5
2F2
330
1F
100
AcDbEntity
  8
0
100
AcDbLine
 10
-26.67715238181519
 20
-62.27736469472888
 30
0.0
 11
-26.34250044007849
 21
-62.17584913804028
 31
0.0
  0
LINE
  5
2F3
330
1F
100
AcDbEntity
  8
0
100
AcDbLine
 10
-26.34250044007849
 20
-62.17584913804028
 30
0.0
 11
-26.01520444891035
 21
-62.05266364975839
 31
0.0
  0
LINE
  5
2F4
330
1F
100
AcDbEntity
  8
0
100
AcDbLine
 10
-26.01520444891035
 20
-62.05266364975839
 30
0.0
 11
-25.69666593999253
 21
-61.90833572905607
 31
0.0
  0
LINE
  5
2F5
330
1F
100
AcDbEntity
  8
0
100
AcDbLine
 10
-25.69666593999253
 20
-61.90833572905607
 30
0.0
 11
-25.38824894412287
 21
-61.74348341024729
 31
0.0
  0
LINE
  5
2F6
330
1F
100
AcDbEntity
  8
0
100
AcDbLine
 10
-25.38824894412287
 20
-61.74348341024729
 30
0.0
 11
-25.09127415022672
 21
-61.55881261626964
 31
0.0
  0
LINE
  5
2F7
330
1F
100
AcDbEntity
  8
0
100
AcDbLine
 10
-25.09127415022672
 20
-61.55881261626964
 30
0.0
 11
-24.8070132499641
 21
-61.35511413581416
 31
0.0
  0
LINE
  5
2F8
330
1F
100
AcDbEntity
  8
0
100
AcDbLine
 10
-24.8070132499641
 20
-61.35511413581416
 30
0.0
 11
-24.53668349215046
 21
-61.13326023704685
 31
0.0
  0
LINE
  5
2F9
330
1F
100
AcDbEntity
  8
0
100
AcDbLine
 10
-24.53668349215046
 20
-61.13326023704685
 30
0.0
 11
-24.28144247031042
 21
-60.89420093242136
 31
0.0
  0
LINE
  5
2FA
330
1F
100
AcDbEntity
  8
0
100
AcDbLine
 10
-24.28144247031042
 20
-60.89420093242136
 30
0.0
 11
-24.04238316568495
 21
-60.63895991058124
 31
0.0
  0
LINE
  5
2FB
330
1F
100
AcDbEntity
  8
0
100
AcDbLine
 10
-24.04238316568495
 20
-60.63895991058124
 30
0.0
 11
-23.82052926691745
 21
-60.36863015276769
 31
0.0
  0
LINE
  5
2FC
330
1F
100
AcDbEntity
  8
0
100
AcDbLine
 10
-23.82052926691745
 20
-60.36863015276769
 30
0.0
 11
-23.61683078646196
 21
-60.08436925250515
 31
0.0
  0
LINE
  5
2FD
330
1F
100
AcDbEntity
  8
0
100
AcDbLine
 10
-23.61683078646196
 20
-60.08436925250515
 30
0.0
 11
-23.43215999248458
 21
-59.78739445860899
 31
0.0
  0
LINE
  5
2FE
330
1F
100
AcDbEntity
  8
0
100
AcDbLine
 10
-23.43215999248458
 20
-59.78739445860899
 30
0.0
 11
-23.26730767367562
 21
-59.47897746273933
 31
0.0
  0
LINE
  5
2FF
330
1F
100
AcDbEntity
  8
0
100
AcDbLine
 10
-23.26730767367562
 20
-59.47897746273933
 30
0.0
 11
-23.12297975297323
 21
-59.16043895382136
 31
0.0
  0
LINE
  5
300
330
1F
100
AcDbEntity
  8
0
100
AcDbLine
 10
-23.12297975297323
 20
-59.16043895382136
 30
0.0
 11
-22.99979426469167
 21
-58.83314296265329
 31
0.0
  0
LINE
  5
301
330
1F
100
AcDbEntity
  8
0
100
AcDbLine
 10
-22.99979426469167
 20
-58.83314296265329
 30
0.0
 11
-22.89827870800291
 21
-58.49849102091658
 31
0.0
  0
LINE
  5
302
330
1F
100
AcDbEntity
  8
0
100
AcDbLine
 10
-22.89827870800291
 20
-58.49849102091658
 30
0.0
 11
-22.81886778810615
 21
-58.15791615960242
 31
0.0
  0
LINE
  5
303
330
1F
100
AcDbEntity
  8
0
100
AcDbLine
 10
-22.81886778810615
 20
-58.15791615960242
 30
0.0
 11
-22.76190155475182
 21
-57.8128767725533
 31
0.0
  0
LINE
  5
304
330
1F
100
AcDbEntity
  8
0
100
AcDbLine
 10
-22.76190155475182
 20
-57.8128767725533
 30
0.0
 11
-22.72762394609638
 21
-57.4648503713955
 31
0.0
  0
LINE
  5
305
330
1F
100
AcDbEntity
  8
0
100
AcDbLine
 10
-22.72762394609638
 20
-57.4648503713955
 30
0.0
 11
-22.71618174412269
 21
-57.11532725860908
 31
0.0
  0
LINE
  5
306
330
1F
100
AcDbEntity
  8
0
100
AcDbLine
 10
-22.71618174412269
 20
-57.11532725860908
 30
0.0
 11
-22.72762394609638
 21
-56.76580414582264
 31
0.0
  0
LINE
  5
307
330
1F
100
AcDbEntity
  8
0
100
AcDbLine
 10
-22.72762394609638
 20
-56.76580414582264
 30
0.0
 11
-22.76190155475182
 21
-56.41777774466493
 31
0.0
  0
LINE
  5
308
330
1F
100
AcDbEntity
  8
0
100
AcDbLine
 10
-22.76190155475182
 20
-56.41777774466493
 30
0.0
 11
-22.81886778810615
 21
-56.07273835761546
 31
0.0
  0
LINE
  5
309
330
1F
100
AcDbEntity
  8
0
100
AcDbLine
 10
-22.81886778810615
 20
-56.07273835761546
 30
0.0
 11
-22.89827870800291
 21
-55.73216349630138
 31
0.0
  0
LINE
  5
30A
330
1F
100
AcDbEntity
  8
0
100
AcDbLine
 10
-22.89827870800291
 20
-55.73216349630138
 30
0.0
 11
-22.99979426469167
 21
-55.39751155456468
 31
0.0
  0
LINE
  5
30B
330
1F
100
AcDbEntity
  8
0
100
AcDbLine
 10
-22.99979426469167
 20
-55.39751155456468
 30
0.0
 11
-23.12297975297323
 21
-55.07021556339662
 31
0.0
  0
LINE
  5
30C
330
1F
100
AcDbEntity
  8
0
100
AcDbLine
 10
-23.12297975297323
 20
-55.07021556339662
 30
0.0
 11
-23.26730767367562
 21
-54.75167705447863
 31
0.0
  0
LINE
  5
30D
330
1F
100
AcDbEntity
  8
0
100
AcDbLine
 10
-23.26730767367562
 20
-54.75167705447863
 30
0.0
 11
-23.43215999248458
 21
-54.44326005860898
 31
0.0
  0
LINE
  5
30E
330
1F
100
AcDbEntity
  8
0
100
AcDbLine
 10
-23.43215999248458
 20
-54.44326005860898
 30
0.0
 11
-23.61683078646196
 21
-54.1462852647129
 31
0.0
  0
LINE
  5
30F
330
1F
100
AcDbEntity
  8
0
100
AcDbLine
 10
-23.61683078646196
 20
-54.1462852647129
 30
0.0
 11
-23.82052926691745
 21
-53.86202436445047
 31
0.0
  0
LINE
  5
310
330
1F
100
AcDbEntity
  8
0
100
AcDbLine
 10
-23.82052926691745
 20
-53.86202436445047
 30
0.0
 11
-24.04238316568495
 21
-53.59169460663674
 31
0.0
  0
LINE
  5
311
330
1F
100
AcDbEntity
  8
0
100
AcDbLine
 10
-24.04238316568495
 20
-53.59169460663674
 30
0.0
 11
-24.28144247031042
 21
-53.33645358479679
 31
0.0
  0
LINE
  5
312
330
1F
100
AcDbEntity
  8
0
100
AcDbLine
 10
-24.28144247031042
 20
-53.33645358479679
 30
0.0
 11
-24.53668349215046
 21
-53.09739428017129
 31
0.0
  0
LINE
  5
313
330
1F
100
AcDbEntity
  8
0
100
AcDbLine
 10
-24.53668349215046
 20
-53.09739428017129
 30
0.0
 11
-24.8070132499641
 21
-52.87554038140381
 31
0.0
  0
LINE
  5
314
330
1F
100
AcDbEntity
  8
0
100
AcDbLine
 10
-24.8070132499641
 20
-52.87554038140381
 30
0.0
 11
-25.09127415022672
 21
-52.67184190094842
 31
0.0
  0
LINE
  5
315
330
1F
100
AcDbEntity
  8
0
100
AcDbLine
 10
-25.09127415022672
 20
-52.67184190094842
 30
0.0
 11
-25.38824894412287
 21
-52.48717110697068
 31
0.0
  0
LINE
  5
316
330
1F
100
AcDbEntity
  8
0
100
AcDbLine
 10
-25.38824894412287
 20
-52.48717110697068
 30
0.0
 11
-25.69666593999253
 21
-52.3223187881619
 31
0.0
  0
LINE
  5
317
330
1F
100
AcDbEntity
  8
0
100
AcDbLine
 10
-25.69666593999253
 20
-52.3223187881619
 30
0.0
 11
-26.01520444891035
 21
-52.17799086745957
 31
0.0
  0
LINE
  5
318
330
1F
100
AcDbEntity
  8
0
100
AcDbLine
 10
-26.01520444891035
 20
-52.17799086745957
 30
0.0
 11
-26.34250044007849
 21
-52.05480537917776
 31
0.0
  0
LINE
  5
319
330
1F
100
AcDbEntity
  8
0
100
AcDbLine
 10
-26.34250044007849
 20
-52.05480537917776
 30
0.0
 11
-26.67715238181519
 21
-51.95328982248927
 31
0.0
  0
LINE
  5
31A
330
1F
100
AcDbEntity
  8
0
100
AcDbLine
 10
-26.67715238181519
 20
-51.95328982248927
 30
0.0
 11
-27.01772724312935
 21
-51.87387890259251
 31
0.0
  0
LINE
  5
31B
330
1F
100
AcDbEntity
  8
0
100
AcDbLine
 10
-27.01772724312935
 20
-51.87387890259251
 30
0.0
 11
-27.36276663017849
 21
-51.81691266923792
 31
0.0
  0
LINE
  5
31C
330
1F
100
AcDbEntity
  8
0
100
AcDbLine
 10
-27.36276663017849
 20
-51.81691266923792
 30
0.0
 11
-27.71079303133627
 21
-51.78263506058273
 31
0.0
  0
LINE
  5
31D
330
1F
100
AcDbEntity
  8
0
100
AcDbLine
 10
-27.71079303133627
 20
-51.78263506058273
 30
0.0
 11
-28.06031614412272
 21
-51.77119285860906
 31
0.0
  0
LINE
  5
31E
330
1F
100
AcDbEntity
  8
0
100
AcDbLine
 10
-164.8567165744107
 20
-54.07888725860897
 30
0.0
 11
-165.0553092521303
 21
-54.08538850973033
 31
0.0
  0
LINE
  5
31F
330
1F
100
AcDbEntity
  8
0
100
AcDbLine
 10
-165.0553092521303
 20
-54.08538850973033
 30
0.0
 11
-165.2530515255152
 21
-54.10486442373915
 31
0.0
  0
LINE
  5
320
330
1F
100
AcDbEntity
  8
0
100
AcDbLine
 10
-165.2530515255152
 20
-54.10486442373915
 30
0.0
 11
-165.4490966317933
 21
-54.13723160178132
 31
0.0
  0
LINE
  5
321
330
1F
100
AcDbEntity
  8
0
100
AcDbLine
 10
-165.4490966317933
 20
-54.13723160178132
 30
0.0
 11
-165.6426050757218
 21
-54.18235144263188
 31
0.0
  0
LINE
  5
322
330
1F
100
AcDbEntity
  8
0
100
AcDbLine
 10
-165.6426050757218
 20
-54.18235144263188
 30
0.0
 11
-165.8327482244358
 21
-54.24003073620478
 31
0.0
  0
LINE
  5
323
330
1F
100
AcDbEntity
  8
0
100
AcDbLine
 10
-165.8327482244358
 20
-54.24003073620478
 30
0.0
 11
-166.0187118557813
 21
-54.31002249091041
 31
0.0
  0
LINE
  5
324
330
1F
100
AcDbEntity
  8
0
100
AcDbLine
 10
-166.0187118557813
 20
-54.31002249091041
 30
0.0
 11
-166.1996996449392
 21
-54.39202699130953
 31
0.0
  0
LINE
  5
325
330
1F
100
AcDbEntity
  8
0
100
AcDbLine
 10
-166.1996996449392
 20
-54.39202699130953
 30
0.0
 11
-166.3749365744106
 21
-54.4856930815417
 31
0.0
  0
LINE
  5
326
330
1F
100
AcDbEntity
  8
0
100
AcDbLine
 10
-166.3749365744106
 20
-54.4856930815417
 30
0.0
 11
-166.5436722527607
 21
-54.59061966902896
 31
0.0
  0
LINE
  5
327
330
1F
100
AcDbEntity
  8
0
100
AcDbLine
 10
-166.5436722527607
 20
-54.59061966902896
 30
0.0
 11
-166.7051841279099
 21
-54.70635744201499
 31
0.0
  0
LINE
  5
328
330
1F
100
AcDbEntity
  8
0
100
AcDbLine
 10
-166.7051841279099
 20
-54.70635744201499
 30
0.0
 11
-166.8587805812131
 21
-54.83241079358755
 31
0.0
  0
LINE
  5
329
330
1F
100
AcDbEntity
  8
0
100
AcDbLine
 10
-166.8587805812131
 20
-54.83241079358755
 30
0.0
 11
-167.0038038890767
 21
-54.968239943943
 31
0.0
  0
LINE
  5
32A
330
1F
100
AcDbEntity
  8
0
100
AcDbLine
 10
-167.0038038890767
 20
-54.968239943943
 30
0.0
 11
-167.1396330394321
 21
-55.11326325180668
 31
0.0
  0
LINE
  5
32B
330
1F
100
AcDbEntity
  8
0
100
AcDbLine
 10
-167.1396330394321
 20
-55.11326325180668
 30
0.0
 11
-167.2656863910046
 21
-55.26685970510986
 31
0.0
  0
LINE
  5
32C
330
1F
100
AcDbEntity
  8
0
100
AcDbLine
 10
-167.2656863910046
 20
-55.26685970510986
 30
0.0
 11
-167.3814241639906
 21
-55.42837158025903
 31
0.0
  0
LINE
  5
32D
330
1F
100
AcDbEntity
  8
0
100
AcDbLine
 10
-167.3814241639906
 20
-55.42837158025903
 30
0.0
 11
-167.4863507514779
 21
-55.59710725860889
 31
0.0
  0
LINE
  5
32E
330
1F
100
AcDbEntity
  8
0
100
AcDbLine
 10
-167.4863507514779
 20
-55.59710725860889
 30
0.0
 11
-167.5800168417102
 21
-55.77234418808047
 31
0.0
  0
LINE
  5
32F
330
1F
100
AcDbEntity
  8
0
100
AcDbLine
 10
-167.5800168417102
 20
-55.77234418808047
 30
0.0
 11
-167.6620213421093
 21
-55.95333197723836
 31
0.0
  0
LINE
  5
330
330
1F
100
AcDbEntity
  8
0
100
AcDbLine
 10
-167.6620213421093
 20
-55.95333197723836
 30
0.0
 11
-167.7320130968147
 21
-56.13929560858381
 31
0.0
  0
LINE
  5
331
330
1F
100
AcDbEntity
  8
0
100
AcDbLine
 10
-167.7320130968147
 20
-56.13929560858381
 30
0.0
 11
-167.7896923903878
 21
-56.32943875729795
 31
0.0
  0
LINE
  5
332
330
1F
100
AcDbEntity
  8
0
100
AcDbLine
 10
-167.7896923903878
 20
-56.32943875729795
 30
0.0
 11
-167.8348122312383
 21
-56.52294720122631
 31
0.0
  0
LINE
  5
333
330
1F
100
AcDbEntity
  8
0
100
AcDbLine
 10
-167.8348122312383
 20
-56.52294720122631
 30
0.0
 11
-167.8671794092806
 21
-56.71899230750423
 31
0.0
  0
LINE
  5
334
330
1F
100
AcDbEntity
  8
0
100
AcDbLine
 10
-167.8671794092806
 20
-56.71899230750423
 30
0.0
 11
-167.8866553232892
 21
-56.91673458088946
 31
0.0
  0
LINE
  5
335
330
1F
100
AcDbEntity
  8
0
100
AcDbLine
 10
-167.8866553232892
 20
-56.91673458088946
 30
0.0
 11
-167.8931565744107
 21
-57.11532725860908
 31
0.0
  0
LINE
  5
336
330
1F
100
AcDbEntity
  8
0
100
AcDbLine
 10
-167.8931565744107
 20
-57.11532725860908
 30
0.0
 11
-167.8866553232892
 21
-57.31391993632851
 31
0.0
  0
LINE
  5
337
330
1F
100
AcDbEntity
  8
0
100
AcDbLine
 10
-167.8866553232892
 20
-57.31391993632851
 30
0.0
 11
-167.8671794092806
 21
-57.51166220971373
 31
0.0
  0
LINE
  5
338
330
1F
100
AcDbEntity
  8
0
100
AcDbLine
 10
-167.8671794092806
 20
-57.51166220971373
 30
0.0
 11
-167.8348122312383
 21
-57.70770731599166
 31
0.0
  0
LINE
  5
339
330
1F
100
AcDbEntity
  8
0
100
AcDbLine
 10
-167.8348122312383
 20
-57.70770731599166
 30
0.0
 11
-167.7896923903878
 21
-57.90121575992019
 31
0.0
  0
LINE
  5
33A
330
1F
100
AcDbEntity
  8
0
100
AcDbLine
 10
-167.7896923903878
 20
-57.90121575992019
 30
0.0
 11
-167.7320130968147
 21
-58.09135890863416
 31
0.0
  0
LINE
  5
33B
330
1F
100
AcDbEntity
  8
0
100
AcDbLine
 10
-167.7320130968147
 20
-58.09135890863416
 30
0.0
 11
-167.6620213421093
 21
-58.27732253997961
 31
0.0
  0
LINE
  5
33C
330
1F
100
AcDbEntity
  8
0
100
AcDbLine
 10
-167.6620213421093
 20
-58.27732253997961
 30
0.0
 11
-167.5800168417102
 21
-58.4583103291375
 31
0.0
  0
LINE
  5
33D
330
1F
100
AcDbEntity
  8
0
100
AcDbLine
 10
-167.5800168417102
 20
-58.4583103291375
 30
0.0
 11
-167.4863507514779
 21
-58.63354725860908
 31
0.0
  0
LINE
  5
33E
330
1F
100
AcDbEntity
  8
0
100
AcDbLine
 10
-167.4863507514779
 20
-58.63354725860908
 30
0.0
 11
-167.3814241639906
 21
-58.80228293695895
 31
0.0
  0
LINE
  5
33F
330
1F
100
AcDbEntity
  8
0
100
AcDbLine
 10
-167.3814241639906
 20
-58.80228293695895
 30
0.0
 11
-167.2656863910046
 21
-58.96379481210829
 31
0.0
  0
LINE
  5
340
330
1F
100
AcDbEntity
  8
0
100
AcDbLine
 10
-167.2656863910046
 20
-58.96379481210829
 30
0.0
 11
-167.1396330394321
 21
-59.11739126541156
 31
0.0
  0
LINE
  5
341
330
1F
100
AcDbEntity
  8
0
100
AcDbLine
 10
-167.1396330394321
 20
-59.11739126541156
 30
0.0
 11
-167.0038038890767
 21
-59.26241457327514
 31
0.0
  0
LINE
  5
342
330
1F
100
AcDbEntity
  8
0
100
AcDbLine
 10
-167.0038038890767
 20
-59.26241457327514
 30
0.0
 11
-166.8587805812131
 21
-59.39824372363042
 31
0.0
  0
LINE
  5
343
330
1F
100
AcDbEntity
  8
0
100
AcDbLine
 10
-166.8587805812131
 20
-59.39824372363042
 30
0.0
 11
-166.7051841279099
 21
-59.52429707520298
 31
0.0
  0
LINE
  5
344
330
1F
100
AcDbEntity
  8
0
100
AcDbLine
 10
-166.7051841279099
 20
-59.52429707520298
 30
0.0
 11
-166.5436722527607
 21
-59.64003484818901
 31
0.0
  0
LINE
  5
345
330
1F
100
AcDbEntity
  8
0
100
AcDbLine
 10
-166.5436722527607
 20
-59.64003484818901
 30
0.0
 11
-166.3749365744106
 21
-59.74496143567619
 31
0.0
  0
LINE
  5
346
330
1F
100
AcDbEntity
  8
0
100
AcDbLine
 10
-166.3749365744106
 20
-59.74496143567619
 30
0.0
 11
-166.1996996449392
 21
-59.83862752590861
 31
0.0
  0
LINE
  5
347
330
1F
100
AcDbEntity
  8
0
100
AcDbLine
 10
-166.1996996449392
 20
-59.83862752590861
 30
0.0
 11
-166.0187118557813
 21
-59.92063202630756
 31
0.0
  0
LINE
  5
348
330
1F
100
AcDbEntity
  8
0
100
AcDbLine
 10
-166.0187118557813
 20
-59.92063202630756
 30
0.0
 11
-165.8327482244358
 21
-59.9906237810132
 31
0.0
  0
LINE
  5
349
330
1F
100
AcDbEntity
  8
0
100
AcDbLine
 10
-165.8327482244358
 20
-59.9906237810132
 30
0.0
 11
-165.6426050757218
 21
-60.04830307458608
 31
0.0
  0
LINE
  5
34A
330
1F
100
AcDbEntity
  8
0
100
AcDbLine
 10
-165.6426050757218
 20
-60.04830307458608
 30
0.0
 11
-165.4490966317933
 21
-60.09342291543656
 31
0.0
  0
LINE
  5
34B
330
1F
100
AcDbEntity
  8
0
100
AcDbLine
 10
-165.4490966317933
 20
-60.09342291543656
 30
0.0
 11
-165.2530515255152
 21
-60.12579009347882
 31
0.0
  0
LINE
  5
34C
330
1F
100
AcDbEntity
  8
0
100
AcDbLine
 10
-165.2530515255152
 20
-60.12579009347882
 30
0.0
 11
-165.0553092521303
 21
-60.14526600748772
 31
0.0
  0
LINE
  5
34D
330
1F
100
AcDbEntity
  8
0
100
AcDbLine
 10
-165.0553092521303
 20
-60.14526600748772
 30
0.0
 11
-164.8567165744107
 21
-60.15176725860891
 31
0.0
  0
LINE
  5
34E
330
1F
100
AcDbEntity
  8
0
100
AcDbLine
 10
-34.28979657441077
 20
-60.15176725860891
 30
0.0
 11
-34.09120389669106
 21
-60.14526600748772
 31
0.0
  0
LINE
  5
34F
330
1F
100
AcDbEntity
  8
0
100
AcDbLine
 10
-34.09120389669106
 20
-60.14526600748772
 30
0.0
 11
-33.89346162330592
 21
-60.12579009347882
 31
0.0
  0
LINE
  5
350
330
1F
100
AcDbEntity
  8
0
100
AcDbLine
 10
-33.89346162330592
 20
-60.12579009347882
 30
0.0
 11
-33.697416517028
 21
-60.09342291543656
 31
0.0
  0
LINE
  5
351
330
1F
100
AcDbEntity
  8
0
100
AcDbLine
 10
-33.697416517028
 20
-60.09342291543656
 30
0.0
 11
-33.50390807309965
 21
-60.04830307458608
 31
0.0
  0
LINE
  5
352
330
1F
100
AcDbEntity
  8
0
100
AcDbLine
 10
-33.50390807309965
 20
-60.04830307458608
 30
0.0
 11
-33.31376492438549
 21
-59.9906237810132
 31
0.0
  0
LINE
  5
353
330
1F
100
AcDbEntity
  8
0
100
AcDbLine
 10
-33.31376492438549
 20
-59.9906237810132
 30
0.0
 11
-33.12780129304014
 21
-59.92063202630756
 31
0.0
  0
LINE
  5
354
330
1F
100
AcDbEntity
  8
0
100
AcDbLine
 10
-33.12780129304014
 20
-59.92063202630756
 30
0.0
 11
-32.94681350388205
 21
-59.83862752590861
 31
0.0
  0
LINE
  5
355
330
1F
100
AcDbEntity
  8
0
100
AcDbLine
 10
-32.94681350388205
 20
-59.83862752590861
 30
0.0
 11
-32.77157657441067
 21
-59.74496143567619
 31
0.0
  0
LINE
  5
356
330
1F
100
AcDbEntity
  8
0
100
AcDbLine
 10
-32.77157657441067
 20
-59.74496143567619
 30
0.0
 11
-32.60284089606062
 21
-59.64003484818901
 31
0.0
  0
LINE
  5
357
330
1F
100
AcDbEntity
  8
0
100
AcDbLine
 10
-32.60284089606062
 20
-59.64003484818901
 30
0.0
 11
-32.44132902091135
 21
-59.52429707520298
 31
0.0
  0
LINE
  5
358
330
1F
100
AcDbEntity
  8
0
100
AcDbLine
 10
-32.44132902091135
 20
-59.52429707520298
 30
0.0
 11
-32.2877325676082
 21
-59.39824372363042
 31
0.0
  0
LINE
  5
359
330
1F
100
AcDbEntity
  8
0
100
AcDbLine
 10
-32.2877325676082
 20
-59.39824372363042
 30
0.0
 11
-32.14270925974459
 21
-59.26241457327514
 31
0.0
  0
LINE
  5
35A
330
1F
100
AcDbEntity
  8
0
100
AcDbLine
 10
-32.14270925974459
 20
-59.26241457327514
 30
0.0
 11
-32.00688010938924
 21
-59.11739126541156
 31
0.0
  0
LINE
  5
35B
330
1F
100
AcDbEntity
  8
0
100
AcDbLine
 10
-32.00688010938924
 20
-59.11739126541156
 30
0.0
 11
-31.88082675781669
 21
-58.96379481210829
 31
0.0
  0
LINE
  5
35C
330
1F
100
AcDbEntity
  8
0
100
AcDbLine
 10
-31.88082675781669
 20
-58.96379481210829
 30
0.0
 11
-31.76508898483064
 21
-58.80228293695895
 31
0.0
  0
LINE
  5
35D
330
1F
100
AcDbEntity
  8
0
100
AcDbLine
 10
-31.76508898483064
 20
-58.80228293695895
 30
0.0
 11
-31.66016239734338
 21
-58.63354725860908
 31
0.0
  0
LINE
  5
35E
330
1F
100
AcDbEntity
  8
0
100
AcDbLine
 10
-31.66016239734338
 20
-58.63354725860908
 30
0.0
 11
-31.56649630711129
 21
-58.4583103291375
 31
0.0
  0
LINE
  5
35F
330
1F
100
AcDbEntity
  8
0
100
AcDbLine
 10
-31.56649630711129
 20
-58.4583103291375
 30
0.0
 11
-31.4844918067121
 21
-58.27732253997961
 31
0.0
  0
LINE
  5
360
330
1F
100
AcDbEntity
  8
0
100
AcDbLine
 10
-31.4844918067121
 20
-58.27732253997961
 30
0.0
 11
-31.41450005200656
 21
-58.09135890863416
 31
0.0
  0
LINE
  5
361
330
1F
100
AcDbEntity
  8
0
100
AcDbLine
 10
-31.41450005200656
 20
-58.09135890863416
 30
0.0
 11
-31.35682075843357
 21
-57.90121575992019
 31
0.0
  0
LINE
  5
362
330
1F
100
AcDbEntity
  8
0
100
AcDbLine
 10
-31.35682075843357
 20
-57.90121575992019
 30
0.0
 11
-31.31170091758301
 21
-57.70770731599166
 31
0.0
  0
LINE
  5
363
330
1F
100
AcDbEntity
  8
0
100
AcDbLine
 10
-31.31170091758301
 20
-57.70770731599166
 30
0.0
 11
-31.27933373954092
 21
-57.51166220971373
 31
0.0
  0
LINE
  5
364
330
1F
100
AcDbEntity
  8
0
100
AcDbLine
 10
-31.27933373954092
 20
-57.51166220971373
 30
0.0
 11
-31.25985782553203
 21
-57.31391993632851
 31
0.0
  0
LINE
  5
365
330
1F
100
AcDbEntity
  8
0
100
AcDbLine
 10
-31.25985782553203
 20
-57.31391993632851
 30
0.0
 11
-31.25335657441066
 21
-57.11532725860908
 31
0.0
  0
LINE
  5
366
330
1F
100
AcDbEntity
  8
0
100
AcDbLine
 10
-31.25335657441066
 20
-57.11532725860908
 30
0.0
 11
-31.25985782553203
 21
-56.91673458088946
 31
0.0
  0
LINE
  5
367
330
1F
100
AcDbEntity
  8
0
100
AcDbLine
 10
-31.25985782553203
 20
-56.91673458088946
 30
0.0
 11
-31.27933373954092
 21
-56.71899230750423
 31
0.0
  0
LINE
  5
368
330
1F
100
AcDbEntity
  8
0
100
AcDbLine
 10
-31.27933373954092
 20
-56.71899230750423
 30
0.0
 11
-31.31170091758301
 21
-56.52294720122631
 31
0.0
  0
LINE
  5
369
330
1F
100
AcDbEntity
  8
0
100
AcDbLine
 10
-31.31170091758301
 20
-56.52294720122631
 30
0.0
 11
-31.35682075843357
 21
-56.32943875729795
 31
0.0
  0
LINE
  5
36A
330
1F
100
AcDbEntity
  8
0
100
AcDbLine
 10
-31.35682075843357
 20
-56.32943875729795
 30
0.0
 11
-31.41450005200656
 21
-56.13929560858381
 31
0.0
  0
LINE
  5
36B
330
1F
100
AcDbEntity
  8
0
100
AcDbLine
 10
-31.41450005200656
 20
-56.13929560858381
 30
0.0
 11
-31.48449180671201
 21
-55.95333197723836
 31
0.0
  0
LINE
  5
36C
330
1F
100
AcDbEntity
  8
0
100
AcDbLine
 10
-31.48449180671201
 20
-55.95333197723836
 30
0.0
 11
-31.56649630711129
 21
-55.77234418808047
 31
0.0
  0
LINE
  5
36D
330
1F
100
AcDbEntity
  8
0
100
AcDbLine
 10
-31.56649630711129
 20
-55.77234418808047
 30
0.0
 11
-31.66016239734338
 21
-55.59710725860889
 31
0.0
  0
LINE
  5
36E
330
1F
100
AcDbEntity
  8
0
100
AcDbLine
 10
-31.66016239734338
 20
-55.59710725860889
 30
0.0
 11
-31.76508898483064
 21
-55.42837158025903
 31
0.0
  0
LINE
  5
36F
330
1F
100
AcDbEntity
  8
0
100
AcDbLine
 10
-31.76508898483064
 20
-55.42837158025903
 30
0.0
 11
-31.88082675781669
 21
-55.26685970510986
 31
0.0
  0
LINE
  5
370
330
1F
100
AcDbEntity
  8
0
100
AcDbLine
 10
-31.88082675781669
 20
-55.26685970510986
 30
0.0
 11
-32.00688010938924
 21
-55.11326325180668
 31
0.0
  0
LINE
  5
371
330
1F
100
AcDbEntity
  8
0
100
AcDbLine
 10
-32.00688010938924
 20
-55.11326325180668
 30
0.0
 11
-32.14270925974459
 21
-54.968239943943
 31
0.0
  0
LINE
  5
372
330
1F
100
AcDbEntity
  8
0
100
AcDbLine
 10
-32.14270925974459
 20
-54.968239943943
 30
0.0
 11
-32.2877325676082
 21
-54.83241079358763
 31
0.0
  0
LINE
  5
373
330
1F
100
AcDbEntity
  8
0
100
AcDbLine
 10
-32.2877325676082
 20
-54.83241079358763
 30
0.0
 11
-32.44132902091135
 21
-54.70635744201499
 31
0.0
  0
LINE
  5
374
330
1F
100
AcDbEntity
  8
0
100
AcDbLine
 10
-32.44132902091135
 20
-54.70635744201499
 30
0.0
 11
-32.60284089606062
 21
-54.59061966902896
 31
0.0
  0
LINE
  5
375
330
1F
100
AcDbEntity
  8
0
100
AcDbLine
 10
-32.60284089606062
 20
-54.59061966902896
 30
0.0
 11
-32.77157657441067
 21
-54.4856930815417
 31
0.0
  0
LINE
  5
376
330
1F
100
AcDbEntity
  8
0
100
AcDbLine
 10
-32.77157657441067
 20
-54.4856930815417
 30
0.0
 11
-32.94681350388205
 21
-54.39202699130953
 31
0.0
  0
LINE
  5
377
330
1F
100
AcDbEntity
  8
0
100
AcDbLine
 10
-32.94681350388205
 20
-54.39202699130953
 30
0.0
 11
-33.12780129304014
 21
-54.31002249091041
 31
0.0
  0
LINE
  5
378
330
1F
100
AcDbEntity
  8
0
100
AcDbLine
 10
-33.12780129304014
 20
-54.31002249091041
 30
0.0
 11
-33.31376492438549
 21
-54.24003073620478
 31
0.0
  0
LINE
  5
379
330
1F
100
AcDbEntity
  8
0
100
AcDbLine
 10
-33.31376492438549
 20
-54.24003073620478
 30
0.0
 11
-33.50390807309965
 21
-54.18235144263188
 31
0.0
  0
LINE
  5
37A
330
1F
100
AcDbEntity
  8
0
100
AcDbLine
 10
-33.50390807309965
 20
-54.18235144263188
 30
0.0
 11
-33.697416517028
 21
-54.13723160178141
 31
0.0
  0
LINE
  5
37B
330
1F
100
AcDbEntity
  8
0
100
AcDbLine
 10
-33.697416517028
 20
-54.13723160178141
 30
0.0
 11
-33.89346162330592
 21
-54.10486442373915
 31
0.0
  0
LINE
  5
37C
330
1F
100
AcDbEntity
  8
0
100
AcDbLine
 10
-33.89346162330592
 20
-54.10486442373915
 30
0.0
 11
-34.09120389669106
 21
-54.08538850973033
 31
0.0
  0
LINE
  5
37D
330
1F
100
AcDbEntity
  8
0
100
AcDbLine
 10
-34.09120389669106
 20
-54.08538850973033
 30
0.0
 11
-34.28979657441077
 21
-54.07888725860897
 31
0.0
  0
LINE
  5
37E
330
1F
100
AcDbEntity
  8
0
100
AcDbLine
 10
-171.0861970046986
 20
-51.77119285860906
 30
0.0
 11
-171.435720117485
 21
-51.78263506058273
 31
0.0
  0
LINE
  5
37F
330
1F
100
AcDbEntity
  8
0
100
AcDbLine
 10
-171.435720117485
 20
-51.78263506058273
 30
0.0
 11
-171.7837465186428
 21
-51.81691266923792
 31
0.0
  0
LINE
  5
380
330
1F
100
AcDbEntity
  8
0
100
AcDbLine
 10
-171.7837465186428
 20
-51.81691266923792
 30
0.0
 11
-172.128785905692
 21
-51.87387890259251
 31
0.0
  0
LINE
  5
381
330
1F
100
AcDbEntity
  8
0
100
AcDbLine
 10
-172.128785905692
 20
-51.87387890259251
 30
0.0
 11
-172.4693607670061
 21
-51.95328982248927
 31
0.0
  0
LINE
  5
382
330
1F
100
AcDbEntity
  8
0
100
AcDbLine
 10
-172.4693607670061
 20
-51.95328982248927
 30
0.0
 11
-172.8040127087427
 21
-52.05480537917768
 31
0.0
  0
LINE
  5
383
330
1F
100
AcDbEntity
  8
0
100
AcDbLine
 10
-172.8040127087427
 20
-52.05480537917768
 30
0.0
 11
-173.1313086999108
 21
-52.17799086745957
 31
0.0
  0
LINE
  5
384
330
1F
100
AcDbEntity
  8
0
100
AcDbLine
 10
-173.1313086999108
 20
-52.17799086745957
 30
0.0
 11
-173.4498472088289
 21
-52.3223187881619
 31
0.0
  0
LINE
  5
385
330
1F
100
AcDbEntity
  8
0
100
AcDbLine
 10
-173.4498472088289
 20
-52.3223187881619
 30
0.0
 11
-173.7582642046985
 21
-52.48717110697068
 31
0.0
  0
LINE
  5
386
330
1F
100
AcDbEntity
  8
0
100
AcDbLine
 10
-173.7582642046985
 20
-52.48717110697068
 30
0.0
 11
-174.0552389985945
 21
-52.67184190094842
 31
0.0
  0
LINE
  5
387
330
1F
100
AcDbEntity
  8
0
100
AcDbLine
 10
-174.0552389985945
 20
-52.67184190094842
 30
0.0
 11
-174.3394998988572
 21
-52.87554038140381
 31
0.0
  0
LINE
  5
388
330
1F
100
AcDbEntity
  8
0
100
AcDbLine
 10
-174.3394998988572
 20
-52.87554038140381
 30
0.0
 11
-174.6098296566709
 21
-53.09739428017129
 31
0.0
  0
LINE
  5
389
330
1F
100
AcDbEntity
  8
0
100
AcDbLine
 10
-174.6098296566709
 20
-53.09739428017129
 30
0.0
 11
-174.8650706785108
 21
-53.33645358479679
 31
0.0
  0
LINE
  5
38A
330
1F
100
AcDbEntity
  8
0
100
AcDbLine
 10
-174.8650706785108
 20
-53.33645358479679
 30
0.0
 11
-175.1041299831363
 21
-53.59169460663674
 31
0.0
  0
LINE
  5
38B
330
1F
100
AcDbEntity
  8
0
100
AcDbLine
 10
-175.1041299831363
 20
-53.59169460663674
 30
0.0
 11
-175.3259838819038
 21
-53.86202436445047
 31
0.0
  0
LINE
  5
38C
330
1F
100
AcDbEntity
  8
0
100
AcDbLine
 10
-175.3259838819038
 20
-53.86202436445047
 30
0.0
 11
-175.5296823623592
 21
-54.1462852647129
 31
0.0
  0
LINE
  5
38D
330
1F
100
AcDbEntity
  8
0
100
AcDbLine
 10
-175.5296823623592
 20
-54.1462852647129
 30
0.0
 11
-175.7143531563369
 21
-54.44326005860898
 31
0.0
  0
LINE
  5
38E
330
1F
100
AcDbEntity
  8
0
100
AcDbLine
 10
-175.7143531563369
 20
-54.44326005860898
 30
0.0
 11
-175.8792054751457
 21
-54.75167705447863
 31
0.0
  0
LINE
  5
38F
330
1F
100
AcDbEntity
  8
0
100
AcDbLine
 10
-175.8792054751457
 20
-54.75167705447863
 30
0.0
 11
-176.023533395848
 21
-55.07021556339662
 31
0.0
  0
LINE
  5
390
330
1F
100
AcDbEntity
  8
0
100
AcDbLine
 10
-176.023533395848
 20
-55.07021556339662
 30
0.0
 11
-176.1467188841298
 21
-55.39751155456468
 31
0.0
  0
LINE
  5
391
330
1F
100
AcDbEntity
  8
0
100
AcDbLine
 10
-176.1467188841298
 20
-55.39751155456468
 30
0.0
 11
-176.2482344408184
 21
-55.73216349630138
 31
0.0
  0
LINE
  5
392
330
1F
100
AcDbEntity
  8
0
100
AcDbLine
 10
-176.2482344408184
 20
-55.73216349630138
 30
0.0
 11
-176.327645360715
 21
-56.07273835761546
 31
0.0
  0
LINE
  5
393
330
1F
100
AcDbEntity
  8
0
100
AcDbLine
 10
-176.327645360715
 20
-56.07273835761546
 30
0.0
 11
-176.3846115940695
 21
-56.41777774466493
 31
0.0
  0
LINE
  5
394
330
1F
100
AcDbEntity
  8
0
100
AcDbLine
 10
-176.3846115940695
 20
-56.41777774466493
 30
0.0
 11
-176.4188892027248
 21
-56.76580414582264
 31
0.0
  0
LINE
  5
395
330
1F
100
AcDbEntity
  8
0
100
AcDbLine
 10
-176.4188892027248
 20
-56.76580414582264
 30
0.0
 11
-176.4303314046986
 21
-57.11532725860908
 31
0.0
  0
LINE
  5
396
330
1F
100
AcDbEntity
  8
0
100
AcDbLine
 10
-176.4303314046986
 20
-57.11532725860908
 30
0.0
 11
-176.4188892027248
 21
-57.4648503713955
 31
0.0
  0
LINE
  5
397
330
1F
100
AcDbEntity
  8
0
100
AcDbLine
 10
-176.4188892027248
 20
-57.4648503713955
 30
0.0
 11
-176.3846115940695
 21
-57.8128767725533
 31
0.0
  0
LINE
  5
398
330
1F
100
AcDbEntity
  8
0
100
AcDbLine
 10
-176.3846115940695
 20
-57.8128767725533
 30
0.0
 11
-176.327645360715
 21
-58.15791615960242
 31
0.0
  0
LINE
  5
399
330
1F
100
AcDbEntity
  8
0
100
AcDbLine
 10
-176.327645360715
 20
-58.15791615960242
 30
0.0
 11
-176.2482344408184
 21
-58.49849102091658
 31
0.0
  0
LINE
  5
39A
330
1F
100
AcDbEntity
  8
0
100
AcDbLine
 10
-176.2482344408184
 20
-58.49849102091658
 30
0.0
 11
-176.1467188841298
 21
-58.83314296265329
 31
0.0
  0
LINE
  5
39B
330
1F
100
AcDbEntity
  8
0
100
AcDbLine
 10
-176.1467188841298
 20
-58.83314296265329
 30
0.0
 11
-176.023533395848
 21
-59.16043895382136
 31
0.0
  0
LINE
  5
39C
330
1F
100
AcDbEntity
  8
0
100
AcDbLine
 10
-176.023533395848
 20
-59.16043895382136
 30
0.0
 11
-175.8792054751457
 21
-59.47897746273933
 31
0.0
  0
LINE
  5
39D
330
1F
100
AcDbEntity
  8
0
100
AcDbLine
 10
-175.8792054751457
 20
-59.47897746273933
 30
0.0
 11
-175.7143531563369
 21
-59.78739445860899
 31
0.0
  0
LINE
  5
39E
330
1F
100
AcDbEntity
  8
0
100
AcDbLine
 10
-175.7143531563369
 20
-59.78739445860899
 30
0.0
 11
-175.5296823623592
 21
-60.08436925250515
 31
0.0
  0
LINE
  5
39F
330
1F
100
AcDbEntity
  8
0
100
AcDbLine
 10
-175.5296823623592
 20
-60.08436925250515
 30
0.0
 11
-175.3259838819038
 21
-60.36863015276769
 31
0.0
  0
LINE
  5
3A0
330
1F
100
AcDbEntity
  8
0
100
AcDbLine
 10
-175.3259838819038
 20
-60.36863015276769
 30
0.0
 11
-175.1041299831363
 21
-60.63895991058124
 31
0.0
  0
LINE
  5
3A1
330
1F
100
AcDbEntity
  8
0
100
AcDbLine
 10
-175.1041299831363
 20
-60.63895991058124
 30
0.0
 11
-174.8650706785108
 21
-60.89420093242136
 31
0.0
  0
LINE
  5
3A2
330
1F
100
AcDbEntity
  8
0
100
AcDbLine
 10
-174.8650706785108
 20
-60.89420093242136
 30
0.0
 11
-174.6098296566709
 21
-61.13326023704685
 31
0.0
  0
LINE
  5
3A3
330
1F
100
AcDbEntity
  8
0
100
AcDbLine
 10
-174.6098296566709
 20
-61.13326023704685
 30
0.0
 11
-174.3394998988572
 21
-61.35511413581416
 31
0.0
  0
LINE
  5
3A4
330
1F
100
AcDbEntity
  8
0
100
AcDbLine
 10
-174.3394998988572
 20
-61.35511413581416
 30
0.0
 11
-174.0552389985946
 21
-61.55881261626964
 31
0.0
  0
LINE
  5
3A5
330
1F
100
AcDbEntity
  8
0
100
AcDbLine
 10
-174.0552389985946
 20
-61.55881261626964
 30
0.0
 11
-173.7582642046985
 21
-61.74348341024729
 31
0.0
  0
LINE
  5
3A6
330
1F
100
AcDbEntity
  8
0
100
AcDbLine
 10
-173.7582642046985
 20
-61.74348341024729
 30
0.0
 11
-173.4498472088289
 21
-61.90833572905607
 31
0.0
  0
LINE
  5
3A7
330
1F
100
AcDbEntity
  8
0
100
AcDbLine
 10
-173.4498472088289
 20
-61.90833572905607
 30
0.0
 11
-173.1313086999108
 21
-62.05266364975839
 31
0.0
  0
LINE
  5
3A8
330
1F
100
AcDbEntity
  8
0
100
AcDbLine
 10
-173.1313086999108
 20
-62.05266364975839
 30
0.0
 11
-172.8040127087427
 21
-62.17584913804028
 31
0.0
  0
LINE
  5
3A9
330
1F
100
AcDbEntity
  8
0
100
AcDbLine
 10
-172.8040127087427
 20
-62.17584913804028
 30
0.0
 11
-172.4693607670061
 21
-62.27736469472888
 31
0.0
  0
LINE
  5
3AA
330
1F
100
AcDbEntity
  8
0
100
AcDbLine
 10
-172.4693607670061
 20
-62.27736469472888
 30
0.0
 11
-172.128785905692
 21
-62.35677561462545
 31
0.0
  0
LINE
  5
3AB
330
1F
100
AcDbEntity
  8
0
100
AcDbLine
 10
-172.128785905692
 20
-62.35677561462545
 30
0.0
 11
-171.7837465186428
 21
-62.41374184798006
 31
0.0
  0
LINE
  5
3AC
330
1F
100
AcDbEntity
  8
0
100
AcDbLine
 10
-171.7837465186428
 20
-62.41374184798006
 30
0.0
 11
-171.4357201174851
 21
-62.44801945663532
 31
0.0
  0
LINE
  5
3AD
330
1F
100
AcDbEntity
  8
0
100
AcDbLine
 10
-171.4357201174851
 20
-62.44801945663532
 30
0.0
 11
-171.0861970046986
 21
-62.45946165860909
 31
0.0
  0
LINE
  5
3AE
330
1F
100
AcDbEntity
  8
0
100
AcDbLine
 10
-28.06031614412272
 20
-47.55946165860881
 30
0.0
 11
-171.0861970046986
 21
-47.55946165860881
 31
0.0
  0
LINE
  5
3AF
330
1F
100
AcDbEntity
  8
0
100
AcDbLine
 10
-164.8567165744107
 20
-39.1788872586087
 30
0.0
 11
-34.28979657441077
 21
-39.1788872586087
 31
0.0
  0
LINE
  5
3B0
330
1F
100
AcDbEntity
  8
0
100
AcDbLine
 10
-171.0861970046986
 20
-36.87119285860879
 30
0.0
 11
-28.06031614412272
 21
-36.87119285860879
 31
0.0
  0
LINE
  5
3B1
330
1F
100
AcDbEntity
  8
0
100
AcDbLine
 10
-34.28979657441077
 20
-45.25176725860864
 30
0.0
 11
-164.8567165744107
 21
-45.25176725860864
 31
0.0
  0
LINE
  5
3B2
330
1F
100
AcDbEntity
  8
0
100
AcDbLine
 10
-28.06031614412272
 20
-47.55946165860881
 30
0.0
 11
-27.71079303133627
 21
-47.54801945663497
 31
0.0
  0
LINE
  5
3B3
330
1F
100
AcDbEntity
  8
0
100
AcDbLine
 10
-27.71079303133627
 20
-47.54801945663497
 30
0.0
 11
-27.36276663017856
 21
-47.51374184797979
 31
0.0
  0
LINE
  5
3B4
330
1F
100
AcDbEntity
  8
0
100
AcDbLine
 10
-27.36276663017856
 20
-47.51374184797979
 30
0.0
 11
-27.01772724312935
 21
-47.45677561462519
 31
0.0
  0
LINE
  5
3B5
330
1F
100
AcDbEntity
  8
0
100
AcDbLine
 10
-27.01772724312935
 20
-47.45677561462519
 30
0.0
 11
-26.67715238181519
 21
-47.37736469472861
 31
0.0
  0
LINE
  5
3B6
330
1F
100
AcDbEntity
  8
0
100
AcDbLine
 10
-26.67715238181519
 20
-47.37736469472861
 30
0.0
 11
-26.34250044007849
 21
-47.27584913804002
 31
0.0
  0
LINE
  5
3B7
330
1F
100
AcDbEntity
  8
0
100
AcDbLine
 10
-26.34250044007849
 20
-47.27584913804002
 30
0.0
 11
-26.01520444891035
 21
-47.15266364975813
 31
0.0
  0
LINE
  5
3B8
330
1F
100
AcDbEntity
  8
0
100
AcDbLine
 10
-26.01520444891035
 20
-47.15266364975813
 30
0.0
 11
-25.69666593999253
 21
-47.0083357290558
 31
0.0
  0
LINE
  5
3B9
330
1F
100
AcDbEntity
  8
0
100
AcDbLine
 10
-25.69666593999253
 20
-47.0083357290558
 30
0.0
 11
-25.38824894412287
 21
-46.84348341024702
 31
0.0
  0
LINE
  5
3BA
330
1F
100
AcDbEntity
  8
0
100
AcDbLine
 10
-25.38824894412287
 20
-46.84348341024702
 30
0.0
 11
-25.09127415022672
 21
-46.65881261626937
 31
0.0
  0
LINE
  5
3BB
330
1F
100
AcDbEntity
  8
0
100
AcDbLine
 10
-25.09127415022672
 20
-46.65881261626937
 30
0.0
 11
-24.8070132499641
 21
-46.45511413581389
 31
0.0
  0
LINE
  5
3BC
330
1F
100
AcDbEntity
  8
0
100
AcDbLine
 10
-24.8070132499641
 20
-46.45511413581389
 30
0.0
 11
-24.53668349215046
 21
-46.23326023704657
 31
0.0
  0
LINE
  5
3BD
330
1F
100
AcDbEntity
  8
0
100
AcDbLine
 10
-24.53668349215046
 20
-46.23326023704657
 30
0.0
 11
-24.28144247031042
 21
-45.99420093242109
 31
0.0
  0
LINE
  5
3BE
330
1F
100
AcDbEntity
  8
0
100
AcDbLine
 10
-24.28144247031042
 20
-45.99420093242109
 30
0.0
 11
-24.04238316568495
 21
-45.73895991058097
 31
0.0
  0
LINE
  5
3BF
330
1F
100
AcDbEntity
  8
0
100
AcDbLine
 10
-24.04238316568495
 20
-45.73895991058097
 30
0.0
 11
-23.82052926691745
 21
-45.46863015276741
 31
0.0
  0
LINE
  5
3C0
330
1F
100
AcDbEntity
  8
0
100
AcDbLine
 10
-23.82052926691745
 20
-45.46863015276741
 30
0.0
 11
-23.61683078646196
 21
-45.18436925250489
 31
0.0
  0
LINE
  5
3C1
330
1F
100
AcDbEntity
  8
0
100
AcDbLine
 10
-23.61683078646196
 20
-45.18436925250489
 30
0.0
 11
-23.43215999248458
 21
-44.88739445860872
 31
0.0
  0
LINE
  5
3C2
330
1F
100
AcDbEntity
  8
0
100
AcDbLine
 10
-23.43215999248458
 20
-44.88739445860872
 30
0.0
 11
-23.26730767367562
 21
-44.57897746273906
 31
0.0
  0
LINE
  5
3C3
330
1F
100
AcDbEntity
  8
0
100
AcDbLine
 10
-23.26730767367562
 20
-44.57897746273906
 30
0.0
 11
-23.12297975297323
 21
-44.26043895382109
 31
0.0
  0
LINE
  5
3C4
330
1F
100
AcDbEntity
  8
0
100
AcDbLine
 10
-23.12297975297323
 20
-44.26043895382109
 30
0.0
 11
-22.99979426469167
 21
-43.93314296265302
 31
0.0
  0
LINE
  5
3C5
330
1F
100
AcDbEntity
  8
0
100
AcDbLine
 10
-22.99979426469167
 20
-43.93314296265302
 30
0.0
 11
-22.89827870800291
 21
-43.59849102091632
 31
0.0
  0
LINE
  5
3C6
330
1F
100
AcDbEntity
  8
0
100
AcDbLine
 10
-22.89827870800291
 20
-43.59849102091632
 30
0.0
 11
-22.81886778810615
 21
-43.25791615960215
 31
0.0
  0
LINE
  5
3C7
330
1F
100
AcDbEntity
  8
0
100
AcDbLine
 10
-22.81886778810615
 20
-43.25791615960215
 30
0.0
 11
-22.76190155475182
 21
-42.91287677255303
 31
0.0
  0
LINE
  5
3C8
330
1F
100
AcDbEntity
  8
0
100
AcDbLine
 10
-22.76190155475182
 20
-42.91287677255303
 30
0.0
 11
-22.72762394609638
 21
-42.56485037139523
 31
0.0
  0
LINE
  5
3C9
330
1F
100
AcDbEntity
  8
0
100
AcDbLine
 10
-22.72762394609638
 20
-42.56485037139523
 30
0.0
 11
-22.71618174412269
 21
-42.2153272586088
 31
0.0
  0
LINE
  5
3CA
330
1F
100
AcDbEntity
  8
0
100
AcDbLine
 10
-22.71618174412269
 20
-42.2153272586088
 30
0.0
 11
-22.72762394609638
 21
-41.86580414582237
 31
0.0
  0
LINE
  5
3CB
330
1F
100
AcDbEntity
  8
0
100
AcDbLine
 10
-22.72762394609638
 20
-41.86580414582237
 30
0.0
 11
-22.76190155475182
 21
-41.51777774466466
 31
0.0
  0
LINE
  5
3CC
330
1F
100
AcDbEntity
  8
0
100
AcDbLine
 10
-22.76190155475182
 20
-41.51777774466466
 30
0.0
 11
-22.81886778810615
 21
-41.17273835761518
 31
0.0
  0
LINE
  5
3CD
330
1F
100
AcDbEntity
  8
0
100
AcDbLine
 10
-22.81886778810615
 20
-41.17273835761518
 30
0.0
 11
-22.89827870800291
 21
-40.83216349630111
 31
0.0
  0
LINE
  5
3CE
330
1F
100
AcDbEntity
  8
0
100
AcDbLine
 10
-22.89827870800291
 20
-40.83216349630111
 30
0.0
 11
-22.99979426469167
 21
-40.4975115545644
 31
0.0
  0
LINE
  5
3CF
330
1F
100
AcDbEntity
  8
0
100
AcDbLine
 10
-22.99979426469167
 20
-40.4975115545644
 30
0.0
 11
-23.12297975297323
 21
-40.17021556339633
 31
0.0
  0
LINE
  5
3D0
330
1F
100
AcDbEntity
  8
0
100
AcDbLine
 10
-23.12297975297323
 20
-40.17021556339633
 30
0.0
 11
-23.26730767367562
 21
-39.85167705447837
 31
0.0
  0
LINE
  5
3D1
330
1F
100
AcDbEntity
  8
0
100
AcDbLine
 10
-23.26730767367562
 20
-39.85167705447837
 30
0.0
 11
-23.43215999248458
 21
-39.5432600586087
 31
0.0
  0
LINE
  5
3D2
330
1F
100
AcDbEntity
  8
0
100
AcDbLine
 10
-23.43215999248458
 20
-39.5432600586087
 30
0.0
 11
-23.61683078646196
 21
-39.24628526471263
 31
0.0
  0
LINE
  5
3D3
330
1F
100
AcDbEntity
  8
0
100
AcDbLine
 10
-23.61683078646196
 20
-39.24628526471263
 30
0.0
 11
-23.82052926691745
 21
-38.96202436445019
 31
0.0
  0
LINE
  5
3D4
330
1F
100
AcDbEntity
  8
0
100
AcDbLine
 10
-23.82052926691745
 20
-38.96202436445019
 30
0.0
 11
-24.04238316568495
 21
-38.69169460663646
 31
0.0
  0
LINE
  5
3D5
330
1F
100
AcDbEntity
  8
0
100
AcDbLine
 10
-24.04238316568495
 20
-38.69169460663646
 30
0.0
 11
-24.28144247031042
 21
-38.43645358479651
 31
0.0
  0
LINE
  5
3D6
330
1F
100
AcDbEntity
  8
0
100
AcDbLine
 10
-24.28144247031042
 20
-38.43645358479651
 30
0.0
 11
-24.53668349215046
 21
-38.19739428017103
 31
0.0
  0
LINE
  5
3D7
330
1F
100
AcDbEntity
  8
0
100
AcDbLine
 10
-24.53668349215046
 20
-38.19739428017103
 30
0.0
 11
-24.8070132499641
 21
-37.97554038140353
 31
0.0
  0
LINE
  5
3D8
330
1F
100
AcDbEntity
  8
0
100
AcDbLine
 10
-24.8070132499641
 20
-37.97554038140353
 30
0.0
 11
-25.09127415022672
 21
-37.77184190094815
 31
0.0
  0
LINE
  5
3D9
330
1F
100
AcDbEntity
  8
0
100
AcDbLine
 10
-25.09127415022672
 20
-37.77184190094815
 30
0.0
 11
-25.38824894412287
 21
-37.58717110697041
 31
0.0
  0
LINE
  5
3DA
330
1F
100
AcDbEntity
  8
0
100
AcDbLine
 10
-25.38824894412287
 20
-37.58717110697041
 30
0.0
 11
-25.69666593999253
 21
-37.42231878816163
 31
0.0
  0
LINE
  5
3DB
330
1F
100
AcDbEntity
  8
0
100
AcDbLine
 10
-25.69666593999253
 20
-37.42231878816163
 30
0.0
 11
-26.01520444891035
 21
-37.2779908674593
 31
0.0
  0
LINE
  5
3DC
330
1F
100
AcDbEntity
  8
0
100
AcDbLine
 10
-26.01520444891035
 20
-37.2779908674593
 30
0.0
 11
-26.34250044007849
 21
-37.1548053791775
 31
0.0
  0
LINE
  5
3DD
330
1F
100
AcDbEntity
  8
0
100
AcDbLine
 10
-26.34250044007849
 20
-37.1548053791775
 30
0.0
 11
-26.67715238181519
 21
-37.05328982248899
 31
0.0
  0
LINE
  5
3DE
330
1F
100
AcDbEntity
  8
0
100
AcDbLine
 10
-26.67715238181519
 20
-37.05328982248899
 30
0.0
 11
-27.01772724312935
 21
-36.97387890259224
 31
0.0
  0
LINE
  5
3DF
330
1F
100
AcDbEntity
  8
0
100
AcDbLine
 10
-27.01772724312935
 20
-36.97387890259224
 30
0.0
 11
-27.36276663017849
 21
-36.91691266923764
 31
0.0
  0
LINE
  5
3E0
330
1F
100
AcDbEntity
  8
0
100
AcDbLine
 10
-27.36276663017849
 20
-36.91691266923764
 30
0.0
 11
-27.71079303133627
 21
-36.88263506058246
 31
0.0
  0
LINE
  5
3E1
330
1F
100
AcDbEntity
  8
0
100
AcDbLine
 10
-27.71079303133627
 20
-36.88263506058246
 30
0.0
 11
-28.06031614412272
 21
-36.87119285860879
 31
0.0
  0
LINE
  5
3E2
330
1F
100
AcDbEntity
  8
0
100
AcDbLine
 10
-164.8567165744107
 20
-39.1788872586087
 30
0.0
 11
-165.0553092521303
 21
-39.18538850973006
 31
0.0
  0
LINE
  5
3E3
330
1F
100
AcDbEntity
  8
0
100
AcDbLine
 10
-165.0553092521303
 20
-39.18538850973006
 30
0.0
 11
-165.2530515255152
 21
-39.20486442373888
 31
0.0
  0
LINE
  5
3E4
330
1F
100
AcDbEntity
  8
0
100
AcDbLine
 10
-165.2530515255152
 20
-39.20486442373888
 30
0.0
 11
-165.4490966317933
 21
-39.23723160178105
 31
0.0
  0
LINE
  5
3E5
330
1F
100
AcDbEntity
  8
0
100
AcDbLine
 10
-165.4490966317933
 20
-39.23723160178105
 30
0.0
 11
-165.6426050757218
 21
-39.28235144263162
 31
0.0
  0
LINE
  5
3E6
330
1F
100
AcDbEntity
  8
0
100
AcDbLine
 10
-165.6426050757218
 20
-39.28235144263162
 30
0.0
 11
-165.8327482244358
 21
-39.3400307362045
 31
0.0
  0
LINE
  5
3E7
330
1F
100
AcDbEntity
  8
0
100
AcDbLine
 10
-165.8327482244358
 20
-39.3400307362045
 30
0.0
 11
-166.0187118557813
 21
-39.41002249091015
 31
0.0
  0
LINE
  5
3E8
330
1F
100
AcDbEntity
  8
0
100
AcDbLine
 10
-166.0187118557813
 20
-39.41002249091015
 30
0.0
 11
-166.1996996449392
 21
-39.49202699130925
 31
0.0
  0
LINE
  5
3E9
330
1F
100
AcDbEntity
  8
0
100
AcDbLine
 10
-166.1996996449392
 20
-39.49202699130925
 30
0.0
 11
-166.3749365744106
 21
-39.58569308154143
 31
0.0
  0
LINE
  5
3EA
330
1F
100
AcDbEntity
  8
0
100
AcDbLine
 10
-166.3749365744106
 20
-39.58569308154143
 30
0.0
 11
-166.5436722527607
 21
-39.69061966902869
 31
0.0
  0
LINE
  5
3EB
330
1F
100
AcDbEntity
  8
0
100
AcDbLine
 10
-166.5436722527607
 20
-39.69061966902869
 30
0.0
 11
-166.7051841279099
 21
-39.80635744201472
 31
0.0
  0
LINE
  5
3EC
330
1F
100
AcDbEntity
  8
0
100
AcDbLine
 10
-166.7051841279099
 20
-39.80635744201472
 30
0.0
 11
-166.8587805812131
 21
-39.93241079358727
 31
0.0
  0
LINE
  5
3ED
330
1F
100
AcDbEntity
  8
0
100
AcDbLine
 10
-166.8587805812131
 20
-39.93241079358727
 30
0.0
 11
-167.0038038890767
 21
-40.06823994394273
 31
0.0
  0
LINE
  5
3EE
330
1F
100
AcDbEntity
  8
0
100
AcDbLine
 10
-167.0038038890767
 20
-40.06823994394273
 30
0.0
 11
-167.1396330394321
 21
-40.2132632518064
 31
0.0
  0
LINE
  5
3EF
330
1F
100
AcDbEntity
  8
0
100
AcDbLine
 10
-167.1396330394321
 20
-40.2132632518064
 30
0.0
 11
-167.2656863910046
 21
-40.36685970510958
 31
0.0
  0
LINE
  5
3F0
330
1F
100
AcDbEntity
  8
0
100
AcDbLine
 10
-167.2656863910046
 20
-40.36685970510958
 30
0.0
 11
-167.3814241639906
 21
-40.52837158025876
 31
0.0
  0
LINE
  5
3F1
330
1F
100
AcDbEntity
  8
0
100
AcDbLine
 10
-167.3814241639906
 20
-40.52837158025876
 30
0.0
 11
-167.4863507514779
 21
-40.69710725860862
 31
0.0
  0
LINE
  5
3F2
330
1F
100
AcDbEntity
  8
0
100
AcDbLine
 10
-167.4863507514779
 20
-40.69710725860862
 30
0.0
 11
-167.5800168417102
 21
-40.87234418808019
 31
0.0
  0
LINE
  5
3F3
330
1F
100
AcDbEntity
  8
0
100
AcDbLine
 10
-167.5800168417102
 20
-40.87234418808019
 30
0.0
 11
-167.6620213421093
 21
-41.05333197723809
 31
0.0
  0
LINE
  5
3F4
330
1F
100
AcDbEntity
  8
0
100
AcDbLine
 10
-167.6620213421093
 20
-41.05333197723809
 30
0.0
 11
-167.7320130968147
 21
-41.23929560858353
 31
0.0
  0
LINE
  5
3F5
330
1F
100
AcDbEntity
  8
0
100
AcDbLine
 10
-167.7320130968147
 20
-41.23929560858353
 30
0.0
 11
-167.7896923903878
 21
-41.42943875729769
 31
0.0
  0
LINE
  5
3F6
330
1F
100
AcDbEntity
  8
0
100
AcDbLine
 10
-167.7896923903878
 20
-41.42943875729769
 30
0.0
 11
-167.8348122312383
 21
-41.62294720122603
 31
0.0
  0
LINE
  5
3F7
330
1F
100
AcDbEntity
  8
0
100
AcDbLine
 10
-167.8348122312383
 20
-41.62294720122603
 30
0.0
 11
-167.8671794092806
 21
-41.81899230750396
 31
0.0
  0
LINE
  5
3F8
330
1F
100
AcDbEntity
  8
0
100
AcDbLine
 10
-167.8671794092806
 20
-41.81899230750396
 30
0.0
 11
-167.8866553232892
 21
-42.01673458088919
 31
0.0
  0
LINE
  5
3F9
330
1F
100
AcDbEntity
  8
0
100
AcDbLine
 10
-167.8866553232892
 20
-42.01673458088919
 30
0.0
 11
-167.8931565744107
 21
-42.2153272586088
 31
0.0
  0
LINE
  5
3FA
330
1F
100
AcDbEntity
  8
0
100
AcDbLine
 10
-167.8931565744107
 20
-42.2153272586088
 30
0.0
 11
-167.8866553232892
 21
-42.41391993632823
 31
0.0
  0
LINE
  5
3FB
330
1F
100
AcDbEntity
  8
0
100
AcDbLine
 10
-167.8866553232892
 20
-42.41391993632823
 30
0.0
 11
-167.8671794092806
 21
-42.61166220971347
 31
0.0
  0
LINE
  5
3FC
330
1F
100
AcDbEntity
  8
0
100
AcDbLine
 10
-167.8671794092806
 20
-42.61166220971347
 30
0.0
 11
-167.8348122312383
 21
-42.80770731599139
 31
0.0
  0
LINE
  5
3FD
330
1F
100
AcDbEntity
  8
0
100
AcDbLine
 10
-167.8348122312383
 20
-42.80770731599139
 30
0.0
 11
-167.7896923903878
 21
-43.00121575991992
 31
0.0
  0
LINE
  5
3FE
330
1F
100
AcDbEntity
  8
0
100
AcDbLine
 10
-167.7896923903878
 20
-43.00121575991992
 30
0.0
 11
-167.7320130968147
 21
-43.19135890863389
 31
0.0
  0
LINE
  5
3FF
330
1F
100
AcDbEntity
  8
0
100
AcDbLine
 10
-167.7320130968147
 20
-43.19135890863389
 30
0.0
 11
-167.6620213421093
 21
-43.37732253997933
 31
0.0
  0
LINE
  5
400
330
1F
100
AcDbEntity
  8
0
100
AcDbLine
 10
-167.6620213421093
 20
-43.37732253997933
 30
0.0
 11
-167.5800168417102
 21
-43.55831032913723
 31
0.0
  0
LINE
  5
401
330
1F
100
AcDbEntity
  8
0
100
AcDbLine
 10
-167.5800168417102
 20
-43.55831032913723
 30
0.0
 11
-167.4863507514779
 21
-43.7335472586088
 31
0.0
  0
LINE
  5
402
330
1F
100
AcDbEntity
  8
0
100
AcDbLine
 10
-167.4863507514779
 20
-43.7335472586088
 30
0.0
 11
-167.3814241639906
 21
-43.90228293695868
 31
0.0
  0
LINE
  5
403
330
1F
100
AcDbEntity
  8
0
100
AcDbLine
 10
-167.3814241639906
 20
-43.90228293695868
 30
0.0
 11
-167.2656863910046
 21
-44.06379481210802
 31
0.0
  0
LINE
  5
404
330
1F
100
AcDbEntity
  8
0
100
AcDbLine
 10
-167.2656863910046
 20
-44.06379481210802
 30
0.0
 11
-167.1396330394321
 21
-44.21739126541129
 31
0.0
  0
LINE
  5
405
330
1F
100
AcDbEntity
  8
0
100
AcDbLine
 10
-167.1396330394321
 20
-44.21739126541129
 30
0.0
 11
-167.0038038890767
 21
-44.36241457327487
 31
0.0
  0
LINE
  5
406
330
1F
100
AcDbEntity
  8
0
100
AcDbLine
 10
-167.0038038890767
 20
-44.36241457327487
 30
0.0
 11
-166.8587805812131
 21
-44.49824372363015
 31
0.0
  0
LINE
  5
407
330
1F
100
AcDbEntity
  8
0
100
AcDbLine
 10
-166.8587805812131
 20
-44.49824372363015
 30
0.0
 11
-166.7051841279099
 21
-44.6242970752027
 31
0.0
  0
LINE
  5
408
330
1F
100
AcDbEntity
  8
0
100
AcDbLine
 10
-166.7051841279099
 20
-44.6242970752027
 30
0.0
 11
-166.5436722527607
 21
-44.74003484818873
 31
0.0
  0
LINE
  5
409
330
1F
100
AcDbEntity
  8
0
100
AcDbLine
 10
-166.5436722527607
 20
-44.74003484818873
 30
0.0
 11
-166.3749365744106
 21
-44.84496143567591
 31
0.0
  0
LINE
  5
40A
330
1F
100
AcDbEntity
  8
0
100
AcDbLine
 10
-166.3749365744106
 20
-44.84496143567591
 30
0.0
 11
-166.1996996449392
 21
-44.93862752590834
 31
0.0
  0
LINE
  5
40B
330
1F
100
AcDbEntity
  8
0
100
AcDbLine
 10
-166.1996996449392
 20
-44.93862752590834
 30
0.0
 11
-166.0187118557813
 21
-45.02063202630728
 31
0.0
  0
LINE
  5
40C
330
1F
100
AcDbEntity
  8
0
100
AcDbLine
 10
-166.0187118557813
 20
-45.02063202630728
 30
0.0
 11
-165.8327482244358
 21
-45.09062378101292
 31
0.0
  0
LINE
  5
40D
330
1F
100
AcDbEntity
  8
0
100
AcDbLine
 10
-165.8327482244358
 20
-45.09062378101292
 30
0.0
 11
-165.6426050757218
 21
-45.14830307458581
 31
0.0
  0
LINE
  5
40E
330
1F
100
AcDbEntity
  8
0
100
AcDbLine
 10
-165.6426050757218
 20
-45.14830307458581
 30
0.0
 11
-165.4490966317933
 21
-45.19342291543629
 31
0.0
  0
LINE
  5
40F
330
1F
100
AcDbEntity
  8
0
100
AcDbLine
 10
-165.4490966317933
 20
-45.19342291543629
 30
0.0
 11
-165.2530515255152
 21
-45.22579009347855
 31
0.0
  0
LINE
  5
410
330
1F
100
AcDbEntity
  8
0
100
AcDbLine
 10
-165.2530515255152
 20
-45.22579009347855
 30
0.0
 11
-165.0553092521303
 21
-45.24526600748746
 31
0.0
  0
LINE
  5
411
330
1F
100
AcDbEntity
  8
0
100
AcDbLine
 10
-165.0553092521303
 20
-45.24526600748746
 30
0.0
 11
-164.8567165744107
 21
-45.25176725860864
 31
0.0
  0
LINE
  5
412
330
1F
100
AcDbEntity
  8
0
100
AcDbLine
 10
-34.28979657441077
 20
-45.25176725860864
 30
0.0
 11
-34.09120389669106
 21
-45.24526600748746
 31
0.0
  0
LINE
  5
413
330
1F
100
AcDbEntity
  8
0
100
AcDbLine
 10
-34.09120389669106
 20
-45.24526600748746
 30
0.0
 11
-33.89346162330592
 21
-45.22579009347855
 31
0.0
  0
LINE
  5
414
330
1F
100
AcDbEntity
  8
0
100
AcDbLine
 10
-33.89346162330592
 20
-45.22579009347855
 30
0.0
 11
-33.697416517028
 21
-45.19342291543629
 31
0.0
  0
LINE
  5
415
330
1F
100
AcDbEntity
  8
0
100
AcDbLine
 10
-33.697416517028
 20
-45.19342291543629
 30
0.0
 11
-33.50390807309965
 21
-45.14830307458581
 31
0.0
  0
LINE
  5
416
330
1F
100
AcDbEntity
  8
0
100
AcDbLine
 10
-33.50390807309965
 20
-45.14830307458581
 30
0.0
 11
-33.31376492438549
 21
-45.09062378101292
 31
0.0
  0
LINE
  5
417
330
1F
100
AcDbEntity
  8
0
100
AcDbLine
 10
-33.31376492438549
 20
-45.09062378101292
 30
0.0
 11
-33.12780129304014
 21
-45.02063202630728
 31
0.0
  0
LINE
  5
418
330
1F
100
AcDbEntity
  8
0
100
AcDbLine
 10
-33.12780129304014
 20
-45.02063202630728
 30
0.0
 11
-32.94681350388205
 21
-44.93862752590834
 31
0.0
  0
LINE
  5
419
330
1F
100
AcDbEntity
  8
0
100
AcDbLine
 10
-32.94681350388205
 20
-44.93862752590834
 30
0.0
 11
-32.77157657441067
 21
-44.84496143567591
 31
0.0
  0
LINE
  5
41A
330
1F
100
AcDbEntity
  8
0
100
AcDbLine
 10
-32.77157657441067
 20
-44.84496143567591
 30
0.0
 11
-32.60284089606062
 21
-44.74003484818873
 31
0.0
  0
LINE
  5
41B
330
1F
100
AcDbEntity
  8
0
100
AcDbLine
 10
-32.60284089606062
 20
-44.74003484818873
 30
0.0
 11
-32.44132902091135
 21
-44.6242970752027
 31
0.0
  0
LINE
  5
41C
330
1F
100
AcDbEntity
  8
0
100
AcDbLine
 10
-32.44132902091135
 20
-44.6242970752027
 30
0.0
 11
-32.2877325676082
 21
-44.49824372363015
 31
0.0
  0
LINE
  5
41D
330
1F
100
AcDbEntity
  8
0
100
AcDbLine
 10
-32.2877325676082
 20
-44.49824372363015
 30
0.0
 11
-32.14270925974459
 21
-44.36241457327487
 31
0.0
  0
LINE
  5
41E
330
1F
100
AcDbEntity
  8
0
100
AcDbLine
 10
-32.14270925974459
 20
-44.36241457327487
 30
0.0
 11
-32.00688010938924
 21
-44.21739126541129
 31
0.0
  0
LINE
  5
41F
330
1F
100
AcDbEntity
  8
0
100
AcDbLine
 10
-32.00688010938924
 20
-44.21739126541129
 30
0.0
 11
-31.88082675781669
 21
-44.06379481210802
 31
0.0
  0
LINE
  5
420
330
1F
100
AcDbEntity
  8
0
100
AcDbLine
 10
-31.88082675781669
 20
-44.06379481210802
 30
0.0
 11
-31.76508898483064
 21
-43.90228293695868
 31
0.0
  0
LINE
  5
421
330
1F
100
AcDbEntity
  8
0
100
AcDbLine
 10
-31.76508898483064
 20
-43.90228293695868
 30
0.0
 11
-31.66016239734338
 21
-43.7335472586088
 31
0.0
  0
LINE
  5
422
330
1F
100
AcDbEntity
  8
0
100
AcDbLine
 10
-31.66016239734338
 20
-43.7335472586088
 30
0.0
 11
-31.56649630711129
 21
-43.55831032913723
 31
0.0
  0
LINE
  5
423
330
1F
100
AcDbEntity
  8
0
100
AcDbLine
 10
-31.56649630711129
 20
-43.55831032913723
 30
0.0
 11
-31.4844918067121
 21
-43.37732253997933
 31
0.0
  0
LINE
  5
424
330
1F
100
AcDbEntity
  8
0
100
AcDbLine
 10
-31.4844918067121
 20
-43.37732253997933
 30
0.0
 11
-31.41450005200656
 21
-43.19135890863389
 31
0.0
  0
LINE
  5
425
330
1F
100
AcDbEntity
  8
0
100
AcDbLine
 10
-31.41450005200656
 20
-43.19135890863389
 30
0.0
 11
-31.35682075843357
 21
-43.00121575991992
 31
0.0
  0
LINE
  5
426
330
1F
100
AcDbEntity
  8
0
100
AcDbLine
 10
-31.35682075843357
 20
-43.00121575991992
 30
0.0
 11
-31.31170091758301
 21
-42.80770731599139
 31
0.0
  0
LINE
  5
427
330
1F
100
AcDbEntity
  8
0
100
AcDbLine
 10
-31.31170091758301
 20
-42.80770731599139
 30
0.0
 11
-31.27933373954092
 21
-42.61166220971347
 31
0.0
  0
LINE
  5
428
330
1F
100
AcDbEntity
  8
0
100
AcDbLine
 10
-31.27933373954092
 20
-42.61166220971347
 30
0.0
 11
-31.25985782553203
 21
-42.41391993632823
 31
0.0
  0
LINE
  5
429
330
1F
100
AcDbEntity
  8
0
100
AcDbLine
 10
-31.25985782553203
 20
-42.41391993632823
 30
0.0
 11
-31.25335657441066
 21
-42.2153272586088
 31
0.0
  0
LINE
  5
42A
330
1F
100
AcDbEntity
  8
0
100
AcDbLine
 10
-31.25335657441066
 20
-42.2153272586088
 30
0.0
 11
-31.25985782553203
 21
-42.01673458088919
 31
0.0
  0
LINE
  5
42B
330
1F
100
AcDbEntity
  8
0
100
AcDbLine
 10
-31.25985782553203
 20
-42.01673458088919
 30
0.0
 11
-31.27933373954092
 21
-41.81899230750396
 31
0.0
  0
LINE
  5
42C
330
1F
100
AcDbEntity
  8
0
100
AcDbLine
 10
-31.27933373954092
 20
-41.81899230750396
 30
0.0
 11
-31.31170091758301
 21
-41.62294720122603
 31
0.0
  0
LINE
  5
42D
330
1F
100
AcDbEntity
  8
0
100
AcDbLine
 10
-31.31170091758301
 20
-41.62294720122603
 30
0.0
 11
-31.35682075843357
 21
-41.42943875729769
 31
0.0
  0
LINE
  5
42E
330
1F
100
AcDbEntity
  8
0
100
AcDbLine
 10
-31.35682075843357
 20
-41.42943875729769
 30
0.0
 11
-31.41450005200656
 21
-41.23929560858353
 31
0.0
  0
LINE
  5
42F
330
1F
100
AcDbEntity
  8
0
100
AcDbLine
 10
-31.41450005200656
 20
-41.23929560858353
 30
0.0
 11
-31.48449180671201
 21
-41.05333197723809
 31
0.0
  0
LINE
  5
430
330
1F
100
AcDbEntity
  8
0
100
AcDbLine
 10
-31.48449180671201
 20
-41.05333197723809
 30
0.0
 11
-31.56649630711129
 21
-40.87234418808019
 31
0.0
  0
LINE
  5
431
330
1F
100
AcDbEntity
  8
0
100
AcDbLine
 10
-31.56649630711129
 20
-40.87234418808019
 30
0.0
 11
-31.66016239734338
 21
-40.69710725860862
 31
0.0
  0
LINE
  5
432
330
1F
100
AcDbEntity
  8
0
100
AcDbLine
 10
-31.66016239734338
 20
-40.69710725860862
 30
0.0
 11
-31.76508898483064
 21
-40.52837158025876
 31
0.0
  0
LINE
  5
433
330
1F
100
AcDbEntity
  8
0
100
AcDbLine
 10
-31.76508898483064
 20
-40.52837158025876
 30
0.0
 11
-31.88082675781669
 21
-40.36685970510958
 31
0.0
  0
LINE
  5
434
330
1F
100
AcDbEntity
  8
0
100
AcDbLine
 10
-31.88082675781669
 20
-40.36685970510958
 30
0.0
 11
-32.00688010938924
 21
-40.2132632518064
 31
0.0
  0
LINE
  5
435
330
1F
100
AcDbEntity
  8
0
100
AcDbLine
 10
-32.00688010938924
 20
-40.2132632518064
 30
0.0
 11
-32.14270925974459
 21
-40.06823994394273
 31
0.0
  0
LINE
  5
436
330
1F
100
AcDbEntity
  8
0
100
AcDbLine
 10
-32.14270925974459
 20
-40.06823994394273
 30
0.0
 11
-32.2877325676082
 21
-39.93241079358736
 31
0.0
  0
LINE
  5
437
330
1F
100
AcDbEntity
  8
0
100
AcDbLine
 10
-32.2877325676082
 20
-39.93241079358736
 30
0.0
 11
-32.44132902091135
 21
-39.80635744201472
 31
0.0
  0
LINE
  5
438
330
1F
100
AcDbEntity
  8
0
100
AcDbLine
 10
-32.44132902091135
 20
-39.80635744201472
 30
0.0
 11
-32.60284089606062
 21
-39.69061966902869
 31
0.0
  0
LINE
  5
439
330
1F
100
AcDbEntity
  8
0
100
AcDbLine
 10
-32.60284089606062
 20
-39.69061966902869
 30
0.0
 11
-32.77157657441067
 21
-39.58569308154143
 31
0.0
  0
LINE
  5
43A
330
1F
100
AcDbEntity
  8
0
100
AcDbLine
 10
-32.77157657441067
 20
-39.58569308154143
 30
0.0
 11
-32.94681350388205
 21
-39.49202699130925
 31
0.0
  0
LINE
  5
43B
330
1F
100
AcDbEntity
  8
0
100
AcDbLine
 10
-32.94681350388205
 20
-39.49202699130925
 30
0.0
 11
-33.12780129304014
 21
-39.41002249091015
 31
0.0
  0
LINE
  5
43C
330
1F
100
AcDbEntity
  8
0
100
AcDbLine
 10
-33.12780129304014
 20
-39.41002249091015
 30
0.0
 11
-33.31376492438549
 21
-39.3400307362045
 31
0.0
  0
LINE
  5
43D
330
1F
100
AcDbEntity
  8
0
100
AcDbLine
 10
-33.31376492438549
 20
-39.3400307362045
 30
0.0
 11
-33.50390807309965
 21
-39.28235144263162
 31
0.0
  0
LINE
  5
43E
330
1F
100
AcDbEntity
  8
0
100
AcDbLine
 10
-33.50390807309965
 20
-39.28235144263162
 30
0.0
 11
-33.697416517028
 21
-39.23723160178113
 31
0.0
  0
LINE
  5
43F
330
1F
100
AcDbEntity
  8
0
100
AcDbLine
 10
-33.697416517028
 20
-39.23723160178113
 30
0.0
 11
-33.89346162330592
 21
-39.20486442373888
 31
0.0
  0
LINE
  5
440
330
1F
100
AcDbEntity
  8
0
100
AcDbLine
 10
-33.89346162330592
 20
-39.20486442373888
 30
0.0
 11
-34.09120389669106
 21
-39.18538850973006
 31
0.0
  0
LINE
  5
441
330
1F
100
AcDbEntity
  8
0
100
AcDbLine
 10
-34.09120389669106
 20
-39.18538850973006
 30
0.0
 11
-34.28979657441077
 21
-39.1788872586087
 31
0.0
  0
LINE
  5
442
330
1F
100
AcDbEntity
  8
0
100
AcDbLine
 10
-171.0861970046986
 20
-36.87119285860879
 30
0.0
 11
-171.435720117485
 21
-36.88263506058246
 31
0.0
  0
LINE
  5
443
330
1F
100
AcDbEntity
  8
0
100
AcDbLine
 10
-171.435720117485
 20
-36.88263506058246
 30
0.0
 11
-171.7837465186428
 21
-36.91691266923764
 31
0.0
  0
LINE
  5
444
330
1F
100
AcDbEntity
  8
0
100
AcDbLine
 10
-171.7837465186428
 20
-36.91691266923764
 30
0.0
 11
-172.128785905692
 21
-36.97387890259224
 31
0.0
  0
LINE
  5
445
330
1F
100
AcDbEntity
  8
0
100
AcDbLine
 10
-172.128785905692
 20
-36.97387890259224
 30
0.0
 11
-172.4693607670061
 21
-37.05328982248899
 31
0.0
  0
LINE
  5
446
330
1F
100
AcDbEntity
  8
0
100
AcDbLine
 10
-172.4693607670061
 20
-37.05328982248899
 30
0.0
 11
-172.8040127087427
 21
-37.15480537917741
 31
0.0
  0
LINE
  5
447
330
1F
100
AcDbEntity
  8
0
100
AcDbLine
 10
-172.8040127087427
 20
-37.15480537917741
 30
0.0
 11
-173.1313086999108
 21
-37.2779908674593
 31
0.0
  0
LINE
  5
448
330
1F
100
AcDbEntity
  8
0
100
AcDbLine
 10
-173.1313086999108
 20
-37.2779908674593
 30
0.0
 11
-173.4498472088289
 21
-37.42231878816163
 31
0.0
  0
LINE
  5
449
330
1F
100
AcDbEntity
  8
0
100
AcDbLine
 10
-173.4498472088289
 20
-37.42231878816163
 30
0.0
 11
-173.7582642046985
 21
-37.58717110697041
 31
0.0
  0
LINE
  5
44A
330
1F
100
AcDbEntity
  8
0
100
AcDbLine
 10
-173.7582642046985
 20
-37.58717110697041
 30
0.0
 11
-174.0552389985945
 21
-37.77184190094815
 31
0.0
  0
LINE
  5
44B
330
1F
100
AcDbEntity
  8
0
100
AcDbLine
 10
-174.0552389985945
 20
-37.77184190094815
 30
0.0
 11
-174.3394998988572
 21
-37.97554038140353
 31
0.0
  0
LINE
  5
44C
330
1F
100
AcDbEntity
  8
0
100
AcDbLine
 10
-174.3394998988572
 20
-37.97554038140353
 30
0.0
 11
-174.6098296566709
 21
-38.19739428017103
 31
0.0
  0
LINE
  5
44D
330
1F
100
AcDbEntity
  8
0
100
AcDbLine
 10
-174.6098296566709
 20
-38.19739428017103
 30
0.0
 11
-174.8650706785108
 21
-38.43645358479651
 31
0.0
  0
LINE
  5
44E
330
1F
100
AcDbEntity
  8
0
100
AcDbLine
 10
-174.8650706785108
 20
-38.43645358479651
 30
0.0
 11
-175.1041299831363
 21
-38.69169460663646
 31
0.0
  0
LINE
  5
44F
330
1F
100
AcDbEntity
  8
0
100
AcDbLine
 10
-175.1041299831363
 20
-38.69169460663646
 30
0.0
 11
-175.3259838819038
 21
-38.96202436445019
 31
0.0
  0
LINE
  5
450
330
1F
100
AcDbEntity
  8
0
100
AcDbLine
 10
-175.3259838819038
 20
-38.96202436445019
 30
0.0
 11
-175.5296823623592
 21
-39.24628526471263
 31
0.0
  0
LINE
  5
451
330
1F
100
AcDbEntity
  8
0
100
AcDbLine
 10
-175.5296823623592
 20
-39.24628526471263
 30
0.0
 11
-175.7143531563369
 21
-39.5432600586087
 31
0.0
  0
LINE
  5
452
330
1F
100
AcDbEntity
  8
0
100
AcDbLine
 10
-175.7143531563369
 20
-39.5432600586087
 30
0.0
 11
-175.8792054751457
 21
-39.85167705447837
 31
0.0
  0
LINE
  5
453
330
1F
100
AcDbEntity
  8
0
100
AcDbLine
 10
-175.8792054751457
 20
-39.85167705447837
 30
0.0
 11
-176.023533395848
 21
-40.17021556339633
 31
0.0
  0
LINE
  5
454
330
1F
100
AcDbEntity
  8
0
100
AcDbLine
 10
-176.023533395848
 20
-40.17021556339633
 30
0.0
 11
-176.1467188841298
 21
-40.4975115545644
 31
0.0
  0
LINE
  5
455
330
1F
100
AcDbEntity
  8
0
100
AcDbLine
 10
-176.1467188841298
 20
-40.4975115545644
 30
0.0
 11
-176.2482344408184
 21
-40.83216349630111
 31
0.0
  0
LINE
  5
456
330
1F
100
AcDbEntity
  8
0
100
AcDbLine
 10
-176.2482344408184
 20
-40.83216349630111
 30
0.0
 11
-176.327645360715
 21
-41.17273835761518
 31
0.0
  0
LINE
  5
457
330
1F
100
AcDbEntity
  8
0
100
AcDbLine
 10
-176.327645360715
 20
-41.17273835761518
 30
0.0
 11
-176.3846115940695
 21
-41.51777774466466
 31
0.0
  0
LINE
  5
458
330
1F
100
AcDbEntity
  8
0
100
AcDbLine
 10
-176.3846115940695
 20
-41.51777774466466
 30
0.0
 11
-176.4188892027248
 21
-41.86580414582237
 31
0.0
  0
LINE
  5
459
330
1F
100
AcDbEntity
  8
0
100
AcDbLine
 10
-176.4188892027248
 20
-41.86580414582237
 30
0.0
 11
-176.4303314046986
 21
-42.2153272586088
 31
0.0
  0
LINE
  5
45A
330
1F
100
AcDbEntity
  8
0
100
AcDbLine
 10
-176.4303314046986
 20
-42.2153272586088
 30
0.0
 11
-176.4188892027248
 21
-42.56485037139523
 31
0.0
  0
LINE
  5
45B
330
1F
100
AcDbEntity
  8
0
100
AcDbLine
 10
-176.4188892027248
 20
-42.56485037139523
 30
0.0
 11
-176.3846115940695
 21
-42.91287677255303
 31
0.0
  0
LINE
  5
45C
330
1F
100
AcDbEntity
  8
0
100
AcDbLine
 10
-176.3846115940695
 20
-42.91287677255303
 30
0.0
 11
-176.327645360715
 21
-43.25791615960215
 31
0.0
  0
LINE
  5
45D
330
1F
100
AcDbEntity
  8
0
100
AcDbLine
 10
-176.327645360715
 20
-43.25791615960215
 30
0.0
 11
-176.2482344408184
 21
-43.59849102091632
 31
0.0
  0
LINE
  5
45E
330
1F
100
AcDbEntity
  8
0
100
AcDbLine
 10
-176.2482344408184
 20
-43.59849102091632
 30
0.0
 11
-176.1467188841298
 21
-43.93314296265302
 31
0.0
  0
LINE
  5
45F
330
1F
100
AcDbEntity
  8
0
100
AcDbLine
 10
-176.1467188841298
 20
-43.93314296265302
 30
0.0
 11
-176.023533395848
 21
-44.26043895382109
 31
0.0
  0
LINE
  5
460
330
1F
100
AcDbEntity
  8
0
100
AcDbLine
 10
-176.023533395848
 20
-44.26043895382109
 30
0.0
 11
-175.8792054751457
 21
-44.57897746273906
 31
0.0
  0
LINE
  5
461
330
1F
100
AcDbEntity
  8
0
100
AcDbLine
 10
-175.8792054751457
 20
-44.57897746273906
 30
0.0
 11
-175.7143531563369
 21
-44.88739445860872
 31
0.0
  0
LINE
  5
462
330
1F
100
AcDbEntity
  8
0
100
AcDbLine
 10
-175.7143531563369
 20
-44.88739445860872
 30
0.0
 11
-175.5296823623592
 21
-45.18436925250489
 31
0.0
  0
LINE
  5
463
330
1F
100
AcDbEntity
  8
0
100
AcDbLine
 10
-175.5296823623592
 20
-45.18436925250489
 30
0.0
 11
-175.3259838819038
 21
-45.46863015276741
 31
0.0
  0
LINE
  5
464
330
1F
100
AcDbEntity
  8
0
100
AcDbLine
 10
-175.3259838819038
 20
-45.46863015276741
 30
0.0
 11
-175.1041299831363
 21
-45.73895991058097
 31
0.0
  0
LINE
  5
465
330
1F
100
AcDbEntity
  8
0
100
AcDbLine
 10
-175.1041299831363
 20
-45.73895991058097
 30
0.0
 11
-174.8650706785108
 21
-45.99420093242109
 31
0.0
  0
LINE
  5
466
330
1F
100
AcDbEntity
  8
0
100
AcDbLine
 10
-174.8650706785108
 20
-45.99420093242109
 30
0.0
 11
-174.6098296566709
 21
-46.23326023704657
 31
0.0
  0
LINE
  5
467
330
1F
100
AcDbEntity
  8
0
100
AcDbLine
 10
-174.6098296566709
 20
-46.23326023704657
 30
0.0
 11
-174.3394998988572
 21
-46.45511413581389
 31
0.0
  0
LINE
  5
468
330
1F
100
AcDbEntity
  8
0
100
AcDbLine
 10
-174.3394998988572
 20
-46.45511413581389
 30
0.0
 11
-174.0552389985946
 21
-46.65881261626937
 31
0.0
  0
LINE
  5
469
330
1F
100
AcDbEntity
  8
0
100
AcDbLine
 10
-174.0552389985946
 20
-46.65881261626937
 30
0.0
 11
-173.7582642046985
 21
-46.84348341024702
 31
0.0
  0
LINE
  5
46A
330
1F
100
AcDbEntity
  8
0
100
AcDbLine
 10
-173.7582642046985
 20
-46.84348341024702
 30
0.0
 11
-173.4498472088289
 21
-47.0083357290558
 31
0.0
  0
LINE
  5
46B
330
1F
100
AcDbEntity
  8
0
100
AcDbLine
 10
-173.4498472088289
 20
-47.0083357290558
 30
0.0
 11
-173.1313086999108
 21
-47.15266364975813
 31
0.0
  0
LINE
  5
46C
330
1F
100
AcDbEntity
  8
0
100
AcDbLine
 10
-173.1313086999108
 20
-47.15266364975813
 30
0.0
 11
-172.8040127087427
 21
-47.27584913804002
 31
0.0
  0
LINE
  5
46D
330
1F
100
AcDbEntity
  8
0
100
AcDbLine
 10
-172.8040127087427
 20
-47.27584913804002
 30
0.0
 11
-172.4693607670061
 21
-47.37736469472861
 31
0.0
  0
LINE
  5
46E
330
1F
100
AcDbEntity
  8
0
100
AcDbLine
 10
-172.4693607670061
 20
-47.37736469472861
 30
0.0
 11
-172.128785905692
 21
-47.45677561462519
 31
0.0
  0
LINE
  5
46F
330
1F
100
AcDbEntity
  8
0
100
AcDbLine
 10
-172.128785905692
 20
-47.45677561462519
 30
0.0
 11
-171.7837465186428
 21
-47.51374184797979
 31
0.0
  0
LINE
  5
470
330
1F
100
AcDbEntity
  8
0
100
AcDbLine
 10
-171.7837465186428
 20
-47.51374184797979
 30
0.0
 11
-171.4357201174851
 21
-47.54801945663505
 31
0.0
  0
LINE
  5
471
330
1F
100
AcDbEntity
  8
0
100
AcDbLine
 10
-171.4357201174851
 20
-47.54801945663505
 30
0.0
 11
-171.0861970046986
 21
-47.55946165860881
 31
0.0
  0
ENDSEC
  0
SECTION
  2
OBJECTS
  0
DICTIONARY
  5
C
330
0
100
AcDbDictionary
  3
ACAD_GROUP
350
D
  3
ACAD_LAYOUT
350
1A
  3
ACAD_MATERIAL
350
43
  3
ACAD_MLEADERSTYLE
350
6B
  3
ACAD_MLINESTYLE
350
17
  3
ACAD_PLOTSETTINGS
350
19
  3
ACAD_SCALELIST
350
47
  3
ACAD_VISUALSTYLE
350
2A
  3
ACDBHEADERROUNDTRIPXREC
350
472
  3
ACDBVARIABLEDICTIONARY
350
493
  0
DICTIONARY
  5
49A
330
8
100
AcDbDictionary
280
     1
  3
ACAD_XREC_ROUNDTRIP
360
49B
  0
DICTIONARY
  5
D
102
{ACAD_REACTORS
330
C
102
}
330
C
100
AcDbDictionary
  0
DICTIONARY
  5
1A
102
{ACAD_REACTORS
330
C
102
}
330
C
100
AcDbDictionary
  0
DICTIONARY
  5
43
102
{ACAD_REACTORS
330
C
102
}
330
C
100
AcDbDictionary
  3
BYBLOCK
350
45
  3
BYLAYER
350
44
  3
GLOBAL
350
46
  0
DICTIONARY
  5
6B
102
{ACAD_REACTORS
330
C
102
}
330
C
100
AcDbDictionary
  3
STANDARD
350
6C
  0
DICTIONARY
  5
17
102
{ACAD_REACTORS
330
C
102
}
330
C
100
AcDbDictionary
  3
STANDARD
350
18
  0
DICTIONARY
  5
19
102
{ACAD_REACTORS
330
C
102
}
330
C
100
AcDbDictionary
  0
DICTIONARY
  5
47
102
{ACAD_REACTORS
330
C
102
}
330
C
100
AcDbDictionary
  3
A0
350
48
  3
A1
350
49
  3
A2
350
4A
  3
A3
350
4B
  3
A4
350
4C
  3
A5
350
4D
  3
A6
350
4E
  3
A7
350
4F
  3
A8
350
50
  3
A9
350
51
  3
B0
350
52
  3
B1
350
53
  3
B2
350
54
  3
B3
350
55
  3
B4
350
56
  3
B5
350
57
  3
B6
350
58
  3
B7
350
59
  3
B8
350
5A
  3
B9
350
5B
  3
C0
350
5C
  3
C1
350
5D
  3
C2
350
5E
  3
C3
350
5F
  3
C4
350
60
  3
C5
350
61
  3
C6
350
62
  3
C7
350
63
  3
C8
350
64
  3
C9
350
65
  3
D0
350
66
  3
D1
350
67
  3
D2
350
68
  0
DICTIONARY
  5
2A
102
{ACAD_REACTORS
330
C
102
}
330
C
100
AcDbDictionary
  3
2DWIREFRAME
350
2F
  3
BASIC
350
32
  3
BRIGHTEN
350
36
  3
COLORCHANGE
350
3A
  3
CONCEPTUAL
350
34
  3
DIM
350
35
  3
EDGECOLOROFF
350
3D
  3
FACEPATTERN
350
39
  3
FLAT
350
2B
  3
FLATWITHEDGES
350
2C
  3
GOURAUD
350
2D
  3
GOURAUDWITHEDGES
350
2E
  3
HIDDEN
350
31
  3
JITTEROFF
350
3B
  3
LINEPATTERN
350
38
  3
OVERHANGOFF
350
3C
  3
REALISTIC
350
33
  3
SHADED
350
42
  3
SHADED_WITH_EDGES
350
41
  3
SHADES_OF_GRAY
350
3E
  3
SKETCHY
350
3F
  3
THICKEN
350
37
  3
WIREFRAME
350
30
  3
X-RAY
350
40
  0
DICTIONARY
  5
472
102
{ACAD_REACTORS
330
C
102
}
330
C
100
AcDbDictionary
  3
CEPSNID
350
47C
  3
CEPSNTYPE
350
47B
  3
DIMSTYLEDATA
350
492
  3
FINGERPRINTGUID
350
47D
  3
HYPERLINKBASE
350
475
  3
INSUNITS
350
47A
  3
LAYOUTDICT
350
477
  3
LWETCUNION
350
479
  3
PLOTSETDICT
350
478
  3
PSVPSCALE
350
47F
  3
PUCSBASE
350
482
  3
PUCSORGBACK
350
488
  3
PUCSORGBOTTOM
350
484
  3
PUCSORGFRONT
350
487
  3
PUCSORGLEFT
350
485
  3
PUCSORGRIGHT
350
486
  3
PUCSORGTOP
350
483
  3
PUCSORTHOREF
350
480
  3
PUCSORTHOVIEW
350
481
  3
STYLESHEET
350
476
  3
TSTACKALIGN
350
473
  3
TSTACKSIZE
350
474
  3
UCSBASE
350
48B
  3
UCSORGBACK
350
491
  3
UCSORGBOTTOM
350
48D
  3
UCSORGFRONT
350
490
  3
UCSORGLEFT
350
48E
  3
UCSORGRIGHT
350
48F
  3
UCSORGTOP
350
48C
  3
UCSORTHOREF
350
489
  3
UCSORTHOVIEW
350
48A
  3
VERSIONGUID
350
47E
  0
DICTIONARY
  5
493
102
{ACAD_REACTORS
330
C
102
}
330
C
100
AcDbDictionary
  3
CANNOSCALE
350
49C
  3
CMLEADERSTYLE
350
495
  3
CTABLESTYLE
350
494
  3
DIMASSOC
350
498
  3
HIDETEXT
350
499
  3
MSLTSCALE
350
49D
  0
XRECORD
  5
49B
102
{ACAD_REACTORS
330
49A
102
}
330
49A
100
AcDbXrecord
102
VTR_0.000_0.000_1.000_1.000_VISUALSTYLE
340
2F
102
VTR_0.000_0.000_1.000_1.000_GRIDDISPLAY
 70
     3
102
VTR_0.000_0.000_1.000_1.000_GRIDMAJOR
 70
     5
102
VTR_0.000_0.000_1.000_1.000_DEFAULTLIGHTING
280
     1
102
VTR_0.000_0.000_1.000_1.000_DEFAULTLIGHTINGTYPE
 70
     1
102
VTR_0.000_0.000_1.000_1.000_BRIGHTNESS
141
0.0
102
VTR_0.000_0.000_1.000_1.000_CONTRAST
142
0.0
  0
MATERIAL
  5
45
102
{ACAD_REACTORS
330
43
102
}
102
{ACAD_XDICTIONARY
360
4A0
102
}
330
43
100
AcDbMaterial
  1
BYBLOCK
  0
MATERIAL
  5
44
102
{ACAD_REACTORS
330
43
102
}
102
{ACAD_XDICTIONARY
360
49E
102
}
330
43
100
AcDbMaterial
  1
BYLAYER
  0
MATERIAL
  5
46
102
{ACAD_REACTORS
330
43
102
}
102
{ACAD_XDICTIONARY
360
4A2
102
}
330
43
100
AcDbMaterial
  1
GLOBAL
  0
ACAD_PROXY_OBJECT
  5
6C
102
{ACAD_REACTORS
330
6B
102
}
330
6B
100
AcDbProxyObject
 90
      499
 91
      505
 93
      610
310
40901902A4063FBFFFFFE056BD1B81E855B9FC0AD7A3703D0AD73F4214DD185B99185C9900AD7A3703D0AC73F90141901A02B5E8DC0F42B1CFC02B5E8DC0F42B1CFE5764000000000000300FC0
340
14
340
0
340
11
340
0
 94
        0
1001
ACAD_MLEADERVER
1070
     2
  0
MLINESTYLE
  5
18
102
{ACAD_REACTORS
330
17
102
}
330
17
100
AcDbMlineStyle
  2
Standard
 70
     0
  3

 62
   256
 51
90.0
 52
90.0
 71
     2
 49
0.5
 62
   256
  6
BYLAYER
 49
-0.5
 62
   256
  6
BYLAYER
  0
ACAD_PROXY_OBJECT
  5
48
102
{ACAD_REACTORS
330
47
102
}
330
47
100
AcDbProxyObject
 90
      499
 91
      503
 93
       41
310
903313A31580
  0
ACAD_PROXY_OBJECT
  5
49
102
{ACAD_REACTORS
330
47
102
}
330
47
100
AcDbProxyObject
 90
      499
 91
      503
 93
      105
310
903313A324000000000000004000
  0
ACAD_PROXY_OBJECT
  5
4A
102
{ACAD_REACTORS
330
47
102
}
330
47
100
AcDbProxyObject
 90
      499
 91
      503
 93
      105
310
903313A344000000000000104000
  0
ACAD_PROXY_OBJECT
  5
4B
102
{ACAD_REACTORS
330
47
102
}
330
47
100
AcDbProxyObject
 90
      499
 91
      503
 93
      105
310
903313A354000000000000144000
  0
ACAD_PROXY_OBJECT
  5
4C
102
{ACAD_REACTORS
330
47
102
}
330
47
100
AcDbProxyObject
 90
      499
 91
      503
 93
      105
310
903313A384000000000000204000
  0
ACAD_PROXY_OBJECT
  5
4D
102
{ACAD_REACTORS
330
47
102
}
330
47
100
AcDbProxyObject
 90
      499
 91
      503
 93
      113
310
904313A31304000000000000244000
  0
ACAD_PROXY_OBJECT
  5
4E
102
{ACAD_REACTORS
330
47
102
}
330
47
100
AcDbProxyObject
 90
      499
 91
      503
 93
      113
310
904313A31364000000000000304000
  0
ACAD_PROXY_OBJECT
  5
4F
102
{ACAD_REACTORS
330
47
102
}
330
47
100
AcDbProxyObject
 90
      499
 91
      503
 93
      113
310
904313A32304000000000000344000
  0
ACAD_PROXY_OBJECT
  5
50
102
{ACAD_REACTORS
330
47
102
}
330
47
100
AcDbProxyObject
 90
      499
 91
      503
 93
      113
310
904313A333040000000000003E4000
  0
ACAD_PROXY_OBJECT
  5
51
102
{ACAD_REACTORS
330
47
102
}
330
47
100
AcDbProxyObject
 90
      499
 91
      503
 93
      113
310
904313A34304000000000000444000
  0
ACAD_PROXY_OBJECT
  5
52
102
{ACAD_REACTORS
330
47
102
}
330
47
100
AcDbProxyObject
 90
      499
 91
      503
 93
      113
310
904313A35304000000000000494000
  0
ACAD_PROXY_OBJECT
  5
53
102
{ACAD_REACTORS
330
47
102
}
330
47
100
AcDbProxyObject
 90
      499
 91
      503
 93
      121
310
905313A3130304000000000000594000
  0
ACAD_PROXY_OBJECT
  5
54
102
{ACAD_REACTORS
330
47
102
}
330
47
100
AcDbProxyObject
 90
      499
 91
      503
 93
      105
310
903323A310000000000000010100
  0
ACAD_PROXY_OBJECT
  5
55
102
{ACAD_REACTORS
330
47
102
}
330
47
100
AcDbProxyObject
 90
      499
 91
      503
 93
      105
310
903343A310000000000000410100
  0
ACAD_PROXY_OBJECT
  5
56
102
{ACAD_REACTORS
330
47
102
}
330
47
100
AcDbProxyObject
 90
      499
 91
      503
 93
      105
310
903383A310000000000000810100
  0
ACAD_PROXY_OBJECT
  5
57
102
{ACAD_REACTORS
330
47
102
}
330
47
100
AcDbProxyObject
 90
      499
 91
      503
 93
      113
310
90431303A310000000000000910100
  0
ACAD_PROXY_OBJECT
  5
58
102
{ACAD_REACTORS
330
47
102
}
330
47
100
AcDbProxyObject
 90
      499
 91
      503
 93
      121
310
9053130303A310000000000001650100
  0
ACAD_PROXY_OBJECT
  5
59
102
{ACAD_REACTORS
330
47
102
}
330
47
100
AcDbProxyObject
 90
      499
 91
      503
 93
      257
310
90E312F31323822203D2031272D3022000000000000200FC000000000000284000
  0
ACAD_PROXY_OBJECT
  5
5A
102
{ACAD_REACTORS
330
47
102
}
330
47
100
AcDbProxyObject
 90
      499
 91
      503
 93
      249
310
90D312F363422203D2031272D3022000000000000240FC000000000000284000
  0
ACAD_PROXY_OBJECT
  5
5B
102
{ACAD_REACTORS
330
47
102
}
330
47
100
AcDbProxyObject
 90
      499
 91
      503
 93
      249
310
90D312F333222203D2031272D3022000000000000280FC000000000000284000
  0
ACAD_PROXY_OBJECT
  5
5C
102
{ACAD_REACTORS
330
47
102
}
330
47
100
AcDbProxyObject
 90
      499
 91
      503
 93
      249
310
90D312F313622203D2031272D30220000000000002C0FC000000000000284000
  0
ACAD_PROXY_OBJECT
  5
5D
102
{ACAD_REACTORS
330
47
102
}
330
47
100
AcDbProxyObject
 90
      499
 91
      503
 93
      249
310
90D332F333222203D2031272D30220000000000002E0FC000000000000284000
  0
ACAD_PROXY_OBJECT
  5
5E
102
{ACAD_REACTORS
330
47
102
}
330
47
100
AcDbProxyObject
 90
      499
 91
      503
 93
      241
310
90C312F3822203D2031272D3022000000000000300FC000000000000284000
  0
ACAD_PROXY_OBJECT
  5
5F
102
{ACAD_REACTORS
330
47
102
}
330
47
100
AcDbProxyObject
 90
      499
 91
      503
 93
      249
310
90D332F313622203D2031272D3022000000000000320FC000000000000284000
  0
ACAD_PROXY_OBJECT
  5
60
102
{ACAD_REACTORS
330
47
102
}
330
47
100
AcDbProxyObject
 90
      499
 91
      503
 93
      241
310
90C312F3422203D2031272D3022000000000000340FC000000000000284000
  0
ACAD_PROXY_OBJECT
  5
61
102
{ACAD_REACTORS
330
47
102
}
330
47
100
AcDbProxyObject
 90
      499
 91
      503
 93
      241
310
90C332F3822203D2031272D3022000000000000360FC000000000000284000
  0
ACAD_PROXY_OBJECT
  5
62
102
{ACAD_REACTORS
330
47
102
}
330
47
100
AcDbProxyObject
 90
      499
 91
      503
 93
      241
310
90C312F3222203D2031272D3022000000000000380FC000000000000284000
  0
ACAD_PROXY_OBJECT
  5
63
102
{ACAD_REACTORS
330
47
102
}
330
47
100
AcDbProxyObject
 90
      499
 91
      503
 93
      241
310
90C332F3422203D2031272D30220000000000003A0FC000000000000284000
  0
ACAD_PROXY_OBJECT
  5
64
102
{ACAD_REACTORS
330
47
102
}
330
47
100
AcDbProxyObject
 90
      499
 91
      503
 93
      161
310
90A3122203D2031272D30224000000000000284000
  0
ACAD_PROXY_OBJECT
  5
65
102
{ACAD_REACTORS
330
47
102
}
330
47
100
AcDbProxyObject
 90
      499
 91
      503
 93
      257
310
90E312D312F3222203D2031272D30220000000000003E0FC000000000000284000
  0
ACAD_PROXY_OBJECT
  5
66
102
{ACAD_REACTORS
330
47
102
}
330
47
100
AcDbProxyObject
 90
      499
 91
      503
 93
      225
310
90A3322203D2031272D302200000000000002100000000000000284000
  0
ACAD_PROXY_OBJECT
  5
67
102
{ACAD_REACTORS
330
47
102
}
330
47
100
AcDbProxyObject
 90
      499
 91
      503
 93
      225
310
90A3622203D2031272D302200000000000006100000000000000284000
  0
ACAD_PROXY_OBJECT
  5
68
102
{ACAD_REACTORS
330
47
102
}
330
47
100
AcDbProxyObject
 90
      499
 91
      503
 93
      249
310
90D31272D3022203D2031272D30220000000000000A100000000000000284000
  0
ACAD_PROXY_OBJECT
  5
2F
102
{ACAD_REACTORS
330
2A
102
}
330
2A
100
AcDbProxyObject
 90
      499
 91
      501
 93
      436
310
42CC9915DA5C99599C985B595049028333333333333E33F0000000000000F90107901411070040501600405405064090741402480A0340
1001
ACAD
1000
AcDbSavedByObjectVersion
1070
     0
  0
ACAD_PROXY_OBJECT
  5
32
102
{ACAD_REACTORS
330
2A
102
}
330
2A
100
AcDbProxyObject
 90
      499
 91
      501
 93
      388
310
4150985CDA58D07406404333333333333E33F0000000000000F90107A41107004050150841D405064090741402480A0350
1001
ACAD
1000
AcDbSavedByObjectVersion
1070
     0
  0
ACAD_PROXY_OBJECT
  5
36
102
{ACAD_REACTORS
330
2A
102
}
330
2A
100
AcDbProxyObject
 90
      499
 91
      501
 93
      428
310
42109C9A59DA1D195B90C409028333333333333E33F0000000000000F9010790141107004050150841D405064090741402480A029950
1001
ACAD
1000
AcDbSavedByObjectVersion
1070
     0
  0
ACAD_PROXY_OBJECT
  5
3A
102
{ACAD_REACTORS
330
2A
102
}
330
2A
100
AcDbProxyObject
 90
      499
 91
      501
 93
      452
310
42D0DBDB1BDC90DA185B99D95104090240C333333333333E33F0000000000000F90108901411070040501508421405064090741402480A0350
1001
ACAD
1000
AcDbSavedByObjectVersion
1070
     0
  0
ACAD_PROXY_OBJECT
  5
34
102
{ACAD_REACTORS
330
2A
102
}
330
2A
100
AcDbProxyObject
 90
      499
 91
      501
 93
      500
310
4290DBDB98D95C1D1D585B10940D028333333333333E33F0000000000000F90107902409070040501000000000018199010841D405064090740C02480A0340
1001
ACAD
1000
AcDbSavedByObjectVersion
1070
     0
  0
ACAD_PROXY_OBJECT
  5
35
102
{ACAD_REACTORS
330
2A
102
}
330
2A
100
AcDbProxyObject
 90
      499
 91
      501
 93
      412
310
40D11A5B50B409028333333333333E33F0000000000000F9010790141107004050150841D405064090741402480A02677FFFFFD0
1001
ACAD
1000
AcDbSavedByObjectVersion
1070
     0
  0
ACAD_PROXY_OBJECT
  5
3D
102
{ACAD_REACTORS
330
2A
102
}
330
2A
100
AcDbProxyObject
 90
      499
 91
      501
 93
      452
310
43115919D950DBDB1BDC93D999916409028333333333333E33F0000000000000F9010790141107004050150841D405064090741402480A0350
1001
ACAD
1000
AcDbSavedByObjectVersion
1070
     0
  0
ACAD_PROXY_OBJECT
  5
39
102
{ACAD_REACTORS
330
2A
102
}
330
2A
100
AcDbProxyObject
 90
      499
 91
      501
 93
      444
310
42D19858D95C185D1D195C9B90F409028333333333333E33F0000000000000F9010790141107004050150841D405064090741402480A0350
1001
ACAD
1000
AcDbSavedByObjectVersion
1070
     0
  0
ACAD_PROXY_OBJECT
  5
2B
102
{ACAD_REACTORS
330
2A
102
}
330
2A
100
AcDbProxyObject
 90
      499
 91
      501
 93
      380
310
41119B185D240901404333333333333E33F0000000000000F9010740A907004050150841D405064090741402480A1B50
1001
ACAD
1000
AcDbSavedByObjectVersion
1070
     0
  0
ACAD_PROXY_OBJECT
  5
2C
102
{ACAD_REACTORS
330
2A
102
}
330
2A
100
AcDbProxyObject
 90
      499
 91
      501
 93
      468
310
43519B185D15DA5D1A115919D95CD0140901404333333333333E33F0000000000000F90107409019070040501600405405064090741402480A1B50
1001
ACAD
1000
AcDbSavedByObjectVersion
1070
     0
  0
ACAD_PROXY_OBJECT
  5
2D
102
{ACAD_REACTORS
330
2A
102
}
330
2A
100
AcDbProxyObject
 90
      499
 91
      501
 93
      404
310
41D1DBDD5C985D5910240902404333333333333E33F0000000000000F9010740A9070040501641D405064090741402480A1B50
1001
ACAD
1000
AcDbSavedByObjectVersion
1070
     0
  0
ACAD_PROXY_OBJECT
  5
2E
102
{ACAD_REACTORS
330
2A
102
}
330
2A
100
AcDbProxyObject
 90
      499
 91
      501
 93
      492
310
4411DBDD5C985D5915DA5D1A115919D95CD0340902404333333333333E33F0000000000000F90107409019070040501600405405064090741402480A1B50
1001
ACAD
1000
AcDbSavedByObjectVersion
1070
     0
  0
ACAD_PROXY_OBJECT
  5
31
102
{ACAD_REACTORS
330
2A
102
}
330
2A
100
AcDbProxyObject
 90
      499
 91
      501
 93
      476
310
41921A5919195B90640502408333333333333E33F0000000000000F901079024090700405020000000000001110200405405064090740C02480A0340
1001
ACAD
1000
AcDbSavedByObjectVersion
1070
     0
  0
ACAD_PROXY_OBJECT
  5
3B
102
{ACAD_REACTORS
330
2A
102
}
330
2A
100
AcDbProxyObject
 90
      499
 91
      501
 93
      428
310
42529A5D1D195C93D999914409028333333333333E33F0000000000000F9010790141107004050150A41D405064090741402480A0350
1001
ACAD
1000
AcDbSavedByObjectVersion
1070
     0
  0
ACAD_PROXY_OBJECT
  5
38
102
{ACAD_REACTORS
330
2A
102
}
330
2A
100
AcDbProxyObject
 90
      499
 91
      501
 93
      444
310
42D31A5B995C185D1D195C9B90E409028333333333333E33F0000000000000F9010790141107004050750841D405064090741402483A0350
1001
ACAD
1000
AcDbSavedByObjectVersion
1070
     0
  0
ACAD_PROXY_OBJECT
  5
3C
102
{ACAD_REACTORS
330
2A
102
}
330
2A
100
AcDbProxyObject
 90
      499
 91
      501
 93
      444
310
42D3DD995C9A185B99D3D999915409028333333333333E33F0000000000000F9010790141107004050150941D405064090741402480A0350
1001
ACAD
1000
AcDbSavedByObjectVersion
1070
     0
  0
ACAD_PROXY_OBJECT
  5
33
102
{ACAD_REACTORS
330
2A
102
}
330
2A
100
AcDbProxyObject
 90
      499
 91
      501
 93
      428
310
425499585B1A5CDD1A58D08409038333333333333E33F0000000000000F9010740A907004050150800405405064090740C02480A1B40
1001
ACAD
1000
AcDbSavedByObjectVersion
1070
     0
  0
ACAD_PROXY_OBJECT
  5
42
102
{ACAD_REACTORS
330
2A
102
}
330
2A
100
AcDbProxyObject
 90
      499
 91
      501
 93
      420
310
4194DA1859195911B40902404333333333333E33F0000000000000F9010740A41107004050150800405405064090840C02480A0B40
1001
ACAD
1000
AcDbSavedByObjectVersion
1070
     0
  0
ACAD_PROXY_OBJECT
  5
41
102
{ACAD_REACTORS
330
2A
102
}
330
2A
100
AcDbProxyObject
 90
      499
 91
      501
 93
      516
310
4454DA18591959081DDA5D1A08195919D95CD1A40902404333333333333E33F0000000000000F901074090142907004050250800405405064090740C02480A0B40
1001
ACAD
1000
AcDbSavedByObjectVersion
1070
     0
  0
ACAD_PROXY_OBJECT
  5
3E
102
{ACAD_REACTORS
330
2A
102
}
330
2A
100
AcDbProxyObject
 90
      499
 91
      501
 93
      532
310
4394DA1859195CC81BD98811DC985E5174090240C333333333333E33F0000000000000F901079024090741D01000000000000111010841D405064090740C02480A0340
1001
ACAD
1000
AcDbSavedByObjectVersion
1070
     0
  0
ACAD_PROXY_OBJECT
  5
3F
102
{ACAD_REACTORS
330
2A
102
}
330
2A
100
AcDbProxyObject
 90
      499
 91
      501
 93
      476
310
41D4DAD95D18DA1E51840502408333333333333E33F0000000000000F901079024090741D01000000000000111010B41D405064090741802480A0340
1001
ACAD
1000
AcDbSavedByObjectVersion
1070
     0
  0
ACAD_PROXY_OBJECT
  5
37
102
{ACAD_REACTORS
330
2A
102
}
330
2A
100
AcDbProxyObject
 90
      499
 91
      501
 93
      412
310
41D51A1A58DAD95B90D409028333333333333E33F0000000000000F9010790141107004050150C41D405064090741402480A0350
1001
ACAD
1000
AcDbSavedByObjectVersion
1070
     0
  0
ACAD_PROXY_OBJECT
  5
30
102
{ACAD_REACTORS
330
2A
102
}
330
2A
100
AcDbProxyObject
 90
      499
 91
      501
 93
      420
310
4255DA5C99599C985B595059028333333333333E33F0000000000000F90107901411070040501600405405064090740C02480A0340
1001
ACAD
1000
AcDbSavedByObjectVersion
1070
     0
  0
ACAD_PROXY_OBJECT
  5
40
102
{ACAD_REACTORS
330
2A
102
}
330
2A
100
AcDbProxyObject
 90
      499
 91
      501
 93
      404
310
41560B54985E51940902404000000000000E03F0000000000000F9010740501907004050150841D405064090740C02480A1B40
1001
ACAD
1000
AcDbSavedByObjectVersion
1070
     0
  0
XRECORD
  5
47C
102
{ACAD_REACTORS
330
472
102
}
330
472
100
AcDbXrecord
340
0
  0
XRECORD
  5
47B
102
{ACAD_REACTORS
330
472
102
}
330
472
100
AcDbXrecord
 90
        0
  0
XRECORD
  5
492
102
{ACAD_REACTORS
330
472
102
}
330
472
100
AcDbXrecord
1000
DSTYLE
1002
{
1070
   171
 70
     2
1070
   143
 40
25.4
1070
   274
 70
     2
1070
    41
 40
0.18
1070
   141
 40
0.09
1070
   271
 70
     4
1070
    43
 40
0.38
1070
   278
 70
    46
1070
    44
 40
0.18
1070
    42
 40
0.0625
1070
   147
 40
0.09
1070
    77
 70
     0
1070
   272
 70
     4
1070
    73
 70
     1
1070
   172
 70
     0
1070
    74
 70
     1
1070
   283
 70
     1
1070
   340
340
11
1070
   140
 40
0.18
1070
   284
 70
     0
1070
    78
 70
     0
1002
}
  0
XRECORD
  5
47D
102
{ACAD_REACTORS
330
472
102
}
330
472
100
AcDbXrecord
  1
{194A440B-FD2D-4E6D-8C71-2E8D8B0165D3}
  0
XRECORD
  5
475
102
{ACAD_REACTORS
330
472
102
}
330
472
100
AcDbXrecord
  1

  0
XRECORD
  5
47A
102
{ACAD_REACTORS
330
472
102
}
330
472
100
AcDbXrecord
 90
        4
  0
XRECORD
  5
477
102
{ACAD_REACTORS
330
472
102
}
330
472
100
AcDbXrecord
340
1A
  0
XRECORD
  5
479
102
{ACAD_REACTORS
330
472
102
}
330
472
100
AcDbXrecord
 90
    10781
  0
XRECORD
  5
478
102
{ACAD_REACTORS
330
472
102
}
330
472
100
AcDbXrecord
340
19
  0
XRECORD
  5
47F
102
{ACAD_REACTORS
330
472
102
}
330
472
100
AcDbXrecord
 40
0.0
  0
XRECORD
  5
482
102
{ACAD_REACTORS
330
472
102
}
330
472
100
AcDbXrecord
340
0
  0
XRECORD
  5
488
102
{ACAD_REACTORS
330
472
102
}
330
472
100
AcDbXrecord
 10
0.0
 20
0.0
 30
0.0
  0
XRECORD
  5
484
102
{ACAD_REACTORS
330
472
102
}
330
472
100
AcDbXrecord
 10
0.0
 20
0.0
 30
0.0
  0
XRECORD
  5
487
102
{ACAD_REACTORS
330
472
102
}
330
472
100
AcDbXrecord
 10
0.0
 20
0.0
 30
0.0
  0
XRECORD
  5
485
102
{ACAD_REACTORS
330
472
102
}
330
472
100
AcDbXrecord
 10
0.0
 20
0.0
 30
0.0
  0
XRECORD
  5
486
102
{ACAD_REACTORS
330
472
102
}
330
472
100
AcDbXrecord
 10
0.0
 20
0.0
 30
0.0
  0
XRECORD
  5
483
102
{ACAD_REACTORS
330
472
102
}
330
472
100
AcDbXrecord
 10
0.0
 20
0.0
 30
0.0
  0
XRECORD
  5
480
102
{ACAD_REACTORS
330
472
102
}
330
472
100
AcDbXrecord
340
0
  0
XRECORD
  5
481
102
{ACAD_REACTORS
330
472
102
}
330
472
100
AcDbXrecord
 70
     0
  0
XRECORD
  5
476
102
{ACAD_REACTORS
330
472
102
}
330
472
100
AcDbXrecord
  1

  0
XRECORD
  5
473
102
{ACAD_REACTORS
330
472
102
}
330
472
100
AcDbXrecord
 90
        1
  0
XRECORD
  5
474
102
{ACAD_REACTORS
330
472
102
}
330
472
100
AcDbXrecord
 90
       70
  0
XRECORD
  5
48B
102
{ACAD_REACTORS
330
472
102
}
330
472
100
AcDbXrecord
340
0
  0
XRECORD
  5
491
102
{ACAD_REACTORS
330
472
102
}
330
472
100
AcDbXrecord
 10
0.0
 20
0.0
 30
0.0
  0
XRECORD
  5
48D
102
{ACAD_REACTORS
330
472
102
}
330
472
100
AcDbXrecord
 10
0.0
 20
0.0
 30
0.0
  0
XRECORD
  5
490
102
{ACAD_REACTORS
330
472
102
}
330
472
100
AcDbXrecord
 10
0.0
 20
0.0
 30
0.0
  0
XRECORD
  5
48E
102
{ACAD_REACTORS
330
472
102
}
330
472
100
AcDbXrecord
 10
0.0
 20
0.0
 30
0.0
  0
XRECORD
  5
48F
102
{ACAD_REACTORS
330
472
102
}
330
472
100
AcDbXrecord
 10
0.0
 20
0.0
 30
0.0
  0
XRECORD
  5
48C
102
{ACAD_REACTORS
330
472
102
}
330
472
100
AcDbXrecord
 10
0.0
 20
0.0
 30
0.0
  0
XRECORD
  5
489
102
{ACAD_REACTORS
330
472
102
}
330
472
100
AcDbXrecord
340
0
  0
XRECORD
  5
48A
102
{ACAD_REACTORS
330
472
102
}
330
472
100
AcDbXrecord
 70
     0
  0
XRECORD
  5
47E
102
{ACAD_REACTORS
330
472
102
}
330
472
100
AcDbXrecord
  1
{FAEB1C32-E019-11D5-929B-00C0DF256EC4}
  0
DICTIONARYVAR
  5
49C
102
{ACAD_REACTORS
330
493
102
}
330
493
100
DictionaryVariables
280
     0
  1
1:1
  0
DICTIONARYVAR
  5
495
102
{ACAD_REACTORS
330
493
102
}
330
493
100
DictionaryVariables
280
     0
  1
Standard
  0
DICTIONARYVAR
  5
494
102
{ACAD_REACTORS
330
493
102
}
330
493
100
DictionaryVariables
280
     0
  1
Standard
  0
DICTIONARYVAR
  5
498
102
{ACAD_REACTORS
330
493
102
}
330
493
100
DictionaryVariables
280
     0
  1
2
  0
DICTIONARYVAR
  5
499
102
{ACAD_REACTORS
330
493
102
}
330
493
100
DictionaryVariables
280
     0
  1
1
  0
DICTIONARYVAR
  5
49D
102
{ACAD_REACTORS
330
493
102
}
330
493
100
DictionaryVariables
280
     0
  1
1
  0
DICTIONARY
  5
4A0
330
45
100
AcDbDictionary
280
     1
  3
ACAD_XREC_ROUNDTRIP
360
4A1
  0
DICTIONARY
  5
49E
330
44
100
AcDbDictionary
280
     1
  3
ACAD_XREC_ROUNDTRIP
360
49F
  0
DICTIONARY
  5
4A2
330
46
100
AcDbDictionary
280
     1
  3
ACAD_XREC_ROUNDTRIP
360
4A3
  0
XRECORD
  5
4A1
102
{ACAD_REACTORS
330
4A0
102
}
330
4A0
100
AcDbXrecord
102
MATERIAL
148
0.0
149
0.0
149
0.0
 93
        0
 94
      127
282
     0
 72
     1
 77
     1
171
     1
175
     1
179
     1
273
     0
  0
XRECORD
  5
49F
102
{ACAD_REACTORS
330
49E
102
}
330
49E
100
AcDbXrecord
102
MATERIAL
148
0.0
149
0.0
149
0.0
 93
        0
 94
      127
282
     0
 72
     1
 77
     1
171
     1
175
     1
179
     1
273
     0
  0
XRECORD
  5
4A3
102
{ACAD_REACTORS
330
4A2
102
}
330
4A2
100
AcDbXrecord
102
MATERIAL
148
0.0
149
0.0
149
0.0
 93
        0
 94
      127
282
     0
 72
     1
 77
     1
171
     1
175
     1
179
     1
273
     0
  0
ENDSEC
  0
EOF
