0
SECTION
2
HEADER
9
$INSUNITS
70
4
9
$ACADVER
1
AC1014
9
$HANDSEED
5
FFFF
0
ENDSEC
0
SECTION
2
TABLES
0
TABLE
2
VPORT
5
8
100
AcDbSymbolTable
0
ENDTAB
0
TABLE
2
LTYPE
5
5
100
AcDbSymbolTable
0
LTYPE
5
14
100
AcDbSymbolTableRecord
100
AcDbLinetypeTableRecord
2
BYBLOCK
70
0
0
LTYPE
5
15
100
AcDbSymbolTableRecord
100
AcDbLinetypeTableRecord
2
BYLAYER
70
0
0
ENDTAB
0
TABLE
2
LAYER
5
2
100
AcDbSymbolTable
70
2
0
LAYER
5
50
100
AcDbSymbolTableRecord
100
AcDbLayerTableRecord
2
0
70
0
6
CONTINUOUS
0
ENDTAB
0
TABLE
2
STYLE
5
3
100
AcDbSymbolTable
70
1
0
STYLE
5
11
100
AcDbSymbolTableRecord
100
AcDbTextStyleTableRecord
2
STANDARD
70
0
0
ENDTAB
0
TABLE
2
VIEW
5
6
100
AcDbSymbolTable
70
0
0
ENDTAB
0
TABLE
2
UCS
5
7
100
AcDbSymbolTable
70
0
0
ENDTAB
0
TABLE
2
APPID
5
9
100
AcDbSymbolTable
70
2
0
APPID
5
12
100
AcDbSymbolTableRecord
100
AcDbRegAppTableRecord
2
ACAD
70
0
0
ENDTAB
0
TABLE
2
DIMSTYLE
5
A
100
AcDbSymbolTable
70
1
0
ENDTAB
0
TABLE
2
BLOCK_RECORD
5
1
100
AcDbSymbolTable
70
1
0
BLOCK_RECORD
5
1F
100
AcDbSymbolTableRecord
100
AcDbBlockTableRecord
2
*MODEL_SPACE
0
BLOCK_RECORD
5
1B
100
AcDbSymbolTableRecord
100
AcDbBlockTableRecord
2
*PAPER_SPACE
0
ENDTAB
0
ENDSEC
0
SECTION
2
BLOCKS
0
BLOCK
5
20
100
AcDbEntity
100
AcDbBlockBegin
2
*MODEL_SPACE
0
ENDBLK
5
21
100
AcDbEntity
100
AcDbBlockEnd
0
BLOCK
5
1C
100
AcDbEntity
100
AcDbBlockBegin
2
*PAPER_SPACE
0
ENDBLK
5
1D
100
AcDbEntity
100
AcDbBlockEnd
0
ENDSEC
0
SECTION
2
ENTITIES
0
LWPOLYLINE
5
100
100
AcDbEntity
8
0
100
AcDbPolyline
90
8
70
1
43
0.0
10
116.67612978234801
20
1979.8631656091161
42
-1.0000004452930724
10
116.676132454106
20
1985.863165609072
10
141.87613245410625
20
1985.8631431647177
42
-0.99999955470712565
10
141.87612978234819
20
1979.8631431647191
10
141.87612978234824
20
1975.4627567121272
42
-0.99999999999999989
10
141.87612978234819
20
1969.462756712127
10
116.676129782348
20
1969.462756712127
42
-0.99999999999999989
10
116.67612978234814
20
1975.462756712084
0
LWPOLYLINE
5
101
100
AcDbEntity
8
0
100
AcDbPolyline
90
8
70
1
43
0.0
10
94.575720885391007
20
2215.2627521611907
42
-1.0000004454177172
10
100.57572088534698
20
2215.2627548336959
10
104.97612978237854
20
2215.2627548336959
42
-0.99999999999999989
10
110.97612978233599
20
2215.2627548336955
10
110.9761297823346
20
2190.0627548336952
42
-0.99999999999999989
10
104.97612978233445
20
2190.0627548336961
10
100.57574332974249
20
2190.0627548339039
42
-0.99999955476946112
10
94.575743329744
20
2190.0627521621054
0
LWPOLYLINE
5
102
100
AcDbEntity
8
0
100
AcDbPolyline
90
8
70
1
43
0.0
10
100.5757208853575
20
1999.5627567128749
42
-1.0000004454177172
10
94.575720885401523
20
1999.5627593838842
10
94.5757433297548
20
2024.762759383884
42
-0.99999955470712565
10
100.57574332975315
20
2024.7627567121267
10
104.97612978234483
20
2024.7627567121274
42
-0.99999999999999989
10
110.97612978234511
20
2024.7627567121274
10
110.97612978234672
20
1999.5627567121276
42
-0.99999999999999989
10
104.97612978238926
20
1999.5627567121269
0
LWPOLYLINE
5
103
100
AcDbEntity
8
0
100
AcDbPolyline
90
8
70
1
43
0.0
10
94.575720885401452
20
2405.7627540396202
42
-1.0000004454177172
10
100.57572088535743
20
2405.7627567121253
10
104.97612978238898
20
2405.7627567121253
42
-0.99999999999999989
10
110.97612978234643
20
2405.7627567121249
10
110.97612978234505
20
2380.5627567121246
42
-0.99999999999999989
10
104.97612978234488
20
2380.5627567121255
10
100.57574332975294
20
2380.5627567123333
42
-0.99999955476946112
10
94.575743329754431
20
2380.5627540405349
0
LWPOLYLINE
5
104
100
AcDbEntity
8
0
100
AcDbPolyline
90
8
70
1
43
0.0
10
116.676129782348
20
2429.8627567121684
42
-0.99999999999999989
10
116.67612978234814
20
2435.8627567121257
10
141.87612978234819
20
2435.8627567121257
42
-0.99999999999999989
10
141.87612978234824
20
2429.8627567121252
10
141.87612978251411
20
2425.4623702595331
42
-0.99999955470712565
10
141.87613245393976
20
2419.462370259535
10
116.67613245410587
20
2419.4623478151807
42
-1.0000004452930724
10
116.67612978234814
20
2425.4623478151366
0
LWPOLYLINE
5
105
100
AcDbEntity
8
0
100
AcDbPolyline
90
4
70
1
43
0.0
10
155.77612978234825
20
2465.6627567121263
10
155.77612978234845
20
1939.6627567121266
10
25.776129782348821
20
1939.6627567121266
10
25.776129782348391
20
2465.6627567121259
0
ELLIPSE
5
106
100
AcDbEntity
8
0
100
AcDbEllipse
10
989.72369625435795
20
2031.596222815157
30
0
11
-1.8351739603835582e-15
21
-3.0000624007737047
31
0.0
40
0.99997920016760433
41
1.5707954362089307
42
4.7123889803846897
0
LINE
5
107
100
AcDbEntity
8
0
100
AcDbLine
10
992.72369625433521
20
2031.5962201433435
30
0
11
992.72367380998094
21
2006.3956959768311
31
0
0
ELLIPSE
5
108
100
AcDbEntity
8
0
100
AcDbEllipse
10
989.72367380998219
20
2006.3956986484782
30
0
11
2.6715916608443908e-06
21
3.0000624007938486
31
0.0
40
0.99997920016760466
41
1.570797217288435
42
4.7123889803475141
0
LINE
5
109
100
AcDbEntity
8
0
100
AcDbLine
10
986.7236738099823
20
2006.3956986484782
30
0
11
982.32328735739043
21
2006.3956986484779
31
0
0
ELLIPSE
5
110
100
AcDbEntity
8
0
100
AcDbEllipse
10
979.32328735739043
20
2006.3956986484779
30
0
11
1.8351739603967066e-15
21
3.0000624007951986
31
0.0
40
0.99997920016760466
41
1.5707963267948966
42
4.7123889803846897
0
LINE
5
111
100
AcDbEntity
8
0
100
AcDbLine
10
976.32328735739043
20
2006.3956986484779
30
0
11
976.32328735739043
21
2031.596222815157
31
0
0
ELLIPSE
5
112
100
AcDbEntity
8
0
100
AcDbEllipse
10
979.32328735736883
20
2031.596222815157
30
0
11
-1.8351739603835582e-15
21
-3.0000624007737047
31
0.0
40
0.99997920016760433
41
1.5707963267948966
42
4.7123889803846897
0
LINE
5
113
100
AcDbEntity
8
0
100
AcDbLine
10
982.32328735734757
20
2031.596222815157
30
0
11
986.72369625437921
21
2031.596222815157
31
0
0
ELLIPSE
5
114
100
AcDbEntity
8
0
100
AcDbEllipse
10
989.72369625435681
20
2081.5972628284094
30
0
11
-1.8963214276634427e-15
21
-3.0000624007737047
31
0.0
40
0.99997920016760433
41
1.5707954362089307
42
4.7123889803846897
0
LINE
5
115
100
AcDbEntity
8
0
100
AcDbLine
10
992.72369625433407
20
2081.5972601565959
30
0
11
992.7236738099798
21
2056.396735990083
31
0
0
ELLIPSE
5
116
100
AcDbEntity
8
0
100
AcDbEllipse
10
989.72367380998094
20
2056.3967386617305
30
0
11
2.6715916609055381e-06
21
3.0000624007938486
31
0.0
40
0.99997920016760466
41
1.570797217288435
42
4.7123889803477415
0
LINE
5
117
100
AcDbEntity
8
0
100
AcDbLine
10
986.72367380998094
20
2056.3967386617305
30
0
11
982.32328735738918
21
2056.3967386617301
31
0
0
ELLIPSE
5
118
100
AcDbEntity
8
0
100
AcDbEllipse
10
979.32328735738918
20
2056.3967386617301
30
0
11
1.8963214276770296e-15
21
3.0000624007951995
31
0.0
40
0.99997920016760444
41
1.5707963267948966
42
4.7123889803846897
0
LINE
5
119
100
AcDbEntity
8
0
100
AcDbLine
10
976.32328735738906
20
2056.3967386617301
30
0
11
976.32328735738906
21
2081.5972628284094
31
0
0
ELLIPSE
5
120
100
AcDbEntity
8
0
100
AcDbEllipse
10
979.32328735736769
20
2081.5972628284094
30
0
11
-1.8963214276634427e-15
21
-3.0000624007737047
31
0.0
40
0.99997920016760433
41
1.5707963267948966
42
4.7123889803846897
0
LINE
5
121
100
AcDbEntity
8
0
100
AcDbLine
10
982.32328735734643
20
2081.5972628284094
30
0
11
986.72369625437807
21
2081.5972628284094
31
0
0
LWPOLYLINE
5
122
100
AcDbEntity
8
0
100
AcDbPolyline
90
4
70
1
43
0.0
10
178.52328735738666
20
2465.6627567121268
10
1014.5232873573889
20
2465.6627567121263
10
1014.5232873573891
20
1939.6627567121263
10
178.52328735738692
20
1939.6627567121268
0
ELLIPSE
5
123
100
AcDbEntity
8
0
100
AcDbEllipse
10
203.3228784604193
20
2081.5972628284098
30
0
11
3.8883393843149253e-15
21
-3.0000624007737047
31
0.0
40
0.99997920016760433
41
1.5707963267948966
42
4.7123898709706555
0
LINE
5
124
100
AcDbEntity
8
0
100
AcDbLine
10
206.32287846039787
20
2081.5972628284098
30
0
11
210.72328735742963
21
2081.5972628284098
31
0
0
ELLIPSE
5
125
100
AcDbEntity
8
0
100
AcDbEllipse
10
213.72328735740831
20
2081.5972628284098
30
0
11
3.8883393843149253e-15
21
-3.0000624007737047
31
0.0
40
0.99997920016760433
41
1.5707963267948966
42
4.7123889803846897
0
LINE
5
126
100
AcDbEntity
8
0
100
AcDbLine
10
216.72328735738688
20
2081.5972628284098
30
0
11
216.72328735738688
21
2056.3967386617305
31
0
0
ELLIPSE
5
127
100
AcDbEntity
8
0
100
AcDbEllipse
10
213.72328735738677
20
2056.3967386617305
30
0
11
-3.8883393843427847e-15
21
3.0000624007951995
31
0.0
40
0.99997920016760444
41
1.5707963267947829
42
4.7123889803848034
0
LINE
5
128
100
AcDbEntity
8
0
100
AcDbLine
10
210.72328735738668
20
2056.3967386617305
30
0
11
206.32290090479486
21
2056.3967386617305
31
0
0
ELLIPSE
5
129
100
AcDbEntity
8
0
100
AcDbEllipse
10
203.32290090479495
20
2056.3967386617305
30
0
11
-2.6715916628975559e-06
21
3.0000624007938486
31
0.0
40
0.99997920016760466
41
1.5707963268319585
42
4.7123880898911512
0
LINE
5
130
100
AcDbEntity
8
0
100
AcDbLine
10
200.32290090479623
20
2056.3967359900835
30
0
11
200.32287846044187
21
2081.5972601565963
31
0
0
ELLIPSE
5
131
100
AcDbEntity
8
0
100
AcDbEllipse
10
203.322878460418
20
2031.5962228151577
30
0
11
3.8271919170350405e-15
21
-3.0000624007737047
31
0.0
40
0.99997920016760433
41
1.5707963267948966
42
4.7123898709706555
0
LINE
5
132
100
AcDbEntity
8
0
100
AcDbLine
10
206.32287846039659
20
2031.5962228151577
30
0
11
210.72328735742838
21
2031.5962228151577
31
0
0
ELLIPSE
5
133
100
AcDbEntity
8
0
100
AcDbEllipse
10
213.72328735740709
20
2031.5962228151577
30
0
11
3.8271919170350405e-15
21
-3.0000624007737047
31
0.0
40
0.99997920016760433
41
1.5707963267948966
42
4.7123889803846897
0
LINE
5
134
100
AcDbEntity
8
0
100
AcDbLine
10
216.72328735738569
20
2031.5962228151577
30
0
11
216.72328735738569
21
2006.3956986484786
31
0
0
ELLIPSE
5
135
100
AcDbEntity
8
0
100
AcDbEllipse
10
213.72328735738557
20
2006.3956986484786
30
0
11
-3.8271919170624605e-15
21
3.0000624007951986
31
0.0
40
0.99997920016760466
41
1.5707963267948966
42
4.7123889803846897
0
LINE
5
136
100
AcDbEntity
8
0
100
AcDbLine
10
210.72328735738549
20
2006.3956986484786
30
0
11
206.32290090479364
21
2006.3956986484786
31
0
0
ELLIPSE
5
137
100
AcDbEntity
8
0
100
AcDbEllipse
10
203.32290090479376
20
2006.3956986484786
30
0
11
-2.6715916628364086e-06
21
3.0000624007938486
31
0.0
40
0.99997920016760466
41
1.5707963268319585
42
4.7123880898910375
0
LINE
5
138
100
AcDbEntity
8
0
100
AcDbLine
10
200.32290090479503
20
2006.3956959768313
30
0
11
200.32287846044059
21
2031.5962201433442
31
0
0
LWPOLYLINE
5
139
100
AcDbEntity
8
0
100
AcDbPolyline
90
8
70
1
43
0.0
10
1080.1781474787438
20
2425.4623478151739
42
-1.0000004452930724
10
1080.1781448069862
20
2419.462347815218
10
1054.9781448069864
20
2419.4623702595718
42
-0.99999955470712565
10
1054.9781474787435
20
2425.4623702595704
10
1054.9781474787435
20
2429.8627567121621
42
-0.99999999999999989
10
1054.9781474787433
20
2435.8627567121621
10
1080.1781474787435
20
2435.862756712163
42
-0.99999999999999989
10
1080.1781474787435
20
2429.8627567122057
0
LWPOLYLINE
5
140
100
AcDbEntity
8
0
100
AcDbPolyline
90
8
70
1
43
0.0
10
1102.2785563757086
20
2190.0627612623525
42
-1.0000004452930724
10
1096.2785563757527
20
2190.0627585905941
10
1091.8781474787206
20
2190.0627585905954
42
-0.99999999999999989
10
1085.8781474787636
20
2190.0627585905941
10
1085.8781474787643
20
2215.2627585905948
42
-0.99999999999999989
10
1091.8781474787645
20
2215.2627585905948
10
1096.2785339313559
20
2215.2627585903861
42
-0.99999955476946112
10
1102.278533931355
20
2215.2627612621859
0
LWPOLYLINE
5
141
100
AcDbEntity
8
0
100
AcDbPolyline
90
8
70
1
43
0.0
10
1096.278556375735
20
2405.7627567125378
42
-1.0000004452307369
10
1102.2785563756909
20
2405.7627540404064
10
1102.2785339313391
20
2380.5627540407804
42
-0.99999955476946112
10
1096.2785339313402
20
2380.5627567121637
10
1091.8781474787484
20
2380.5627567121633
42
-0.99999999999999989
10
1085.8781474787484
20
2380.5627567121628
10
1085.8781474787456
20
2405.7627567121626
42
-0.99999999999999989
10
1091.8781474787033
20
2405.7627567121635
0
LWPOLYLINE
5
142
100
AcDbEntity
8
0
100
AcDbPolyline
90
8
70
1
43
0.0
10
1102.2785563757047
20
1999.5627593835482
42
-1.0000004452307369
10
1096.2785563757486
20
1999.5627567121644
10
1091.8781474787168
20
1999.5627567121651
42
-0.99999999999999989
10
1085.8781474787595
20
1999.5627567121644
10
1085.8781474787602
20
2024.7627567121649
42
-0.99999999999999989
10
1091.8781474787604
20
2024.7627567121649
10
1096.2785339313516
20
2024.7627567123304
42
-0.99999955470712565
10
1102.2785339313507
20
2024.7627593837565
0
LWPOLYLINE
5
143
100
AcDbEntity
8
0
100
AcDbPolyline
90
8
70
1
43
0.0
10
1080.178147478759
20
1975.4627567121213
42
-0.99999999999999989
10
1080.178147478759
20
1969.4627567121643
10
1054.978147478759
20
1969.4627567121634
42
-0.99999999999999989
10
1054.9781474787587
20
1975.4627567121636
10
1054.9781474785923
20
1979.8631431647552
42
-0.99999955470712565
10
1054.9781448071669
20
1985.8631431647539
10
1080.1781448070008
20
1985.8631656091093
42
-1.0000004452930724
10
1080.1781474787585
20
1979.8631656091534
0
LWPOLYLINE
5
144
100
AcDbEntity
8
0
100
AcDbPolyline
90
4
70
1
43
0.0
10
1041.07814747876
20
1939.6627567121623
10
1041.0781474787423
20
2465.6627567121623
10
1171.0781474787418
20
2465.6627567121668
10
1171.07814747876
20
1939.6627567121666
0
LWPOLYLINE
5
145
100
AcDbEntity
8
0
100
AcDbPolyline
90
9
70
1
43
0.0
10
607.34575168340268
20
1658.6015092303112
10
619.94574713321401
20
1658.6015204524845
10
632.54574258302523
20
1658.6015092303114
42
1.0000004452307369
10
632.54574525478301
20
1664.6015092302675
10
632.54574525478301
20
1669.0019181272992
42
0.99999999999999989
10
632.54574525478301
20
1675.0019181272564
10
607.34574901164478
20
1675.0019181272564
42
0.99999999999999989
10
607.3457490116449
20
1669.0019181272989
10
607.3457490116449
20
1664.6015092302673
42
1.0000004454177172
0
LWPOLYLINE
5
146
100
AcDbEntity
8
0
100
AcDbPolyline
90
8
70
1
43
0.0
10
1048.1461560301568
20
1873.7019207990165
42
-1.0000004452930724
10
1042.1461560302009
20
1873.7019181272585
10
1037.7457471331693
20
1873.7019181272585
42
-0.99999999999999989
10
1031.7457471332123
20
1873.7019181272581
10
1031.7457471332111
20
1898.9019181272583
42
-0.99999999999999989
10
1037.7457471332114
20
1898.9019181272583
10
1042.146133585803
20
1898.9019181270507
42
-0.99999955476946112
10
1048.1461335858016
20
1898.9019207988506
0
LWPOLYLINE
5
147
100
AcDbEntity
8
0
100
AcDbPolyline
90
8
70
1
43
0.0
10
1042.1461560302012
20
1853.9019181276319
42
-1.0000004452307369
10
1048.146156030157
20
1853.9019154554994
10
1048.1461335858021
20
1828.7019154558739
42
-0.99999955476946112
10
1042.1461335858035
20
1828.7019181272576
10
1037.7457471332116
20
1828.7019181272572
42
-0.99999999999999989
10
1031.7457471332114
20
1828.7019181272578
10
1031.7457471332123
20
1853.9019181272577
42
-0.99999999999999989
10
1037.7457471331693
20
1853.9019181272577
0
LWPOLYLINE
5
148
100
AcDbEntity
8
0
100
AcDbPolyline
90
8
70
1
43
0.0
10
1065.0457471332115
20
1664.6015092302691
42
-1.0000004452930724
10
1065.0457444614538
20
1658.6015092303132
10
1039.8457444614542
20
1658.6015316746673
42
-0.99999955470712565
10
1039.8457471332117
20
1664.6015316746659
10
1039.8457471332117
20
1669.0019181272578
42
-0.99999999999999989
10
1039.8457471332117
20
1675.001918127258
10
1065.0457471332115
20
1675.001918127258
42
-0.99999999999999989
10
1065.0457471332115
20
1669.001918127301
0
LWPOLYLINE
5
149
100
AcDbEntity
8
0
100
AcDbPolyline
90
8
70
1
43
0.0
10
848.79574525478176
20
1664.6015092302682
42
-1.0000004452930724
10
848.79574258302398
20
1658.6015092303123
10
823.59574258302428
20
1658.6015316746666
42
-0.99999955470712565
10
823.59574525478183
20
1664.601531674665
10
823.5957452547816
20
1669.0019181272569
42
-0.99999999999999989
10
823.5957452547816
20
1675.0019181272571
10
848.79574525478176
20
1675.0019181272571
42
-0.99999999999999989
10
848.79574525478176
20
1669.0019181273001
0
LWPOLYLINE
5
150
100
AcDbEntity
8
0
100
AcDbPolyline
90
28
70
1
43
0.0
10
1015.9457471332122
20
1608.8019181272577
10
223.94574713321632
20
1608.8019181272543
10
223.94574713321705
20
1468.8019181272539
10
147.44574713321737
20
1468.8019181272539
10
147.44574713321532
20
1908.8019181272543
10
160.94574713321498
20
1908.8019181272546
42
0.88101768606922859
10
161.69574713321504
20
1914.70665563691
42
-0.34199871311961644
10
160.94574713321492
20
1915.6749014734621
10
160.94574713321498
20
1918.8019181272546
42
-0.41421356237310025
10
162.94574713321492
20
1920.8019181272543
10
183.94574713321489
20
1920.8019181272543
42
-0.41421356237298057
10
185.94574713321487
20
1918.8019181272548
10
185.94574713321498
20
1915.6749014734621
42
-0.3419987131196926
10
185.19574713321492
20
1914.7066556369102
42
0.881017686069265
10
185.94574713321506
20
1908.8019181272546
10
1053.9457471332107
20
1908.801918127258
42
0.88101768606929109
10
1054.6957471332107
20
1914.7066556369141
42
-0.34199871311954605
10
1053.9457471332107
20
1915.6749014734655
10
1053.9457471332105
20
1918.8019181272582
42
-0.41421356237309503
10
1055.9457471332107
20
1920.8019181272584
10
1076.9457471332107
20
1920.8019181272584
42
-0.41421356237309503
10
1078.9457471332107
20
1918.8019181272582
10
1078.9457471332107
20
1915.674901473466
42
-0.34199871311960683
10
1078.1957471332107
20
1914.7066556369141
42
0.88101768606919739
10
1078.9457471332107
20
1908.8019181272582
10
1092.4457471332105
20
1908.8019181272584
10
1092.4457471332125
20
1468.8019181272577
10
1015.9457471332128
20
1468.8019181272575
0
LWPOLYLINE
5
151
100
AcDbEntity
8
0
100
AcDbPolyline
90
8
70
1
43
0.0
10
391.09575168340393
20
1658.6015092303103
42
-1.0000004452930724
10
391.09574901164621
20
1664.6015092302662
10
391.09574901164598
20
1669.0019181272983
42
-0.99999999999999989
10
391.09574901164615
20
1675.0019181272551
10
416.29574901164608
20
1675.0019181272555
42
-0.99999999999999989
10
416.29574901164608
20
1669.0019181272553
10
416.29574901181263
20
1664.6015316746634
42
-0.99999955470712565
10
416.29575168323765
20
1658.6015316746648
0
LWPOLYLINE
5
152
100
AcDbEntity
8
0
100
AcDbPolyline
90
8
70
1
43
0.0
10
174.84574980497405
20
1658.6015092303094
42
-1.0000004452930724
10
174.84574713321635
20
1664.6015092302653
10
174.84574713321615
20
1669.0019181272974
42
-0.99999999999999989
10
174.84574713321626
20
1675.0019181272544
10
200.04574713321625
20
1675.0019181272546
42
-0.99999999999999989
10
200.04574713321625
20
1669.0019181272544
10
200.04574713338224
20
1664.6015316746625
42
-0.99999955470712565
10
200.04574980480783
20
1658.6015316746639
0
LWPOLYLINE
5
153
100
AcDbEntity
8
0
100
AcDbPolyline
90
8
70
1
43
0.0
10
191.74533823626919
20
1853.9019154558698
42
-1.0000004452307369
10
197.74533823622519
20
1853.9019181272542
10
202.14574713325689
20
1853.9019181272542
42
-0.99999999999999989
10
208.14574713321406
20
1853.9019181272542
10
208.14574713321522
20
1828.7019181272544
42
-0.99999999999999989
10
202.1457471332148
20
1828.7019181272537
10
197.74536068062301
20
1828.7019181270878
42
-0.99999955470712565
10
191.74536068062434
20
1828.7019154556619
0
LWPOLYLINE
5
154
100
AcDbEntity
8
0
100
AcDbPolyline
90
8
70
1
43
0.0
10
197.74533823622505
20
1873.7019181272558
42
-1.0000004452930724
10
191.74533823626911
20
1873.7019207990129
10
191.74536068062406
20
1898.9019207986391
42
-0.99999955476946112
10
197.7453606806227
20
1898.9019181272554
10
202.14574713321451
20
1898.9019181272552
42
-0.99999999999999989
10
208.14574713321466
20
1898.9019181272552
10
208.1457471332142
20
1873.7019181272547
42
-0.99999999999999989
10
202.14574713325675
20
1873.7019181272553
0
CIRCLE
5
155
100
AcDbEntity
8
0
100
AcDbCircle
10
679.89949476924016
20
1561.6184854772241
30
0
40
3.9999999999999862
0
CIRCLE
5
156
100
AcDbEntity
8
0
100
AcDbCircle
10
520.41762631930499
20
1503.6656351152931
30
0
40
4
0
LWPOLYLINE
5
157
100
AcDbEntity
8
0
100
AcDbPolyline
90
44
70
1
43
0.0
10
694.89949476924028
20
1486.6184854772255
10
260.89949476924073
20
1486.6184854772259
10
260.89949476924107
20
1496.6184854772255
42
0.88101768606917408
10
254.99475725958553
20
1497.3684854772259
42
-0.34199871311954355
10
254.02651142303358
20
1496.6184854772259
10
250.89949476924093
20
1496.6184854772257
42
-0.41421356237315227
10
248.89949476924099
20
1498.6184854772259
10
248.89949476924104
20
1519.6184854772259
42
-0.41421356237316265
10
250.89949476924113
20
1521.6184854772255
10
254.02651142303353
20
1521.6184854772255
42
-0.34199871311952623
10
254.99475725958541
20
1520.8684854772255
42
0.88101768606922248
10
260.89949476924096
20
1521.618485477225
10
260.89949476924085
20
1541.618485477225
42
0.88101768606925812
10
254.99475725958533
20
1542.368485477225
42
-0.34199871311953367
10
254.02651142303341
20
1541.618485477225
10
250.89949476924096
20
1541.618485477225
42
-0.41421356237309503
10
248.8994947692409
20
1543.6184854772252
10
248.89949476924068
20
1564.618485477225
42
-0.41421356237308982
10
250.8994947692405
20
1566.6184854772248
10
254.02651142303313
20
1566.6184854772248
42
-0.34199871311972208
10
254.99475725958507
20
1565.8684854772246
42
0.88101768606925834
10
260.89949476924068
20
1566.618485477225
10
260.89949476924028
20
1576.6184854772243
10
694.89949476924016
20
1576.6184854772237
10
694.89949476924016
20
1566.6184854772246
42
0.881017686069266
10
700.80423227889571
20
1565.8684854772241
42
-0.3419987131194791
10
701.77247811544748
20
1566.6184854772241
10
704.89949476924016
20
1566.6184854772241
42
-0.41421356237301177
10
706.89949476923994
20
1564.6184854772241
10
706.89949476924028
20
1543.6184854772246
42
-0.41421356237307422
10
704.89949476923994
20
1541.6184854772246
10
701.77247811544748
20
1541.6184854772246
42
-0.34199871311956592
10
700.80423227889571
20
1542.3684854772246
42
0.88101768606933706
10
694.89949476924016
20
1541.6184854772246
10
694.89949476924028
20
1521.6184854772246
42
0.88101768606925945
10
700.80423227889594
20
1520.8684854772246
42
-0.34199871311963531
10
701.77247811544771
20
1521.6184854772246
10
704.89949476924016
20
1521.6184854772246
42
-0.41421356237309503
10
706.89949476924016
20
1519.6184854772246
10
706.89949476924039
20
1498.618485477225
42
-0.41421356237309503
10
704.8994947692405
20
1496.618485477225
10
701.77247811544794
20
1496.618485477225
42
-0.34199871311970231
10
700.80423227889605
20
1497.3684854772252
42
0.88101768606926112
10
694.8994947692405
20
1496.6184854772248
0
LWPOLYLINE
5
158
100
AcDbEntity
8
0
100
AcDbPolyline
90
8
70
1
43
0.0
10
941.64229383978955
20
1198.9944694161932
42
-1.0000004452930724
10
935.64229383983366
20
1198.9944667444352
10
931.24188494280179
20
1198.9944667444352
42
-0.99999999999999989
10
925.24188494284476
20
1198.9944667444347
10
925.24188494284374
20
1224.194466744435
42
-0.99999999999999989
10
931.24188494284397
20
1224.194466744435
10
935.64227139543573
20
1224.1944667442274
42
-0.99999955476946112
10
941.64227139543436
20
1224.194469416027
0
LWPOLYLINE
5
159
100
AcDbEntity
8
0
100
AcDbPolyline
90
8
70
1
43
0.0
10
935.64229383983343
20
1179.1944667448079
42
-1.0000004452307369
10
941.64229383978955
20
1179.1944640726761
10
941.64227139543459
20
1153.9944640726762
42
-0.99999955470712565
10
935.64227139543573
20
1153.994466744434
10
931.24188494284397
20
1153.994466744434
42
-0.99999999999999989
10
925.24188494284374
20
1153.9944667444342
10
925.24188494284476
20
1179.1944667444343
42
-0.99999999999999989
10
931.24188494280179
20
1179.1944667444343
0
LWPOLYLINE
5
160
100
AcDbEntity
8
0
100
AcDbPolyline
90
8
70
1
43
0.0
10
958.54188494284381
20
1383.8940578474455
42
-1.0000004452930724
10
958.54188227108557
20
1377.8940578474896
10
933.34188227108586
20
1377.8940802918439
42
-0.99999955470712565
10
933.34188494284388
20
1383.8940802918423
10
933.34188494284365
20
1388.2944667444344
42
-0.99999999999999989
10
933.34188494284365
20
1394.2944667444344
10
958.54188494284358
20
1394.2944667444344
42
-0.99999999999999989
10
958.54188494284358
20
1388.2944667444776
0
LWPOLYLINE
5
161
100
AcDbEntity
8
0
100
AcDbPolyline
90
8
70
1
43
0.0
10
68.341887614604147
20
1377.8940578474874
42
-1.0000004452930724
10
68.341884942846406
20
1383.8940578474433
10
68.341884942846235
20
1388.2944667444754
42
-0.99999999999999989
10
68.341884942846406
20
1394.2944667444322
10
93.541884942846352
20
1394.2944667444326
42
-0.99999999999999989
10
93.541884942846423
20
1388.2944667444324
10
93.541884943012846
20
1383.8940802918405
42
-0.99999955470712565
10
93.54188761443794
20
1377.8940802918419
0
LWPOLYLINE
5
162
100
AcDbEntity
8
0
100
AcDbPolyline
90
8
70
1
43
0.0
10
85.241476045900043
20
1179.194464072674
42
-1.0000004452930724
10
91.241476045856089
20
1179.194466744432
10
95.641884942887714
20
1179.1944667444322
42
-0.99999999999999989
10
101.64188494284495
20
1179.1944667444325
10
101.64188494284562
20
1153.9944667444322
42
-0.99999999999999989
10
95.641884942845536
20
1153.9944667444322
10
91.241498490253662
20
1153.9944667446396
42
-0.99999955476946112
10
85.241498490255083
20
1153.9944640728404
0
LWPOLYLINE
5
163
100
AcDbEntity
8
0
100
AcDbPolyline
90
8
70
1
43
0.0
10
91.24147604585616
20
1198.9944667444333
42
-1.0000004452930724
10
85.241476045900114
20
1198.9944694161914
10
85.241498490255083
20
1224.1944694158174
42
-0.99999955476946112
10
91.241498490253804
20
1224.1944667444332
10
95.641884942845678
20
1224.1944667444332
42
-0.99999999999999989
10
101.64188494284576
20
1224.1944667444329
10
101.64188494284502
20
1198.9944667444327
42
-0.99999999999999989
10
95.641884942887785
20
1198.9944667444329
0
LWPOLYLINE
5
164
100
AcDbEntity
8
0
100
AcDbPolyline
90
32
70
1
43
0.0
10
40.94188494284667
20
1584.0944667444323
10
117.4418849428465
20
1584.0944667444328
10
117.44188494284629
20
1444.0944667444328
10
909.44188494284379
20
1444.0944667444344
10
909.44188494284401
20
1584.0944667444344
10
985.9418849428439
20
1584.0944667444346
10
985.94188494284322
20
1144.0944667444346
10
972.44188494284344
20
1144.0944667444346
42
0.88101768606927977
10
971.69188494284367
20
1138.189729234779
42
-0.3419987131195969
10
972.44188494284344
20
1137.2214833982271
10
972.44188494284356
20
1134.0944667444346
42
-0.41421356237313667
10
970.44188494284356
20
1132.0944667444346
10
949.44188494284344
20
1132.0944667444346
42
-0.41421356237313667
10
947.44188494284344
20
1134.0944667444346
10
947.44188494284356
20
1137.2214833982273
42
-0.34199871311973201
10
948.19188494284344
20
1138.189729234779
42
0.88101768606923903
10
947.44188494284344
20
1144.0944667444346
10
909.44188494284367
20
1144.0944667444346
10
909.4418849428439
20
1389.0944667444344
10
117.44188494284622
20
1389.0944667444328
10
117.44188494284589
20
1144.0944667444326
10
79.441884942846031
20
1144.0944667444326
42
0.88101768606927544
10
78.691884942845959
20
1138.1897292347769
42
-0.34199871311960528
10
79.441884942845959
20
1137.2214833982252
10
79.441884942845888
20
1134.0944667444323
42
-0.4142135623730937
10
77.441884942846016
20
1132.0944667444326
10
56.441884942845988
20
1132.0944667444326
42
-0.41421356237309503
10
54.441884942845959
20
1134.0944667444326
10
54.441884942846023
20
1137.221483398225
42
-0.34199871311957403
10
55.191884942845981
20
1138.1897292347769
42
0.88101768606921438
10
54.441884942845995
20
1144.0944667444323
10
40.94188494284613
20
1144.0944667444323
0
LWPOLYLINE
5
165
100
AcDbEntity
8
0
100
AcDbPolyline
90
8
70
1
43
0.0
10
1061.353008717778
20
1039.3958992761707
42
-1.0000004452930724
10
1061.3530060460214
20
1045.3958992761266
10
1061.3530060460223
20
1049.7963081731582
42
-0.99999999999999989
10
1061.3530060460239
20
1055.7963081731154
10
1086.5530060460237
20
1055.7963081731095
42
-0.99999999999999989
10
1086.5530060460223
20
1049.7963081731091
10
1086.5530060458134
20
1045.3959217205174
42
-0.99999955476946112
10
1086.5530087176114
20
1039.3959217205188
0
LWPOLYLINE
5
166
100
AcDbEntity
8
0
100
AcDbPolyline
90
8
70
1
43
0.0
10
886.85301059583549
20
1039.395899276212
42
-1.0000004452307369
10
886.8530079244531
20
1045.3958992761682
10
886.85300792445389
20
1049.7963081731998
42
-0.99999999999999989
10
886.8530079244556
20
1055.7963081731573
10
912.0530079244553
20
1055.7963081731511
42
-0.99999999999999989
10
912.05300792445416
20
1049.7963081731509
10
912.05300792461901
20
1045.3959217205593
42
-0.99999955470712565
10
912.05301059604312
20
1039.3959217205606
0
LWPOLYLINE
5
167
100
AcDbEntity
8
0
100
AcDbPolyline
90
8
70
1
43
0.0
10
737.55300604639751
20
1045.3958992761916
42
-1.0000004452307369
10
737.55300337426479
20
1039.3958992762355
10
712.353003374639
20
1039.3959217205938
42
-0.99999955476946112
10
712.35300604602367
20
1045.3959217205927
10
712.35300604602435
20
1049.7963081731843
42
-0.99999999999999989
10
712.35300604602548
20
1055.7963081731846
10
737.5530060460253
20
1055.7963081731807
42
-0.99999999999999989
10
737.55300604602439
20
1049.7963081732232
0
LWPOLYLINE
5
168
100
AcDbEntity
8
0
100
AcDbPolyline
90
38
70
1
43
0.0
10
1116.4530060460609
20
1245.5963081731022
10
1116.4530060459745
20
805.5963081731021
10
1102.4530060459738
20
805.59630817310472
42
0.88101768606923136
10
1101.7030060459726
20
799.69157066344951
42
-0.34199871311959812
10
1102.4530060459724
20
798.7233248268974
10
1102.453006045972
20
795.59630817310506
42
-0.41421356237307422
10
1100.4530060459715
20
793.59630817310529
10
1079.4530060459715
20
793.59630817310949
42
-0.41421356237309503
10
1077.453006045972
20
795.59630817310995
10
1077.4530060459724
20
798.72332482690251
42
-0.3419987131196725
10
1078.2030060459729
20
799.69157066345429
42
0.88101768606924158
10
1077.4530060459738
20
805.59630817311006
10
911.95300416754458
20
805.59630817314314
42
0.88101768606923669
10
911.20300416754344
20
799.69157066348771
42
-0.34199871311959812
10
911.95300416754321
20
798.7233248269356
10
911.95300416754264
20
795.59630817314326
42
-0.41421356237307422
10
909.9530041675423
20
793.59630817314371
10
888.95300416754208
20
793.59630817314792
42
-0.41421356237309503
10
886.95300416754264
20
795.59630817314826
10
886.95300416754321
20
798.72332482694083
42
-0.3419987131196725
10
887.70300416754355
20
799.69157066349248
42
0.88101768606924202
10
886.95300416754458
20
805.59630817314837
10
721.45300604597674
20
805.59630817318157
42
0.88101768606929387
10
720.70300604597548
20
799.69157066352625
42
-0.34199871311974323
10
721.45300604597537
20
798.72332482697414
10
721.45300604597469
20
795.59630817318157
42
-0.41421356237311585
10
719.45300604597446
20
793.59630817318202
10
698.45300604597423
20
793.59630817318634
42
-0.41421356237311585
10
696.4530060459748
20
795.5963081731868
10
696.45300604597548
20
798.72332482697902
42
-0.34199871311959568
10
697.2030060459756
20
799.6915706635308
42
0.88101768606923625
10
696.45300604597662
20
805.59630817318646
10
682.45300604597583
20
805.59630817318919
10
682.45300604606246
20
1245.5963081731895
10
751.45300604606223
20
1245.5963081731757
10
751.4530060460346
20
1105.5963081731757
10
1047.4530060460336
20
1105.5963081731161
10
1047.4530060460611
20
1245.5963081731161
0
LWPOLYLINE
5
169
100
AcDbEntity
8
0
100
AcDbPolyline
90
8
70
1
43
0.0
10
211.06544040117461
20
1119.9368615506746
42
-1.0000004452307369
10
211.06544307255831
20
1113.9368615507185
10
211.06544307255831
20
1109.5364526536866
42
-0.99999999999999989
10
211.06544307255788
20
1103.5364526537296
10
185.86544307255798
20
1103.5364526537305
42
-0.99999999999999989
10
185.86544307255807
20
1109.5364526537307
10
185.86544307276625
20
1113.9368391063224
42
-0.99999955476946112
10
185.86544040096697
20
1119.9368391063213
0
LWPOLYLINE
5
170
100
AcDbEntity
8
0
100
AcDbPolyline
90
8
70
1
43
0.0
10
385.56543852274302
20
1119.936861550668
42
-1.0000004452307369
10
385.56544119412672
20
1113.9368615507119
10
385.56544119412672
20
1109.53645265368
42
-0.99999999999999989
10
385.56544119412627
20
1103.536452653723
10
360.36544119412645
20
1103.5364526537237
42
-0.99999999999999989
10
360.36544119412645
20
1109.5364526537242
10
360.36544119433466
20
1113.936839106316
42
-0.99999955476946112
10
360.36543852253533
20
1119.9368391063147
0
LWPOLYLINE
5
171
100
AcDbEntity
8
0
100
AcDbPolyline
90
8
70
1
43
0.0
10
534.86544307218185
20
1113.9368615507187
42
-1.0000004452307369
10
534.86544574431366
20
1119.9368615506746
10
560.06544574393945
20
1119.9368391063215
42
-0.99999955476946112
10
560.06544307255592
20
1113.9368391063226
10
560.06544307255604
20
1109.536452653731
42
-0.99999999999999989
10
560.06544307255649
20
1103.5364526537307
10
534.86544307255622
20
1103.5364526537301
42
-0.99999999999999989
10
534.86544307255622
20
1109.5364526536869
0
LWPOLYLINE
5
172
100
AcDbEntity
8
0
100
AcDbPolyline
90
38
70
1
43
0.0
10
155.96544307255817
20
913.73645265373193
10
155.96544307255789
20
1353.7364526537312
10
169.96544307255834
20
1353.7364526537312
42
0.8810176860692388
10
170.71544307255832
20
1359.6411901633865
42
-0.34199871311960683
10
169.96544307255832
20
1360.6094359999386
10
169.96544307255846
20
1363.7364526537312
42
-0.41421356237308982
10
171.96544307255832
20
1365.736452653731
10
192.96544307255834
20
1365.736452653731
42
-0.4142135623730534
10
194.96544307255829
20
1363.7364526537315
10
194.96544307255851
20
1360.6094359999386
42
-0.34199871311966445
10
194.21544307255832
20
1359.6411901633865
42
0.88101768606924435
10
194.9654430725584
20
1353.7364526537312
10
360.46544495098766
20
1353.7364526537312
42
0.88101768606925934
10
361.2154449509876
20
1359.6411901633871
42
-0.3419987131195083
10
360.46544495098766
20
1360.6094359999386
10
360.46544495098777
20
1363.7364526537312
42
-0.41421356237309503
10
362.46544495098766
20
1365.736452653731
10
383.46544495098772
20
1365.736452653731
42
-0.4142135623730534
10
385.4654449509876
20
1363.7364526537315
10
385.4654449509876
20
1360.6094359999386
42
-0.34199871311962543
10
384.71544495098772
20
1359.6411901633869
42
0.88101768606923903
10
385.46544495098772
20
1353.7364526537312
10
550.96544307255567
20
1353.7364526537312
42
0.88101768606925968
10
551.71544307255567
20
1359.6411901633869
42
-0.34199871311970226
10
550.96544307255567
20
1360.6094359999386
10
550.96544307255567
20
1363.7364526537312
42
-0.41421356237303258
10
552.96544307255567
20
1365.7364526537312
10
573.96544307255567
20
1365.736452653731
42
-0.41421356237301177
10
575.96544307255567
20
1363.7364526537315
10
575.96544307255544
20
1360.6094359999388
42
-0.34199871311945063
10
575.21544307255567
20
1359.6411901633871
42
0.88101768606919739
10
575.96544307255567
20
1353.7364526537315
10
589.96544307255658
20
1353.7364526537315
10
589.96544307255681
20
913.73645265373227
10
520.96544307255704
20
913.73645265373227
10
520.96544307255692
20
1053.7364526537319
10
224.96544307255792
20
1053.7364526537319
10
224.96544307255803
20
913.73645265373193
0
CIRCLE
5
173
100
AcDbEntity
8
0
100
AcDbCircle
10
554.25148749841219
20
816.99829221957873
30
0
40
3.9999999999999902
0
CIRCLE
5
174
100
AcDbEntity
8
0
100
AcDbCircle
10
394.76961904847741
20
874.9511425815117
30
0
40
4.0000000000000036
0
LWPOLYLINE
5
175
100
AcDbEntity
8
0
100
AcDbPolyline
90
44
70
1
43
0.0
10
135.25148749841421
20
891.99829221958009
10
569.25148749841219
20
891.99829221957873
10
569.25148749841219
20
881.99829221957896
42
0.88101768606926034
10
575.15622500806774
20
881.24829221957884
42
-0.34199871311973201
10
576.12447084461962
20
881.99829221957884
10
579.2514874984123
20
881.99829221957884
42
-0.41421356237311585
10
581.25148749841219
20
879.99829221957884
10
581.25148749841185
20
858.99829221957873
42
-0.4142135623730534
10
579.25148749841185
20
856.99829221957873
10
576.1244708446194
20
856.99829221957862
42
-0.34199871311969726
10
575.15622500806751
20
857.74829221957884
42
0.88101768606923669
10
569.25148749841208
20
856.99829221957884
10
569.25148749841196
20
836.99829221957839
42
0.88101768606923903
10
575.15622500806739
20
836.2482922195785
42
-0.34199871311961549
10
576.1244708446194
20
836.99829221957862
10
579.25148749841185
20
836.99829221957862
42
-0.41421356237309503
10
581.25148749841185
20
834.9982922195785
10
581.25148749841196
20
813.99829221957839
42
-0.41421356237309503
10
579.25148749841196
20
811.99829221957839
10
576.1244708446194
20
811.99829221957839
42
-0.34199871311963531
10
575.15622500806751
20
812.74829221957839
42
0.88101768606925779
10
569.25148749841196
20
811.99829221957827
10
569.25148749841196
20
801.99829221957862
10
135.25148749841378
20
801.99829221957998
10
135.25148749841412
20
811.99829221957975
42
0.88101768606925557
10
129.3467499887588
20
812.74829221957975
42
-0.34199871311972585
10
128.37850415220674
20
811.99829221957987
10
125.25148749841408
20
811.99829221957998
42
-0.41421356237309503
10
123.25148749841421
20
813.99829221957987
10
123.25148749841455
20
834.99829221957975
42
-0.4142135623730846
10
125.25148749841451
20
836.99829221957998
10
128.37850415220689
20
836.99829221958009
42
-0.34199871311965147
10
129.34674998875875
20
836.24829221957998
42
0.88101768606923825
10
135.25148749841429
20
836.99829221957998
10
135.25148749841438
20
856.99829221958021
42
0.88101768606923725
10
129.34674998875892
20
857.74829221958032
42
-0.34199871311961427
10
128.37850415220694
20
856.99829221958009
10
125.25148749841452
20
856.99829221958009
42
-0.41421356237311585
10
123.25148749841453
20
858.99829221958032
10
123.25148749841443
20
879.99829221958043
42
-0.41421356237309764
10
125.25148749841433
20
881.99829221958021
10
128.37850415220692
20
881.99829221958021
42
-0.34199871311967872
10
129.3467499887588
20
881.24829221958021
42
0.8810176860692589
10
135.25148749841441
20
881.99829221958043
0
LWPOLYLINE
5
176
100
AcDbEntity
8
0
100
AcDbPolyline
90
134
70
1
43
0.0
10
152.51719404683598
20
745.83311206804501
10
992.51719404683968
20
745.83311206804547
42
0.88101768606924435
10
993.26719404683968
20
751.73784957770113
42
-0.34199871311969232
10
992.51719404683968
20
752.7060954142529
10
992.51719404683968
20
755.83311206804547
42
-0.41421356237309503
10
994.51719404683956
20
757.83311206804547
10
1015.5171940468398
20
757.83311206804569
42
-0.41421356237315748
10
1017.5171940468399
20
755.83311206804535
10
1017.5171940468399
20
752.70609541425301
42
-0.34199871311966384
10
1016.7671940468399
20
751.73784957770124
42
0.88101768606921793
10
1017.5171940468398
20
745.83311206804547
10
1037.5171940468399
20
745.83311206804524
10
1037.5171940468401
20
715.83311206804535
42
0.88101768606922959
10
1043.4219315564956
20
715.08311206804501
42
-0.34199871311954727
10
1044.3901773930475
20
715.83311206804524
10
1047.5171940468401
20
715.83311206804512
42
-0.41421356237313667
10
1049.5171940468399
20
713.83311206804524
10
1049.5171940468399
20
692.83311206804512
42
-0.41421356237311585
10
1047.5171940468401
20
690.83311206804512
10
1044.3901773930477
20
690.83311206804512
42
-0.34199871311974195
10
1043.4219315564956
20
691.58311206804512
42
0.88101768606927544
10
1037.5171940468401
20
690.83311206804512
10
1037.5171940468401
20
541.3331139464766
42
0.88101768606924946
10
1043.4219315564956
20
540.58311394647649
42
-0.34199871311957641
10
1044.3901773930475
20
541.33311394647649
10
1047.5171940468401
20
541.33311394647626
42
-0.41421356237311585
10
1049.5171940468399
20
539.33311394647649
10
1049.5171940468401
20
518.33311394647649
42
-0.41421356237306384
10
1047.5171940468401
20
516.33311394647637
10
1044.3901773930477
20
516.33311394647626
42
-0.34199871311969299
10
1043.4219315564956
20
517.08311394647649
42
0.88101768606924913
10
1037.5171940468404
20
516.33311394647649
10
1037.5171940468401
20
366.83311206804603
42
0.88101768606924435
10
1043.4219315564958
20
366.08311206804603
42
-0.34199871311957641
10
1044.3901773930477
20
366.83311206804603
10
1047.5171940468399
20
366.83311206804603
42
-0.41421356237309503
10
1049.5171940468399
20
364.83311206804603
10
1049.5171940468399
20
343.83311206804592
42
-0.41421356237309503
10
1047.5171940468401
20
341.83311206804603
10
1044.3901773930475
20
341.83311206804603
42
-0.34199871311962543
10
1043.4219315564956
20
342.58311206804592
42
0.88101768606924924
10
1037.5171940468399
20
341.83311206804581
10
1037.5171940468399
20
311.83311206804558
10
1017.5171940468397
20
311.83311206804655
42
0.88101768606923758
10
1016.7671940468397
20
305.92837455839106
42
-0.34199871311943325
10
1017.5171940468397
20
304.96012872183917
10
1017.5171940468396
20
301.83311206804672
42
-0.41421356237303258
10
1015.5171940468397
20
299.83311206804677
10
994.51719404683945
20
299.83311206804666
42
-0.41421356237312101
10
992.51719404683945
20
301.8331120680466
10
992.51719404683945
20
304.96012872183928
42
-0.34199871311948654
10
993.26719404683945
20
305.92837455839111
42
0.88101768606923758
10
992.51719404683945
20
311.83311206804672
10
801.26719216840775
20
311.83311206804655
42
0.88101768606923758
10
800.51719216840763
20
305.92837455839083
42
-0.34199871311942581
10
801.26719216840752
20
304.96012872183911
10
801.26719216840752
20
301.83311206804672
42
-0.41421356237304818
10
799.26719216840752
20
299.83311206804672
10
778.26719216840729
20
299.83311206804666
42
-0.41421356237310025
10
776.26719216840741
20
301.83311206804655
10
776.26719216840741
20
304.96012872183928
42
-0.34199871311953983
10
777.01719216840741
20
305.92837455839111
42
0.8810176860692378
10
776.26719216840741
20
311.83311206804672
10
585.01719216840684
20
311.83311206804643
42
0.88101768606923758
10
584.26719216840684
20
305.92837455839083
42
-0.34199871311955471
10
585.01719216840684
20
304.960128721839
10
585.01719216840684
20
301.8331120680466
42
-0.41421356237312623
10
583.01719216840672
20
299.8331120680466
10
562.01719592526831
20
299.83311206804655
42
-0.41421356237309503
10
560.0171959252682
20
301.83311206804655
10
560.0171959252682
20
304.96012872183894
42
-0.34199871311958885
10
560.76719592526831
20
305.92837455839083
42
0.88101768606923669
10
560.0171959252682
20
311.83311206804638
10
368.76719592526774
20
311.83311206804649
42
0.88101768606921871
10
368.01719592526757
20
305.92837455839083
42
-0.34199871311964214
10
368.76719592526763
20
304.960128721839
10
368.76719592526752
20
301.83311206804632
42
-0.41421356237310542
10
366.76719592526757
20
299.83311206804649
10
345.7671959252674
20
299.83311206804643
42
-0.41421356237309503
10
343.7671959252674
20
301.83311206804649
10
343.76719592526746
20
304.96012872183888
42
-0.34199871311958885
10
344.51719592526752
20
305.92837455839071
42
0.88101768606924824
10
343.7671959252674
20
311.83311206804626
10
152.5171940468357
20
311.8331120680462
42
0.88101768606924946
10
151.76719404683558
20
305.9283745583906
42
-0.34199871311964214
10
152.51719404683564
20
304.96012872183877
10
152.51719404683553
20
301.83311206804609
42
-0.41421356237308982
10
150.5171940468357
20
299.8331120680462
10
129.51719404683553
20
299.8331120680462
42
-0.41421356237309503
10
127.51719404683548
20
301.8331120680462
10
127.51719404683553
20
304.9601287218386
42
-0.34199871311958885
10
128.26719404683553
20
305.92837455839049
42
0.88101768606924435
10
127.51719404683543
20
311.83311206804598
10
107.5171940468354
20
311.83311206804501
10
107.51719404683527
20
341.83311206804524
42
0.88101768606921749
10
101.61245653717968
20
342.58311206804541
42
-0.34199871311968616
10
100.6442107006278
20
341.83311206804541
10
97.517194046835129
20
341.83311206804547
42
-0.41421356237309764
10
95.517194046835229
20
343.83311206804535
10
95.517194046835257
20
364.83311206804547
42
-0.41421356237308982
10
97.517194046835257
20
366.83311206804547
10
100.64421070062767
20
366.83311206804535
42
-0.34199871311956964
10
101.61245653717953
20
366.08311206804547
42
0.8810176860692378
10
107.51719404683513
20
366.83311206804547
10
107.51719404683524
20
516.33311394647581
42
0.88101768606923647
10
101.6124565371797
20
517.08311394647592
42
-0.34199871311959629
10
100.6442107006278
20
516.33311394647581
10
97.517194046835343
20
516.33311394647592
42
-0.41421356237309503
10
95.517194046835371
20
518.33311394647592
10
95.517194046835385
20
539.33311394647592
42
-0.41421356237309243
10
97.517194046835257
20
541.33311394647581
10
100.64421070062795
20
541.33311394647592
42
-0.34199871311964092
10
101.61245653717978
20
540.58311394647592
42
0.88101768606923858
10
107.51719404683534
20
541.33311394647592
10
107.51719404683539
20
690.83311206804456
42
0.88101768606921627
10
101.61245653717991
20
691.58311206804467
42
-0.34199871311961549
10
100.64421070062794
20
690.83311206804456
10
97.517194046835485
20
690.83311206804456
42
-0.41421356237309503
10
95.517194046835513
20
692.83311206804456
10
95.517194046835527
20
713.83311206804467
42
-0.41421356237309243
10
97.517194046835399
20
715.83311206804456
10
100.64421070062804
20
715.83311206804467
42
-0.34199871311964153
10
101.61245653717992
20
715.08311206804467
42
0.88101768606923847
10
107.51719404683554
20
715.83311206804467
10
107.51719404683568
20
745.83311206804467
10
127.51719404683577
20
745.83311206804512
42
0.88101768606923381
10
128.26719404683581
20
751.73784957770056
42
-0.34199871311962571
10
127.51719404683577
20
752.70609541425256
10
127.51719404683577
20
755.83311206804501
42
-0.41421356237308982
10
129.51719404683575
20
757.83311206804501
10
150.51719404683595
20
757.83311206804501
42
-0.41421356237309503
10
152.51719404683584
20
755.83311206804512
10
152.51719404683595
20
752.70609541425245
42
-0.34199871311965457
10
151.76719404683587
20
751.73784957770056
42
0.88101768606924946
0
CIRCLE
5
177
100
AcDbEntity
8
0
100
AcDbCircle
10
1138.7919784814821
20
348.06612096940597
30
0
40
3.9999999999999774
0
CIRCLE
5
178
100
AcDbEntity
8
0
100
AcDbCircle
10
1138.7919784813284
20
671.2312009278503
30
0
40
3.9999999999999951
0
LWPOLYLINE
5
179
100
AcDbEntity
8
0
100
AcDbPolyline
90
4
70
1
43
0.0
10
1152.7919784814819
20
348.06612096941245
42
-0.99999999999999989
10
1124.7919784814821
20
348.06612096939949
10
1124.7919784813284
20
671.23120092784461
42
-0.99999999999999989
10
1152.7919784813284
20
671.23120092785598
0
CIRCLE
5
180
100
AcDbEntity
8
0
100
AcDbCircle
10
54.685298821346045
20
381.67121023377632
30
0
40
3.9999999999999956
0
CIRCLE
5
181
100
AcDbEntity
8
0
100
AcDbCircle
10
54.685298821192362
20
704.83629019222212
30
0
40
4.0000000000000142
0
LWPOLYLINE
5
182
100
AcDbEntity
8
0
100
AcDbPolyline
90
4
70
1
43
0.0
10
68.685298821346038
20
381.6712102337828
42
-0.99999999999999989
10
40.685298821346052
20
381.67121023376984
10
40.685298821192255
20
704.83629019221644
42
-0.99999999999999989
10
68.685298821192475
20
704.83629019222781
0
CIRCLE
5
183
100
AcDbEntity
8
0
100
AcDbCircle
10
286.49876140617329
20
1011.0665969861429
30
0
40
4.0000000000000284
0
CIRCLE
5
184
100
AcDbEntity
8
0
100
AcDbCircle
10
302.80205556301502
20
930.12484125202968
30
0
40
4.0000000000000107
0
LWPOLYLINE
5
185
100
AcDbEntity
8
0
100
AcDbPolyline
90
26
70
1
43
0.0
10
270.90502548270683
20
919.06118866080419
10
271.02694906306357
20
937.96441858920912
42
0.62861889063860221
10
265.7233308274914
20
936.91292718961085
42
-0.341998713119613
10
264.75508499093968
20
936.16292718961085
10
261.62806833714694
20
936.16292718961108
42
-0.41421356237307422
10
259.62806833714706
20
938.16292718961085
10
259.62806833714706
20
959.1629271896112
42
-0.41421356237308982
10
261.62806833714706
20
961.1629271896112
10
264.75508499093945
20
961.1629271896112
42
-0.34199871311963037
10
265.7233308274914
20
960.41292718961108
42
0.6575560871367182
10
271.16626176033952
20
959.56368544851557
10
271.34601471195731
20
987.4328750246251
42
0.70332277414497679
10
265.72333082749162
20
986.9129271896112
42
-0.341998713119613
10
264.75508499093974
20
986.16292718961131
10
261.62806833714706
20
986.16292718961154
42
-0.41421356237309503
10
259.62806833714711
20
988.16292718961131
10
259.62806833714717
20
1009.1629271896115
42
-0.41421356237308982
10
261.62806833714717
20
1011.1629271896117
10
264.75508499093951
20
1011.1629271896117
42
-0.34199871311959196
10
265.72333082749145
20
1010.4129271896115
42
0.75551206584053077
10
271.49333708851867
20
1010.2739755697733
10
271.62806833714711
20
1031.1629271896111
10
286.62775633966118
20
1031.066180989495
42
-0.37592284149061267
10
306.34013951897447
20
1013.5805012374732
10
316.69102024197593
20
931.88457422796091
42
-0.48014188857561124
10
301.4919476959206
20
916.1862754227709
0
CIRCLE
5
186
100
AcDbEntity
8
0
100
AcDbCircle
10
380.60171010415615
20
1017.7258987611036
30
0
40
4.0000000000000586
0
CIRCLE
5
187
100
AcDbEntity
8
0
100
AcDbCircle
10
396.90500426099794
20
936.78414302698968
30
0
40
4.0000000000000409
0
LWPOLYLINE
5
188
100
AcDbEntity
8
0
100
AcDbPolyline
90
26
70
1
43
0.0
10
365.00797418068987
20
925.72049043576408
10
365.12989776104655
20
944.62372036416923
42
0.62861889063855447
10
359.82627952547455
20
943.57222896457097
42
-0.34199871311963037
10
358.8580336889226
20
942.82222896457097
10
355.73101703512998
20
942.8222289645712
42
-0.41421356237309503
10
353.73101703513009
20
944.82222896457097
10
353.73101703513009
20
965.8222289645712
42
-0.4142135623730846
10
355.73101703513004
20
967.82222896457142
10
358.85803368892243
20
967.82222896457142
42
-0.34199871311960184
10
359.82627952547438
20
967.07222896457142
42
0.65755608713677738
10
365.26921045832245
20
966.22298722347591
10
365.44896340994029
20
994.09217679958556
42
0.70332277414504518
10
359.82627952547455
20
993.57222896457188
42
-0.34199871311963037
10
358.8580336889226
20
992.82222896457188
10
355.73101703512998
20
992.82222896457199
42
-0.41421356237309503
10
353.73101703513015
20
994.82222896457188
10
353.73101703513009
20
1015.8222289645722
42
-0.41421356237309503
10
355.73101703513009
20
1017.8222289645723
10
358.85803368892249
20
1017.8222289645723
42
-0.34199871311960184
10
359.82627952547443
20
1017.0722289645722
42
0.75551206584056507
10
365.59628578650165
20
1016.9332773447338
10
365.73101703513004
20
1037.8222289645719
10
380.73070503764404
20
1037.7254827644556
42
-0.37592284149061267
10
400.44308821695734
20
1020.2398030124339
10
410.79396893995897
20
938.5438760029208
42
-0.48014188857561096
10
395.59489639390358
20
922.84557719773079
0
LWPOLYLINE
5
189
100
AcDbEntity
8
0
100
AcDbPolyline
90
8
70
1
43
0.0
10
1154.2933460286717
20
1419.0278185392478
42
-0.022161293085922486
10
1154.2702277401711
20
1419.4702232068425
10
1153.8286755842569
20
1475.4101863129786
42
-0.33945425886337544
10
1157.496344285202
20
1480.2689159869751
10
1181.4155296510139
20
1486.8808284841889
42
-0.4931454260313024
10
1199.1451850656154
20
1473.4973915354951
10
1201.1022958508981
20
1225.5522651063152
42
-0.95663833504058993
10
1173.1678993623789
20
1224.0925250627292
0
CIRCLE
5
190
100
AcDbEntity
8
0
100
AcDbCircle
10
1185.1456211769907
20
1473.3868884662465
30
0
40
4.0000000000000089
0
CIRCLE
5
191
100
AcDbEntity
8
0
100
AcDbCircle
10
1187.1027319622733
20
1225.4417620370664
30
0
40
4.0000000000000222
0
LWPOLYLINE
5
192
100
AcDbEntity
8
0
100
AcDbPolyline
90
8
70
1
43
0.0
10
1152.116673382769
20
1744.0244515619881
42
-0.022161293085220704
10
1152.0935550942684
20
1744.4668562295831
10
1151.6520029383519
20
1800.4068193357182
42
-0.3394542588634144
10
1155.3196716392972
20
1805.2655490097152
10
1179.2388570051085
20
1811.8774615069299
42
-0.49314542603131928
10
1196.9685124197104
20
1798.4940245582361
10
1198.9256232050006
20
1550.5488981290582
42
-0.95663833504057971
10
1170.9912267164821
20
1549.0891580854716
0
CIRCLE
5
193
100
AcDbEntity
8
0
100
AcDbCircle
10
1182.968948531086
20
1798.3835214889878
30
0
40
3.9999999999999774
0
CIRCLE
5
194
100
AcDbEntity
8
0
100
AcDbCircle
10
1184.9260593163763
20
1550.4383950598092
30
0
40
3.9999999999999907
0
LWPOLYLINE
5
195
100
AcDbEntity
8
0
100
AcDbPolyline
90
4
70
1
43
0.0
10
0
20
100
10
0
20
2600
10
1240
20
2600
10
1240
20
100
0
LWPOLYLINE
5
196
100
AcDbEntity
8
0
100
AcDbPolyline
90
4
70
1
43
0.0
10
1099.9457471332125
20
1468.8019181272577
10
1092.4457471332125
20
1468.8019181272577
10
1092.4457471332103
20
1908.8019181272582
10
1099.9457471332105
20
1908.8019181272584
0
LWPOLYLINE
5
197
100
AcDbEntity
8
0
100
AcDbPolyline
90
4
70
1
43
0.0
10
147.44574713321728
20
1468.8019181272537
10
139.94574713321731
20
1468.8019181272537
10
139.94574713321529
20
1908.8019181272543
10
147.44574713321529
20
1908.8019181272546
0
LWPOLYLINE
5
198
100
AcDbEntity
8
0
100
AcDbPolyline
90
4
70
1
43
0.0
10
33.441884942846677
20
1584.0944667444323
10
40.941884942846656
20
1584.0944667444323
10
40.941884942846144
20
1144.0944667444323
10
33.44188494284613
20
1144.0944667444323
0
LWPOLYLINE
5
199
100
AcDbEntity
8
0
100
AcDbPolyline
90
4
70
1
43
0.0
10
117.4418849428462
20
1379.0944667444328
10
117.44188494284629
20
1389.0944667444328
10
909.4418849428439
20
1389.0944667444346
10
909.4418849428439
20
1379.0944667444344
0
LWPOLYLINE
5
200
100
AcDbEntity
8
0
100
AcDbPolyline
90
4
70
1
43
0.0
10
144.96544307255834
20
913.73645265373193
10
139.96544307255834
20
913.73645265373193
10
139.96544307255809
20
1353.7364526537312
10
144.96544307255803
20
1353.7364526537312
0
LWPOLYLINE
5
201
100
AcDbEntity
8
0
100
AcDbPolyline
90
4
70
1
43
0.0
10
155.96544307255817
20
913.73645265373193
10
144.96544307255832
20
913.73645265373193
10
144.96544307255806
20
1353.7364526537312
10
155.96544307255789
20
1353.7364526537312
0
LWPOLYLINE
5
202
100
AcDbEntity
8
0
100
AcDbPolyline
90
4
70
1
43
0.0
10
605.96544307255681
20
913.73645265373227
10
600.96544307255658
20
913.73645265373227
10
600.96544307255624
20
1353.7364526537315
10
605.96544307255658
20
1353.7364526537315
0
LWPOLYLINE
5
203
100
AcDbEntity
8
0
100
AcDbPolyline
90
4
70
1
43
0.0
10
600.96544307255658
20
913.73645265373227
10
589.96544307255681
20
913.73645265373227
10
589.96544307255635
20
1353.7364526537315
10
600.96544307255624
20
1353.7364526537315
0
LWPOLYLINE
5
204
100
AcDbEntity
8
0
100
AcDbPolyline
90
4
70
1
43
0.0
10
671.4530060460628
20
1245.5963081731918
10
682.45300604606257
20
1245.5963081731895
10
682.45300604597583
20
805.59630817318919
10
671.45300604597605
20
805.59630817319146
0
LWPOLYLINE
5
205
100
AcDbEntity
8
0
100
AcDbPolyline
90
4
70
1
43
0.0
10
666.45300604606234
20
1245.5963081731927
10
671.45300604606268
20
1245.5963081731918
10
671.45300604597605
20
805.59630817319157
10
666.45300604597583
20
805.5963081731926
0
LWPOLYLINE
5
206
100
AcDbEntity
8
0
100
AcDbPolyline
90
4
70
1
43
0.0
10
1127.4530060460606
20
1245.5963081731002
10
1132.4530060460606
20
1245.596308173099
10
1132.4530060459742
20
805.59630817309881
10
1127.4530060459742
20
805.59630817309994
0
LWPOLYLINE
5
207
100
AcDbEntity
8
0
100
AcDbPolyline
90
4
70
1
43
0.0
10
1116.4530060460609
20
1245.5963081731024
10
1127.4530060460606
20
1245.5963081731002
10
1127.4530060459742
20
805.59630817309983
10
1116.4530060459745
20
805.59630817310199
0
LWPOLYLINE
5
208
100
AcDbEntity
8
0
100
AcDbPolyline
90
4
70
1
43
0.0
10
177.01719404683593
20
756.83311206804444
10
177.01719404683587
20
761.83311206804444
10
968.01719404683979
20
761.83311206804478
10
968.01719404683979
20
756.8331120680449
0
LWPOLYLINE
5
209
100
AcDbEntity
8
0
100
AcDbPolyline
90
4
70
1
43
0.0
10
177.01719404683587
20
745.83311206804467
10
177.01719404683587
20
756.83311206804444
10
968.01719404683979
20
756.8331120680449
10
968.01719404683968
20
745.83311206804512
0
ENDSEC
0
SECTION
2
OBJECTS
0
DICTIONARY
5
C
100
AcDbDictionary
3
ACAD_GROUP
350
D
3
ACAD_MLINESTYLE
350
17
0
DICTIONARY
5
D
100
AcDbDictionary
0
DICTIONARY
5
1A
330
C
100
AcDbDictionary
0
DICTIONARY
5
17
100
AcDbDictionary
0
ENDSEC
0
EOF
