0
SECTION
2
HEADER
9
$INSUNITS
70
4
9
$ACADVER
1
AC1014
9
$HANDSEED
5
FFFF
0
ENDSEC
0
SECTION
2
TABLES
0
TABLE
2
VPORT
5
8
100
AcDbSymbolTable
0
ENDTAB
0
TABLE
2
LTYPE
5
5
100
AcDbSymbolTable
0
LTYPE
5
14
100
AcDbSymbolTableRecord
100
AcDbLinetypeTableRecord
2
BYBLOCK
70
0
0
LTYPE
5
15
100
AcDbSymbolTableRecord
100
AcDbLinetypeTableRecord
2
BYLAYER
70
0
0
ENDTAB
0
TABLE
2
LAYER
5
2
100
AcDbSymbolTable
70
2
0
LAYER
5
50
100
AcDbSymbolTableRecord
100
AcDbLayerTableRecord
2
0
70
0
6
CONTINUOUS
0
ENDTAB
0
TABLE
2
STYLE
5
3
100
AcDbSymbolTable
70
1
0
STYLE
5
11
100
AcDbSymbolTableRecord
100
AcDbTextStyleTableRecord
2
STANDARD
70
0
0
ENDTAB
0
TABLE
2
VIEW
5
6
100
AcDbSymbolTable
70
0
0
ENDTAB
0
TABLE
2
UCS
5
7
100
AcDbSymbolTable
70
0
0
ENDTAB
0
TABLE
2
APPID
5
9
100
AcDbSymbolTable
70
2
0
APPID
5
12
100
AcDbSymbolTableRecord
100
AcDbRegAppTableRecord
2
ACAD
70
0
0
ENDTAB
0
TABLE
2
DIMSTYLE
5
A
100
AcDbSymbolTable
70
1
0
ENDTAB
0
TABLE
2
BLOCK_RECORD
5
1
100
AcDbSymbolTable
70
1
0
BLOCK_RECORD
5
1F
100
AcDbSymbolTableRecord
100
AcDbBlockTableRecord
2
*MODEL_SPACE
0
BLOCK_RECORD
5
1B
100
AcDbSymbolTableRecord
100
AcDbBlockTableRecord
2
*PAPER_SPACE
0
ENDTAB
0
ENDSEC
0
SECTION
2
BLOCKS
0
BLOCK
5
20
100
AcDbEntity
100
AcDbBlockBegin
2
*MODEL_SPACE
0
ENDBLK
5
21
100
AcDbEntity
100
AcDbBlockEnd
0
BLOCK
5
1C
100
AcDbEntity
100
AcDbBlockBegin
2
*PAPER_SPACE
0
ENDBLK
5
1D
100
AcDbEntity
100
AcDbBlockEnd
0
ENDSEC
0
SECTION
2
ENTITIES
0
LINE
5
100
100
AcDbEntity
8
0
100
AcDbLine
10
0
20
0
30
0
11
0
21
20
31
0
0
LINE
5
101
100
AcDbEntity
8
0
100
AcDbLine
10
0
20
20
30
0
11
8.5
21
20
31
0
0
LINE
5
102
100
AcDbEntity
8
0
100
AcDbLine
10
8.5
20
20
30
0
11
8.5
21
56.5
31
0
0
LINE
5
103
100
AcDbEntity
8
0
100
AcDbLine
10
8.5
20
56.5
30
0
11
0
21
56.5
31
0
0
LINE
5
104
100
AcDbEntity
8
0
100
AcDbLine
10
0
20
56.5
30
0
11
0
21
76.5
31
0
0
LINE
5
105
100
AcDbEntity
8
0
100
AcDbLine
10
0
20
76.5
30
0
11
233
21
76.5
31
0
0
LINE
5
106
100
AcDbEntity
8
0
100
AcDbLine
10
233
20
76.5
30
0
11
233
21
56.5
31
0
0
LINE
5
107
100
AcDbEntity
8
0
100
AcDbLine
10
233
20
56.5
30
0
11
224.5
21
56.5
31
0
0
LINE
5
108
100
AcDbEntity
8
0
100
AcDbLine
10
224.5
20
56.5
30
0
11
224.5
21
20
31
0
0
LINE
5
109
100
AcDbEntity
8
0
100
AcDbLine
10
224.5
20
20
30
0
11
233
21
20
31
0
0
LINE
5
110
100
AcDbEntity
8
0
100
AcDbLine
10
233
20
20
30
0
11
233
21
0
31
0
0
LINE
5
111
100
AcDbEntity
8
0
100
AcDbLine
10
233
20
0
30
0
11
213
21
0
31
0
0
LINE
5
112
100
AcDbEntity
8
0
100
AcDbLine
10
213
20
0
30
0
11
213
21
8.5
31
0
0
LINE
5
113
100
AcDbEntity
8
0
100
AcDbLine
10
213
20
8.5
30
0
11
20
21
8.5
31
0
0
LINE
5
114
100
AcDbEntity
8
0
100
AcDbLine
10
20
20
8.5
30
0
11
20
21
0
31
0
0
LINE
5
115
100
AcDbEntity
8
0
100
AcDbLine
10
20
20
0
30
0
11
0
21
0
31
0
0
LWPOLYLINE
5
116
100
AcDbEntity
8
0
100
AcDbPolyline
90
8
70
1
43
0.0
10
71.499999999999986
20
28.25
10
161.5
20
28.25
10
161.5
20
48.25
10
71.499999999999986
20
48.25
10
71.499999999999986
20
28.25
10
161.5
20
48.25
42
-0.99999999999999989
10
161.5
20
28.25
10
71.499999999999986
20
48.25
42
0.99999999999999989
0
ARC
5
117
100
AcDbEntity
8
0
100
AcDbCircle
10
23.097800136158053
20
8.5
30
0
40
3.0978001361580532
100
AcDbArc
50
0
51
180
0
ARC
5
118
100
AcDbEntity
8
0
100
AcDbCircle
10
8.5
20
23.033983239871958
30
0
40
3.0339832398719579
100
AcDbArc
50
-90
51
90
0
ARC
5
119
100
AcDbEntity
8
0
100
AcDbCircle
10
8.5
20
53.47835861418298
30
0
40
3.0216413858170199
100
AcDbArc
50
-90
51
90
0
ARC
5
120
100
AcDbEntity
8
0
100
AcDbCircle
10
224.5
20
53.460802432138337
30
0
40
3.0391975678616667
100
AcDbArc
50
90
51
270
0
ARC
5
121
100
AcDbEntity
8
0
100
AcDbCircle
10
224.5
20
23.035733317349639
30
0
40
3.0357333173496404
100
AcDbArc
50
90
51
270
0
ARC
5
122
100
AcDbEntity
8
0
100
AcDbCircle
10
209.96785237197457
20
8.5
30
0
40
3.0321476280254345
100
AcDbArc
50
0
51
180
0
ENDSEC
0
SECTION
2
OBJECTS
0
DICTIONARY
5
C
100
AcDbDictionary
3
ACAD_GROUP
350
D
3
ACAD_MLINESTYLE
350
17
0
DICTIONARY
5
D
100
AcDbDictionary
0
DICTIONARY
5
1A
330
C
100
AcDbDictionary
0
DICTIONARY
5
17
100
AcDbDictionary
0
ENDSEC
0
EOF
