0
SECTION
2
HEADER
9
$INSUNITS
70
4
9
$ACADVER
1
AC1014
9
$HANDSEED
5
FFFF
0
ENDSEC
0
SECTION
2
TABLES
0
TABLE
2
VPORT
5
8
100
AcDbSymbolTable
0
ENDTAB
0
TABLE
2
LTYPE
5
5
100
AcDbSymbolTable
0
LTYPE
5
14
100
AcDbSymbolTableRecord
100
AcDbLinetypeTableRecord
2
BYBLOCK
70
0
0
LTYPE
5
15
100
AcDbSymbolTableRecord
100
AcDbLinetypeTableRecord
2
BYLAYER
70
0
0
ENDTAB
0
TABLE
2
LAYER
5
2
100
AcDbSymbolTable
70
2
0
LAYER
5
50
100
AcDbSymbolTableRecord
100
AcDbLayerTableRecord
2
0
70
0
6
CONTINUOUS
0
ENDTAB
0
TABLE
2
STYLE
5
3
100
AcDbSymbolTable
70
1
0
STYLE
5
11
100
AcDbSymbolTableRecord
100
AcDbTextStyleTableRecord
2
STANDARD
70
0
0
ENDTAB
0
TABLE
2
VIEW
5
6
100
AcDbSymbolTable
70
0
0
ENDTAB
0
TABLE
2
UCS
5
7
100
AcDbSymbolTable
70
0
0
ENDTAB
0
TABLE
2
APPID
5
9
100
AcDbSymbolTable
70
2
0
APPID
5
12
100
AcDbSymbolTableRecord
100
AcDbRegAppTableRecord
2
ACAD
70
0
0
ENDTAB
0
TABLE
2
DIMSTYLE
5
A
100
AcDbSymbolTable
70
1
0
ENDTAB
0
TABLE
2
BLOCK_RECORD
5
1
100
AcDbSymbolTable
70
1
0
BLOCK_RECORD
5
1F
100
AcDbSymbolTableRecord
100
AcDbBlockTableRecord
2
*MODEL_SPACE
0
BLOCK_RECORD
5
1B
100
AcDbSymbolTableRecord
100
AcDbBlockTableRecord
2
*PAPER_SPACE
0
ENDTAB
0
ENDSEC
0
SECTION
2
BLOCKS
0
BLOCK
5
20
100
AcDbEntity
100
AcDbBlockBegin
2
*MODEL_SPACE
0
ENDBLK
5
21
100
AcDbEntity
100
AcDbBlockEnd
0
BLOCK
5
1C
100
AcDbEntity
100
AcDbBlockBegin
2
*PAPER_SPACE
0
ENDBLK
5
1D
100
AcDbEntity
100
AcDbBlockEnd
0
ENDSEC
0
SECTION
2
ENTITIES
0
LWPOLYLINE
5
100
100
AcDbEntity
8
0
100
AcDbPolyline
90
46
70
1
43
0.0
10
241.5
20
100
10
250
20
100
10
250.00209914725866
20
8.4812765203540899
10
241.50209914725863
20
8.4812765203540899
10
241.50209914725863
20
-0.018723479645910146
10
212.3770991472586
20
-0.018723479645910146
10
212.3770991472586
20
8.4812765203540899
10
183.2520991472586
20
8.4812765203540899
10
183.2520991472586
20
-0.018723479645910146
10
154.1270991472586
20
-0.018723479645910146
10
154.1270991472586
20
8.4812765203540899
10
125.0020991472586
20
8.4812765203540899
10
125.0020991472586
20
-0.018723479645910146
10
95.877099147258619
20
-0.018723479645910146
10
95.877099147258619
20
8.4812765203540899
10
66.752099147258605
20
8.4812765203540899
10
66.752099147258605
20
-0.018723479645910146
10
37.627099147258612
20
-0.018723479645910146
10
37.627099147258612
20
8.4812765203540899
10
8.5020991472586065
20
8.4812765203540899
10
8.5020991472586065
20
-0.018723479645910146
10
0.0020991472586058503
20
-0.018723479645910146
10
0
20
40
10
8.5
20
40
10
8.5
20
70
10
0
20
70
10
0
20
100
10
8.5000000000000142
20
100
10
8.5000000000000142
20
130
10
0
20
130
10
0
20
160
10
8.5000000000000142
20
160
10
8.5000000000000142
20
190
10
0
20
190
10
0
20
220
10
8.5000000000000142
20
220
10
8.5000000000000142
20
250
10
241.5
20
250
10
241.5
20
220
10
250
20
220
10
250
20
190
10
241.5
20
190
10
241.5
20
160
10
250
20
160
10
250
20
130
10
241.5
20
130
0
LINE
5
101
100
AcDbEntity
8
0
100
AcDbLine
10
225
20
91.562473495530341
30
0
11
25
21
91.562473495530341
31
0
0
LINE
5
102
100
AcDbEntity
8
0
100
AcDbLine
10
25
20
91.562473495530341
30
0
11
25
21
100.06247349553036
31
0
0
LINE
5
103
100
AcDbEntity
8
0
100
AcDbLine
10
25
20
100.06247349553036
30
0
11
225
21
100.06247349553036
31
0
0
LINE
5
104
100
AcDbEntity
8
0
100
AcDbLine
10
225
20
100.06247349553036
30
0
11
225
21
91.562473495530341
31
0
0
LINE
5
105
100
AcDbEntity
8
0
100
AcDbLine
10
225
20
91.562473495530341
30
0
11
25
21
100.06247349553036
31
0
0
LINE
5
106
100
AcDbEntity
8
0
100
AcDbLine
10
25
20
91.562473495530341
30
0
11
225
21
100.06247349553036
31
0
0
LINE
5
107
100
AcDbEntity
8
0
100
AcDbLine
10
0
20
40
30
0
11
0
21
0
31
0
0
LINE
5
108
100
AcDbEntity
8
0
100
AcDbLine
10
8.5000000000000142
20
250
30
0
11
241.5
21
250
31
0
0
LINE
5
109
100
AcDbEntity
8
0
100
AcDbLine
10
241.5
20
220
30
0
11
250
21
220
31
0
0
LINE
5
110
100
AcDbEntity
8
0
100
AcDbLine
10
250
20
190
30
0
11
241.5
21
190
31
0
0
LINE
5
111
100
AcDbEntity
8
0
100
AcDbLine
10
241.5
20
160
30
0
11
250
21
160
31
0
0
LINE
5
112
100
AcDbEntity
8
0
100
AcDbLine
10
250
20
130
30
0
11
241.5
21
130
31
0
0
LINE
5
113
100
AcDbEntity
8
0
100
AcDbLine
10
241.5
20
130
30
0
11
241.5
21
100
31
0
0
LINE
5
114
100
AcDbEntity
8
0
100
AcDbLine
10
250
20
100
30
0
11
250.00209914725866
21
8.4812765203540899
31
0
0
LINE
5
115
100
AcDbEntity
8
0
100
AcDbLine
10
241.50209914725863
20
8.4812765203540899
30
0
11
241.50209914725863
21
-0.018723479645910146
31
0
0
LINE
5
116
100
AcDbEntity
8
0
100
AcDbLine
10
212.3770991472586
20
-0.018723479645910146
30
0
11
212.3770991472586
21
8.4812765203540899
31
0
0
LINE
5
117
100
AcDbEntity
8
0
100
AcDbLine
10
183.2520991472586
20
8.4812765203540899
30
0
11
183.2520991472586
21
-0.018723479645910146
31
0
0
LINE
5
118
100
AcDbEntity
8
0
100
AcDbLine
10
154.1270991472586
20
-0.018723479645910146
30
0
11
154.1270991472586
21
8.4812765203540899
31
0
0
LINE
5
119
100
AcDbEntity
8
0
100
AcDbLine
10
125.0020991472586
20
8.4812765203540899
30
0
11
125.0020991472586
21
-0.018723479645910146
31
0
0
LINE
5
120
100
AcDbEntity
8
0
100
AcDbLine
10
95.877099147258619
20
-0.018723479645910146
30
0
11
95.877099147258619
21
8.4812765203540899
31
0
0
LINE
5
121
100
AcDbEntity
8
0
100
AcDbLine
10
66.752099147258605
20
8.4812765203540899
30
0
11
66.752099147258605
21
-0.018723479645910146
31
0
0
LINE
5
122
100
AcDbEntity
8
0
100
AcDbLine
10
37.627099147258612
20
-0.018723479645910146
30
0
11
37.627099147258612
21
8.4812765203540899
31
0
0
LINE
5
123
100
AcDbEntity
8
0
100
AcDbLine
10
8.5020991472586065
20
8.4812765203540899
30
0
11
8.5020991472586065
21
-0.018723479645910146
31
0
0
LINE
5
124
100
AcDbEntity
8
0
100
AcDbLine
10
8.5
20
40
30
0
11
8.5
21
70
31
0
0
LINE
5
125
100
AcDbEntity
8
0
100
AcDbLine
10
0
20
70
30
0
11
0
21
100
31
0
0
LINE
5
126
100
AcDbEntity
8
0
100
AcDbLine
10
8.5000000000000142
20
100
30
0
11
8.5000000000000142
21
130
31
0
0
LINE
5
127
100
AcDbEntity
8
0
100
AcDbLine
10
0
20
130
30
0
11
0
21
160
31
0
0
LINE
5
128
100
AcDbEntity
8
0
100
AcDbLine
10
8.5000000000000142
20
160
30
0
11
8.5000000000000142
21
190
31
0
0
LINE
5
129
100
AcDbEntity
8
0
100
AcDbLine
10
0
20
190
30
0
11
0
21
220
31
0
0
LINE
5
130
100
AcDbEntity
8
0
100
AcDbLine
10
8.5000000000000142
20
220
30
0
11
8.5000000000000142
21
250
31
0
0
ARC
5
131
100
AcDbEntity
8
0
100
AcDbCircle
10
28.00317117017066
20
100.06247349553036
30
0
40
3.0031711701706598
100
AcDbArc
50
0
51
180
0
ARC
5
132
100
AcDbEntity
8
0
100
AcDbCircle
10
28.00317117017066
20
91.562473495530341
30
0
40
3.0031711701706598
100
AcDbArc
50
-180
51
0
0
ARC
5
133
100
AcDbEntity
8
0
100
AcDbCircle
10
221.99284834139905
20
100.06247349553036
30
0
40
3.0071516586009395
100
AcDbArc
50
0
51
180
0
ARC
5
134
100
AcDbEntity
8
0
100
AcDbCircle
10
221.99883773246026
20
91.562473495530341
30
0
40
3.0011622675397476
100
AcDbArc
50
-180
51
0
0
ARC
5
135
100
AcDbEntity
8
0
100
AcDbCircle
10
8.5000000000000142
20
223.01604764226255
30
0
40
3.0160476422625493
100
AcDbArc
50
-90
51
90
0
ARC
5
136
100
AcDbEntity
8
0
100
AcDbCircle
10
8.5000000000000142
20
186.97280639641497
30
0
40
3.0271936035850189
100
AcDbArc
50
-90
51
90
0
ARC
5
137
100
AcDbEntity
8
0
100
AcDbCircle
10
8.5000000000000142
20
163.03232244592348
30
0
40
3.0323224459234766
100
AcDbArc
50
-90
51
90
0
ARC
5
138
100
AcDbEntity
8
0
100
AcDbCircle
10
8.5000000000000142
20
126.95649189645047
30
0
40
3.0435081035495237
100
AcDbArc
50
-90
51
90
0
ARC
5
139
100
AcDbEntity
8
0
100
AcDbCircle
10
8.5000000000000142
20
103.06400553658719
30
0
40
3.0640055365871888
100
AcDbArc
50
-90
51
90
0
ARC
5
140
100
AcDbEntity
8
0
100
AcDbCircle
10
8.5
20
66.948050200861019
30
0
40
3.0519497991389777
100
AcDbArc
50
-90
51
90
0
ARC
5
141
100
AcDbEntity
8
0
100
AcDbCircle
10
8.5
20
43.048268425315335
30
0
40
3.0482684253153369
100
AcDbArc
50
-90
51
90
0
ARC
5
142
100
AcDbEntity
8
0
100
AcDbCircle
10
11.520473734972708
20
8.4812765203540899
30
0
40
3.0183745877140988
100
AcDbArc
50
0
51
180
0
ARC
5
143
100
AcDbEntity
8
0
100
AcDbCircle
10
34.621346442844889
20
8.4812765203540899
30
0
40
3.0057527044137222
100
AcDbArc
50
0
51
180
0
ARC
5
144
100
AcDbEntity
8
0
100
AcDbCircle
10
69.856350578624884
20
8.4812765203540899
30
0
40
3.1042514313662739
100
AcDbArc
50
0
51
180
0
ARC
5
145
100
AcDbEntity
8
0
100
AcDbCircle
10
92.822412753866843
20
8.4812765203540899
30
0
40
3.0546863933917656
100
AcDbArc
50
0
51
180
0
ARC
5
146
100
AcDbEntity
8
0
100
AcDbCircle
10
128.05741688964679
20
8.4812765203540899
30
0
40
3.0553177423881905
100
AcDbArc
50
0
51
180
0
ARC
5
147
100
AcDbEntity
8
0
100
AcDbCircle
10
151.10772117315562
20
8.4812765203540899
30
0
40
3.0193779741029836
100
AcDbArc
50
0
51
180
0
ARC
5
148
100
AcDbEntity
8
0
100
AcDbCircle
10
186.26182497721436
20
8.4812765203540899
30
0
40
3.0097258299557694
100
AcDbArc
50
0
51
180
0
ARC
5
149
100
AcDbEntity
8
0
100
AcDbCircle
10
209.19271180722836
20
8.4812765203540899
30
0
40
3.1843873400302414
100
AcDbArc
50
0
51
180
0
ARC
5
150
100
AcDbEntity
8
0
100
AcDbCircle
10
241.50209914725863
20
5.3486865490049906
30
0
40
3.1325899713491001
100
AcDbArc
50
90
51
270
0
ARC
5
151
100
AcDbEntity
8
0
100
AcDbCircle
10
241.5
20
103.06327204382825
30
0
40
3.063272043828249
100
AcDbArc
50
90
51
270
0
ARC
5
152
100
AcDbEntity
8
0
100
AcDbCircle
10
241.5
20
126.96187993612062
30
0
40
3.0381200638793793
100
AcDbArc
50
90
51
270
0
ARC
5
153
100
AcDbEntity
8
0
100
AcDbCircle
10
241.5
20
163.07750029855697
30
0
40
3.0775002985569699
100
AcDbArc
50
90
51
270
0
ARC
5
154
100
AcDbEntity
8
0
100
AcDbCircle
10
241.5
20
186.93368989576257
30
0
40
3.0663101042374308
100
AcDbArc
50
90
51
270
0
ARC
5
155
100
AcDbEntity
8
0
100
AcDbCircle
10
241.5
20
223.04931025819886
30
0
40
3.0493102581988651
100
AcDbArc
50
90
51
270
0
ENDSEC
0
SECTION
2
OBJECTS
0
DICTIONARY
5
C
100
AcDbDictionary
3
ACAD_GROUP
350
D
3
ACAD_MLINESTYLE
350
17
0
DICTIONARY
5
D
100
AcDbDictionary
0
DICTIONARY
5
1A
330
C
100
AcDbDictionary
0
DICTIONARY
5
17
100
AcDbDictionary
0
ENDSEC
0
EOF
