0
SECTION
2
HEADER
9
$INSUNITS
70
4
9
$ACADVER
1
AC1014
9
$HANDSEED
5
FFFF
0
ENDSEC
0
SECTION
2
TABLES
0
TABLE
2
VPORT
5
8
100
AcDbSymbolTable
0
ENDTAB
0
TABLE
2
LTYPE
5
5
100
AcDbSymbolTable
0
LTYPE
5
14
100
AcDbSymbolTableRecord
100
AcDbLinetypeTableRecord
2
BYBLOCK
70
0
0
LTYPE
5
15
100
AcDbSymbolTableRecord
100
AcDbLinetypeTableRecord
2
BYLAYER
70
0
0
ENDTAB
0
TABLE
2
LAYER
5
2
100
AcDbSymbolTable
70
2
0
LAYER
5
50
100
AcDbSymbolTableRecord
100
AcDbLayerTableRecord
2
0
70
0
6
CONTINUOUS
0
ENDTAB
0
TABLE
2
STYLE
5
3
100
AcDbSymbolTable
70
1
0
STYLE
5
11
100
AcDbSymbolTableRecord
100
AcDbTextStyleTableRecord
2
STANDARD
70
0
0
ENDTAB
0
TABLE
2
VIEW
5
6
100
AcDbSymbolTable
70
0
0
ENDTAB
0
TABLE
2
UCS
5
7
100
AcDbSymbolTable
70
0
0
ENDTAB
0
TABLE
2
APPID
5
9
100
AcDbSymbolTable
70
2
0
APPID
5
12
100
AcDbSymbolTableRecord
100
AcDbRegAppTableRecord
2
ACAD
70
0
0
ENDTAB
0
TABLE
2
DIMSTYLE
5
A
100
AcDbSymbolTable
70
1
0
ENDTAB
0
TABLE
2
BLOCK_RECORD
5
1
100
AcDbSymbolTable
70
1
0
BLOCK_RECORD
5
1F
100
AcDbSymbolTableRecord
100
AcDbBlockTableRecord
2
*MODEL_SPACE
0
BLOCK_RECORD
5
1B
100
AcDbSymbolTableRecord
100
AcDbBlockTableRecord
2
*PAPER_SPACE
0
ENDTAB
0
ENDSEC
0
SECTION
2
BLOCKS
0
BLOCK
5
20
100
AcDbEntity
100
AcDbBlockBegin
2
*MODEL_SPACE
0
ENDBLK
5
21
100
AcDbEntity
100
AcDbBlockEnd
0
BLOCK
5
1C
100
AcDbEntity
100
AcDbBlockBegin
2
*PAPER_SPACE
0
ENDBLK
5
1D
100
AcDbEntity
100
AcDbBlockEnd
0
ENDSEC
0
SECTION
2
ENTITIES
0
LWPOLYLINE
5
100
100
AcDbEntity
8
0
100
AcDbPolyline
90
48
70
1
43
0.0
10
-24.974380130408981
20
219.98529971303179
10
-24.974380130408989
20
249.98529971303179
10
-274.97438013040897
20
249.98529971303179
10
-274.97438013040897
20
219.98529971303179
10
-266.47438013040897
20
219.98529971303179
10
-266.47438013040897
20
189.98529971303179
10
-274.97438013040897
20
189.98529971303179
10
-274.97438013040897
20
159.98529971303179
10
-266.47438013040897
20
159.98529971303179
10
-266.47438013040897
20
129.98529971303179
10
-274.97438013040897
20
129.98529971303179
10
-274.97438013040897
20
99.985299713031779
10
-266.47438013040897
20
99.985299713031779
10
-266.47438013040897
20
84.985299713031779
10
-266.47438013040897
20
69.985299713031779
10
-274.97438013040897
20
69.985299713031779
10
-274.97438013040897
20
39.985299713031779
10
-266.47438013040897
20
39.985299713031779
10
-266.47438013040897
20
8.4852997130317753
10
-237.34938013040897
20
8.4852997130317753
10
-237.34938013040897
20
-0.014700286968225562
10
-208.22438013040895
20
-0.014700286968225562
10
-208.22438013040895
20
8.4852997130317735
10
-179.09938013040892
20
8.4852997130317735
10
-179.09938013040892
20
-0.014700286968226672
10
-149.97438013040895
20
-0.014700286968226672
10
-149.97438013040895
20
8.4852997130317735
10
-120.84938013040895
20
8.4852997130317735
10
-120.84938013040895
20
-0.014700286968225562
10
-91.724380130408946
20
-0.014700286968225562
10
-91.724380130408946
20
8.4852997130317735
10
-62.599380130408946
20
8.4852997130317735
10
-62.599380130408946
20
-0.014700286968226672
10
-33.474380130408981
20
-0.014700286968221121
10
-33.474380130408981
20
39.985299713031779
10
-24.974380130408981
20
39.985299713031779
10
-24.974380130408981
20
69.985299713031779
10
-33.474380130408981
20
69.985299713031779
10
-33.474380130408981
20
84.985299713031779
10
-33.474380130408981
20
99.985299713031779
10
-24.974380130408981
20
99.985299713031779
10
-24.974380130408981
20
129.98529971303179
10
-33.474380130408981
20
129.98529971303179
10
-33.474380130408981
20
159.98529971303179
10
-24.974380130408981
20
159.98529971303179
10
-24.974380130408981
20
189.98529971303179
10
-33.474380130408981
20
189.98529971303179
10
-33.474380130408981
20
219.98529971303179
0
LINE
5
101
100
AcDbEntity
8
0
100
AcDbLine
10
-50.066523696093469
20
91.468720203938716
30
0
11
-249.97438013040775
21
99.964804102397068
31
0
0
LINE
5
102
100
AcDbEntity
8
0
100
AcDbLine
10
-249.97438013040775
20
91.464804102397068
30
0
11
-49.974380130407724
21
99.964804102397068
31
0
0
ARC
5
103
100
AcDbEntity
8
0
100
AcDbCircle
10
-266.47438013040897
20
96.920346811783006
30
0
40
3.0649529012487697
100
AcDbArc
50
-90
51
90
0
ARC
5
104
100
AcDbEntity
8
0
100
AcDbCircle
10
-33.474380130408981
20
96.96410802628408
30
0
40
3.0211916867476951
100
AcDbArc
50
90
51
270
0
ARC
5
105
100
AcDbEntity
8
0
100
AcDbCircle
10
-33.474380130408981
20
133.06554420273076
30
0
40
3.0802444896989734
100
AcDbArc
50
90
51
270
0
ARC
5
106
100
AcDbEntity
8
0
100
AcDbCircle
10
-33.474380130408981
20
156.94139442301025
30
0
40
3.0439052900215202
100
AcDbArc
50
90
51
270
0
ARC
5
107
100
AcDbEntity
8
0
100
AcDbCircle
10
-33.474380130408981
20
193.04283059945692
30
0
40
3.0575308864251483
100
AcDbArc
50
90
51
270
0
ARC
5
108
100
AcDbEntity
8
0
100
AcDbCircle
10
-33.474380130408981
20
216.91868081973638
30
0
40
3.0666188932953986
100
AcDbArc
50
90
51
270
0
ARC
5
109
100
AcDbEntity
8
0
100
AcDbCircle
10
-266.47438013040897
20
133.05182511087662
30
0
40
3.0665253978448348
100
AcDbArc
50
-90
51
90
0
ARC
5
110
100
AcDbEntity
8
0
100
AcDbCircle
10
-266.47438013040897
20
156.97728818854299
30
0
40
3.0080115244887828
100
AcDbArc
50
-90
51
90
0
ARC
5
111
100
AcDbEntity
8
0
100
AcDbCircle
10
-266.47438013040897
20
193.04227194108435
30
0
40
3.0569722280525724
100
AcDbArc
50
-90
51
90
0
ARC
5
112
100
AcDbEntity
8
0
100
AcDbCircle
10
-266.47438013040897
20
216.84987559472279
30
0
40
3.1354241183089826
100
AcDbArc
50
-90
51
90
0
LINE
5
113
100
AcDbEntity
8
0
100
AcDbLine
10
-49.974380130408989
20
91.464804102397096
30
0
11
-249.97438013040897
21
91.464804102397096
31
0
0
LINE
5
114
100
AcDbEntity
8
0
100
AcDbLine
10
-249.97438013040897
20
91.464804102397096
30
0
11
-249.97438013040897
21
99.96480410239711
31
0
0
LINE
5
115
100
AcDbEntity
8
0
100
AcDbLine
10
-249.97438013040897
20
99.96480410239711
30
0
11
-49.974380130408989
21
99.96480410239711
31
0
0
LINE
5
116
100
AcDbEntity
8
0
100
AcDbLine
10
-49.974380130408989
20
99.96480410239711
30
0
11
-49.974380130408989
21
91.464804102397096
31
0
0
LINE
5
117
100
AcDbEntity
8
0
100
AcDbLine
10
-49.974380130408989
20
91.464804102397096
30
0
11
-249.97438013040897
21
99.96480410239711
31
0
0
LINE
5
118
100
AcDbEntity
8
0
100
AcDbLine
10
-249.97438013040897
20
91.464804102397096
30
0
11
-49.974380130408989
21
99.96480410239711
31
0
0
ARC
5
119
100
AcDbEntity
8
0
100
AcDbCircle
10
-53.008295168372612
20
99.96480410239711
30
0
40
3.0339150379648849
100
AcDbArc
50
0
51
180
0
ARC
5
120
100
AcDbEntity
8
0
100
AcDbCircle
10
-53.008295168372626
20
91.464804102397096
30
0
40
3.0339150379636415
100
AcDbArc
50
-180
51
0
0
ARC
5
121
100
AcDbEntity
8
0
100
AcDbCircle
10
-246.92454741004954
20
99.96480410239711
30
0
40
3.04983272035944
100
AcDbArc
50
0
51
180
0
ARC
5
122
100
AcDbEntity
8
0
100
AcDbCircle
10
-246.91660177182288
20
91.464804102397096
30
0
40
3.0577783585860985
100
AcDbArc
50
-180
51
0
0
ARC
5
123
100
AcDbEntity
8
0
100
AcDbCircle
10
-266.47438013040897
20
73.176492197993412
30
0
40
3.1911924849616291
100
AcDbArc
50
-90
51
90
0
ARC
5
124
100
AcDbEntity
8
0
100
AcDbCircle
10
-266.47438013040897
20
36.923022958141473
30
0
40
3.0622767548903074
100
AcDbArc
50
-90
51
90
0
ARC
5
125
100
AcDbEntity
8
0
100
AcDbCircle
10
-33.474380130408981
20
73.08751876721999
30
0
40
3.1022190541882111
100
AcDbArc
50
90
51
270
0
ARC
5
126
100
AcDbEntity
8
0
100
AcDbCircle
10
-33.474380130408981
20
36.826210670869379
30
0
40
3.1590890421623996
100
AcDbArc
50
90
51
270
0
ARC
5
127
100
AcDbEntity
8
0
100
AcDbCircle
10
-65.774169806406249
20
8.4852997130317735
30
0
40
3.1747896759973049
100
AcDbArc
50
0
51
180
0
ARC
5
128
100
AcDbEntity
8
0
100
AcDbCircle
10
-88.648756515279516
20
8.4852997130317735
30
0
40
3.0756236151294303
100
AcDbArc
50
0
51
180
0
ARC
5
129
100
AcDbEntity
8
0
100
AcDbCircle
10
-123.85910760643267
20
8.4852997130317735
30
0
40
3.0097274760237269
100
AcDbArc
50
0
51
180
0
ARC
5
130
100
AcDbEntity
8
0
100
AcDbCircle
10
-146.87939231982108
20
8.4852997130317735
30
0
40
3.0949878105878703
100
AcDbArc
50
0
51
180
0
ARC
5
131
100
AcDbEntity
8
0
100
AcDbCircle
10
-182.13830941247909
20
8.4852997130317735
30
0
40
3.0389292820701641
100
AcDbArc
50
0
51
180
0
ARC
5
132
100
AcDbEntity
8
0
100
AcDbCircle
10
-205.15859412586752
20
8.4852997130317735
30
0
40
3.0657860045414154
100
AcDbArc
50
0
51
180
0
ARC
5
133
100
AcDbEntity
8
0
100
AcDbCircle
10
-240.36894521702067
20
8.4852997130317753
30
0
40
3.0195650866117063
100
AcDbArc
50
0
51
180
0
ENDSEC
0
SECTION
2
OBJECTS
0
DICTIONARY
5
C
100
AcDbDictionary
3
ACAD_GROUP
350
D
3
ACAD_MLINESTYLE
350
17
0
DICTIONARY
5
D
100
AcDbDictionary
0
DICTIONARY
5
1A
330
C
100
AcDbDictionary
0
DICTIONARY
5
17
100
AcDbDictionary
0
ENDSEC
0
EOF
