0
SECTION
2
HEADER
9
$INSUNITS
70
4
9
$ACADVER
1
AC1014
9
$HANDSEED
5
FFFF
0
ENDSEC
0
SECTION
2
TABLES
0
TABLE
2
VPORT
5
8
100
AcDbSymbolTable
0
ENDTAB
0
TABLE
2
LTYPE
5
5
100
AcDbSymbolTable
0
LTYPE
5
14
100
AcDbSymbolTableRecord
100
AcDbLinetypeTableRecord
2
BYBLOCK
70
0
0
LTYPE
5
15
100
AcDbSymbolTableRecord
100
AcDbLinetypeTableRecord
2
BYLAYER
70
0
0
ENDTAB
0
TABLE
2
LAYER
5
2
100
AcDbSymbolTable
70
2
0
LAYER
5
50
100
AcDbSymbolTableRecord
100
AcDbLayerTableRecord
2
0
70
0
6
CONTINUOUS
0
ENDTAB
0
TABLE
2
STYLE
5
3
100
AcDbSymbolTable
70
1
0
STYLE
5
11
100
AcDbSymbolTableRecord
100
AcDbTextStyleTableRecord
2
STANDARD
70
0
0
ENDTAB
0
TABLE
2
VIEW
5
6
100
AcDbSymbolTable
70
0
0
ENDTAB
0
TABLE
2
UCS
5
7
100
AcDbSymbolTable
70
0
0
ENDTAB
0
TABLE
2
APPID
5
9
100
AcDbSymbolTable
70
2
0
APPID
5
12
100
AcDbSymbolTableRecord
100
AcDbRegAppTableRecord
2
ACAD
70
0
0
ENDTAB
0
TABLE
2
DIMSTYLE
5
A
100
AcDbSymbolTable
70
1
0
ENDTAB
0
TABLE
2
BLOCK_RECORD
5
1
100
AcDbSymbolTable
70
1
0
BLOCK_RECORD
5
1F
100
AcDbSymbolTableRecord
100
AcDbBlockTableRecord
2
*MODEL_SPACE
0
BLOCK_RECORD
5
1B
100
AcDbSymbolTableRecord
100
AcDbBlockTableRecord
2
*PAPER_SPACE
0
ENDTAB
0
ENDSEC
0
SECTION
2
BLOCKS
0
BLOCK
5
20
100
AcDbEntity
100
AcDbBlockBegin
2
*MODEL_SPACE
0
ENDBLK
5
21
100
AcDbEntity
100
AcDbBlockEnd
0
BLOCK
5
1C
100
AcDbEntity
100
AcDbBlockBegin
2
*PAPER_SPACE
0
ENDBLK
5
1D
100
AcDbEntity
100
AcDbBlockEnd
0
ENDSEC
0
SECTION
2
ENTITIES
0
LINE
5
100
100
AcDbEntity
8
0
100
AcDbLine
10
0
20
0
30
0
11
16.5
21
0
31
0
0
LINE
5
101
100
AcDbEntity
8
0
100
AcDbLine
10
16.5
20
0
30
0
11
16.5
21
-8.5
31
0
0
LINE
5
102
100
AcDbEntity
8
0
100
AcDbLine
10
16.5
20
-8.5
30
0
11
216.5
21
-8.5
31
0
0
LINE
5
103
100
AcDbEntity
8
0
100
AcDbLine
10
216.5
20
-8.5
30
0
11
216.5
21
0
31
0
0
LINE
5
104
100
AcDbEntity
8
0
100
AcDbLine
10
216.5
20
0
30
0
11
232.99999999999997
21
0
31
0
0
LINE
5
105
100
AcDbEntity
8
0
100
AcDbLine
10
232.99999999999997
20
0
30
0
11
232.99999999999997
21
16.5
31
0
0
LINE
5
106
100
AcDbEntity
8
0
100
AcDbLine
10
232.99999999999997
20
16.5
30
0
11
241.5
21
16.5
31
0
0
LINE
5
107
100
AcDbEntity
8
0
100
AcDbLine
10
241.5
20
16.5
30
0
11
241.5
21
216.5
31
0
0
LINE
5
108
100
AcDbEntity
8
0
100
AcDbLine
10
241.5
20
216.5
30
0
11
232.99999999999997
21
216.5
31
0
0
LINE
5
109
100
AcDbEntity
8
0
100
AcDbLine
10
232.99999999999997
20
216.5
30
0
11
232.99999999999997
21
232.99999999999997
31
0
0
LINE
5
110
100
AcDbEntity
8
0
100
AcDbLine
10
232.99999999999997
20
232.99999999999997
30
0
11
216.5
21
232.99999999999997
31
0
0
LINE
5
111
100
AcDbEntity
8
0
100
AcDbLine
10
216.5
20
232.99999999999997
30
0
11
216.5
21
241.5
31
0
0
LINE
5
112
100
AcDbEntity
8
0
100
AcDbLine
10
216.5
20
241.5
30
0
11
16.499999999999986
21
241.5
31
0
0
LINE
5
113
100
AcDbEntity
8
0
100
AcDbLine
10
16.499999999999986
20
241.5
30
0
11
16.499999999999986
21
232.99999999999997
31
0
0
LINE
5
114
100
AcDbEntity
8
0
100
AcDbLine
10
16.499999999999986
20
232.99999999999997
30
0
11
-1.5543122344752192e-14
21
232.99999999999997
31
0
0
LINE
5
115
100
AcDbEntity
8
0
100
AcDbLine
10
-1.5543122344752192e-14
20
232.99999999999997
30
0
11
-1.5543122344752192e-14
21
216.5
31
0
0
LINE
5
116
100
AcDbEntity
8
0
100
AcDbLine
10
-1.5543122344752192e-14
20
216.5
30
0
11
-8.500000000000016
21
216.5
31
0
0
LINE
5
117
100
AcDbEntity
8
0
100
AcDbLine
10
-8.500000000000016
20
216.5
30
0
11
-8.500000000000016
21
16.500000000000021
31
0
0
LINE
5
118
100
AcDbEntity
8
0
100
AcDbLine
10
-8.500000000000016
20
16.500000000000021
30
0
11
-1.5543122344752192e-14
21
16.500000000000021
31
0
0
LINE
5
119
100
AcDbEntity
8
0
100
AcDbLine
10
-1.5543122344752192e-14
20
16.500000000000021
30
0
11
0
21
0
31
0
0
ARC
5
120
100
AcDbEntity
8
0
100
AcDbCircle
10
13.27995384370106
20
0
30
0
40
3.2200461562989413
100
AcDbArc
50
0
51
180
0
ARC
5
121
100
AcDbEntity
8
0
100
AcDbCircle
10
-7.7715611723760958e-15
20
13.248079180640069
30
0
40
3.2519208193599525
100
AcDbArc
50
-90.000000000000057
51
90.000000000000142
0
ARC
5
122
100
AcDbEntity
8
0
100
AcDbCircle
10
219.73004577940799
20
0
30
0
40
3.2300457794080017
100
AcDbArc
50
0
51
180
0
ARC
5
123
100
AcDbEntity
8
0
100
AcDbCircle
10
232.99999999999997
20
13.282453650100196
30
0
40
3.2175463498998047
100
AcDbArc
50
90
51
270
0
ARC
5
124
100
AcDbEntity
8
0
100
AcDbCircle
10
232.99999999999997
20
219.62496188176999
30
0
40
3.1249618817700053
100
AcDbArc
50
90
51
270
0
ARC
5
125
100
AcDbEntity
8
0
100
AcDbCircle
10
219.75968740698875
20
232.99999999999997
30
0
40
3.2596874069887605
100
AcDbArc
50
-180
51
0
0
ARC
5
126
100
AcDbEntity
8
0
100
AcDbCircle
10
13.380104859078479
20
232.99999999999997
30
0
40
3.119895140921507
100
AcDbArc
50
-180
51
0
0
ARC
5
127
100
AcDbEntity
8
0
100
AcDbCircle
10
-1.5543122344752192e-14
20
219.59104341253575
30
0
40
3.0910434125357611
100
AcDbArc
50
-90
51
90
0
ENDSEC
0
SECTION
2
OBJECTS
0
DICTIONARY
5
C
100
AcDbDictionary
3
ACAD_GROUP
350
D
3
ACAD_MLINESTYLE
350
17
0
DICTIONARY
5
D
100
AcDbDictionary
0
DICTIONARY
5
1A
330
C
100
AcDbDictionary
0
DICTIONARY
5
17
100
AcDbDictionary
0
ENDSEC
0
EOF
