0
SECTION
2
HEADER
9
$INSUNITS
70
4
9
$ACADVER
1
AC1014
9
$HANDSEED
5
FFFF
0
ENDSEC
0
SECTION
2
TABLES
0
TABLE
2
VPORT
5
8
100
AcDbSymbolTable
0
ENDTAB
0
TABLE
2
LTYPE
5
5
100
AcDbSymbolTable
0
LTYPE
5
14
100
AcDbSymbolTableRecord
100
AcDbLinetypeTableRecord
2
BYBLOCK
70
0
0
LTYPE
5
15
100
AcDbSymbolTableRecord
100
AcDbLinetypeTableRecord
2
BYLAYER
70
0
0
ENDTAB
0
TABLE
2
LAYER
5
2
100
AcDbSymbolTable
70
2
0
LAYER
5
50
100
AcDbSymbolTableRecord
100
AcDbLayerTableRecord
2
0
70
0
6
CONTINUOUS
0
ENDTAB
0
TABLE
2
STYLE
5
3
100
AcDbSymbolTable
70
1
0
STYLE
5
11
100
AcDbSymbolTableRecord
100
AcDbTextStyleTableRecord
2
STANDARD
70
0
0
ENDTAB
0
TABLE
2
VIEW
5
6
100
AcDbSymbolTable
70
0
0
ENDTAB
0
TABLE
2
UCS
5
7
100
AcDbSymbolTable
70
0
0
ENDTAB
0
TABLE
2
APPID
5
9
100
AcDbSymbolTable
70
2
0
APPID
5
12
100
AcDbSymbolTableRecord
100
AcDbRegAppTableRecord
2
ACAD
70
0
0
ENDTAB
0
TABLE
2
DIMSTYLE
5
A
100
AcDbSymbolTable
70
1
0
ENDTAB
0
TABLE
2
BLOCK_RECORD
5
1
100
AcDbSymbolTable
70
1
0
BLOCK_RECORD
5
1F
100
AcDbSymbolTableRecord
100
AcDbBlockTableRecord
2
*MODEL_SPACE
0
BLOCK_RECORD
5
1B
100
AcDbSymbolTableRecord
100
AcDbBlockTableRecord
2
*PAPER_SPACE
0
ENDTAB
0
ENDSEC
0
SECTION
2
BLOCKS
0
BLOCK
5
20
100
AcDbEntity
100
AcDbBlockBegin
2
*MODEL_SPACE
0
ENDBLK
5
21
100
AcDbEntity
100
AcDbBlockEnd
0
BLOCK
5
1C
100
AcDbEntity
100
AcDbBlockBegin
2
*PAPER_SPACE
0
ENDBLK
5
1D
100
AcDbEntity
100
AcDbBlockEnd
0
ENDSEC
0
SECTION
2
ENTITIES
0
LWPOLYLINE
5
100
100
AcDbEntity
8
0
100
AcDbPolyline
90
24
70
1
43
0.0
10
-24.974380130408981
20
219.98529971303179
10
-24.974380130408989
20
249.98529971303179
10
-274.97438013040897
20
249.98529971303179
10
-274.97438013040897
20
219.98529971303179
10
-266.47438013040897
20
219.98529971303179
10
-266.47438013040897
20
189.98529971303179
10
-274.97438013040897
20
189.98529971303179
10
-274.97438013040897
20
159.98529971303179
10
-266.47438013040897
20
159.98529971303179
10
-266.47438013040897
20
129.98529971303179
10
-274.97438013040897
20
129.98529971303179
10
-274.97438013040897
20
99.985299713031779
10
-266.47438013040897
20
99.985299713031779
10
-266.47438013040897
20
84.985299713031779
10
-33.474380130408981
20
84.985299713031779
10
-33.474380130408981
20
99.985299713031779
10
-24.974380130408981
20
99.985299713031779
10
-24.974380130408981
20
129.98529971303179
10
-33.474380130408981
20
129.98529971303179
10
-33.474380130408981
20
159.98529971303179
10
-24.974380130408981
20
159.98529971303179
10
-24.974380130408981
20
189.98529971303179
10
-33.474380130408981
20
189.98529971303179
10
-33.474380130408981
20
219.98529971303179
0
LINE
5
101
100
AcDbEntity
8
0
100
AcDbLine
10
-249.88223656472451
20
91.468720203938773
30
0
11
-49.882236564724508
21
99.96872020393873
31
0
0
ARC
5
102
100
AcDbEntity
8
0
100
AcDbCircle
10
-266.47438013040897
20
96.920346811783006
30
0
40
3.0649529012487697
100
AcDbArc
50
-90
51
90
0
ARC
5
103
100
AcDbEntity
8
0
100
AcDbCircle
10
-33.474380130408981
20
96.96410802628408
30
0
40
3.0211916867476951
100
AcDbArc
50
90
51
270
0
ARC
5
104
100
AcDbEntity
8
0
100
AcDbCircle
10
-33.474380130408981
20
133.06554420273076
30
0
40
3.0802444896989734
100
AcDbArc
50
90
51
270
0
ARC
5
105
100
AcDbEntity
8
0
100
AcDbCircle
10
-33.474380130408981
20
156.94139442301025
30
0
40
3.0439052900215202
100
AcDbArc
50
90
51
270
0
ARC
5
106
100
AcDbEntity
8
0
100
AcDbCircle
10
-33.474380130408981
20
193.04283059945692
30
0
40
3.0575308864251483
100
AcDbArc
50
90
51
270
0
ARC
5
107
100
AcDbEntity
8
0
100
AcDbCircle
10
-33.474380130408981
20
216.91868081973638
30
0
40
3.0666188932953986
100
AcDbArc
50
90
51
270
0
ARC
5
108
100
AcDbEntity
8
0
100
AcDbCircle
10
-266.47438013040897
20
133.05182511087662
30
0
40
3.0665253978448348
100
AcDbArc
50
-90
51
90
0
ARC
5
109
100
AcDbEntity
8
0
100
AcDbCircle
10
-266.47438013040897
20
156.97728818854299
30
0
40
3.0080115244887828
100
AcDbArc
50
-90
51
90
0
ARC
5
110
100
AcDbEntity
8
0
100
AcDbCircle
10
-266.47438013040897
20
193.04227194108435
30
0
40
3.0569722280525724
100
AcDbArc
50
-90
51
90
0
ARC
5
111
100
AcDbEntity
8
0
100
AcDbCircle
10
-266.47438013040897
20
216.84987559472279
30
0
40
3.1354241183089826
100
AcDbArc
50
-90
51
90
0
LINE
5
112
100
AcDbEntity
8
0
100
AcDbLine
10
-49.974380130408989
20
91.464804102397096
30
0
11
-249.97438013040897
21
91.464804102397096
31
0
0
LINE
5
113
100
AcDbEntity
8
0
100
AcDbLine
10
-249.97438013040897
20
91.464804102397096
30
0
11
-249.97438013040897
21
99.96480410239711
31
0
0
LINE
5
114
100
AcDbEntity
8
0
100
AcDbLine
10
-249.97438013040897
20
99.96480410239711
30
0
11
-49.974380130408989
21
99.96480410239711
31
0
0
LINE
5
115
100
AcDbEntity
8
0
100
AcDbLine
10
-49.974380130408989
20
99.96480410239711
30
0
11
-49.974380130408989
21
91.464804102397096
31
0
0
LINE
5
116
100
AcDbEntity
8
0
100
AcDbLine
10
-49.974380130408989
20
91.464804102397096
30
0
11
-249.97438013040897
21
99.96480410239711
31
0
0
LINE
5
117
100
AcDbEntity
8
0
100
AcDbLine
10
-249.97438013040897
20
91.464804102397096
30
0
11
-49.974380130408989
21
99.96480410239711
31
0
0
ARC
5
118
100
AcDbEntity
8
0
100
AcDbCircle
10
-53.004370694115075
20
99.96872020393873
30
0
40
3.0299930943814375
100
AcDbArc
50
-0.074051704393077622
51
180.07405170439304
0
ARC
5
119
100
AcDbEntity
8
0
100
AcDbCircle
10
-53.004370694115082
20
91.464804102397096
30
0
40
3.0299905637060931
100
AcDbArc
50
-180
51
0
0
ARC
5
120
100
AcDbEntity
8
0
100
AcDbCircle
10
-246.91825117852954
20
99.96480410239711
30
0
40
3.056128951879451
100
AcDbArc
50
0
51
180
0
ARC
5
121
100
AcDbEntity
8
0
100
AcDbCircle
10
-246.89782951303147
20
91.464804102397096
30
0
40
3.0765506173775137
100
AcDbArc
50
-180
51
0
0
ENDSEC
0
SECTION
2
OBJECTS
0
DICTIONARY
5
C
100
AcDbDictionary
3
ACAD_GROUP
350
D
3
ACAD_MLINESTYLE
350
17
0
DICTIONARY
5
D
100
AcDbDictionary
0
DICTIONARY
5
1A
330
C
100
AcDbDictionary
0
DICTIONARY
5
17
100
AcDbDictionary
0
ENDSEC
0
EOF
