  0
SECTION
  2
HEADER
  9
$ACADVER
  1
AC1015
  9
$ACADMAINTVER
 70
     6
  9
$DWGCODEPAGE
  3
ANSI_950
  9
$INSBASE
 10
0.0
 20
0.0
 30
0.0
  9
$EXTMIN
 10
-74.1647
 20
51.2285
 30
0.0
  9
$EXTMAX
 10
76.0353
 20
132.1499
 30
0.0
  9
$LIMMIN
 10
0.0
 20
0.0
  9
$LIMMAX
 10
12.0
 20
9.0
  9
$ORTHOMODE
 70
     0
  9
$REGENMODE
 70
     1
  9
$FILLMODE
 70
     1
  9
$QTEXTMODE
 70
     0
  9
$MIRRTEXT
 70
     1
  9
$LTSCALE
 40
1.0
  9
$ATTMODE
 70
     1
  9
$TEXTSIZE
 40
0.2
  9
$TRACEWID
 40
0.05
  9
$TEXTSTYLE
  7
Standard
  9
$CLAYER
  8
0
  9
$CELTYPE
  6
ByLayer
  9
$CECOLOR
 62
   256
  9
$CELTSCALE
 40
1.0
  9
$DISPSILH
 70
     0
  9
$DIMSCALE
 40
1.0
  9
$DIMASZ
 40
0.18
  9
$DIMEXO
 40
0.0625
  9
$DIMDLI
 40
0.38
  9
$DIMRND
 40
0.0
  9
$DIMDLE
 40
0.0
  9
$DIMEXE
 40
0.18
  9
$DIMTP
 40
0.0
  9
$DIMTM
 40
0.0
  9
$DIMTXT
 40
0.18
  9
$DIMCEN
 40
0.09
  9
$DIMTSZ
 40
0.0
  9
$DIMTOL
 70
     0
  9
$DIMLIM
 70
     0
  9
$DIMTIH
 70
     1
  9
$DIMTOH
 70
     1
  9
$DIMSE1
 70
     0
  9
$DIMSE2
 70
     0
  9
$DIMTAD
 70
     0
  9
$DIMZIN
 70
     0
  9
$DIMBLK
  1

  9
$DIMASO
 70
     1
  9
$DIMSHO
 70
     1
  9
$DIMPOST
  1

  9
$DIMAPOST
  1

  9
$DIMALT
 70
     0
  9
$DIMALTD
 70
     2
  9
$DIMALTF
 40
25.4
  9
$DIMLFAC
 40
1.0
  9
$DIMTOFL
 70
     0
  9
$DIMTVP
 40
0.0
  9
$DIMTIX
 70
     0
  9
$DIMSOXD
 70
     0
  9
$DIMSAH
 70
     0
  9
$DIMBLK1
  1

  9
$DIMBLK2
  1

  9
$DIMSTYLE
  2
Standard
  9
$DIMCLRD
 70
     0
  9
$DIMCLRE
 70
     0
  9
$DIMCLRT
 70
     0
  9
$DIMTFAC
 40
1.0
  9
$DIMGAP
 40
0.09
  9
$DIMJUST
 70
     0
  9
$DIMSD1
 70
     0
  9
$DIMSD2
 70
     0
  9
$DIMTOLJ
 70
     1
  9
$DIMTZIN
 70
     0
  9
$DIMALTZ
 70
     0
  9
$DIMALTTZ
 70
     0
  9
$DIMUPT
 70
     0
  9
$DIMDEC
 70
     4
  9
$DIMTDEC
 70
     4
  9
$DIMALTU
 70
     2
  9
$DIMALTTD
 70
     2
  9
$DIMTXSTY
  7
Standard
  9
$DIMAUNIT
 70
     0
  9
$DIMADEC
 70
     0
  9
$DIMALTRND
 40
0.0
  9
$DIMAZIN
 70
     0
  9
$DIMDSEP
 70
    46
  9
$DIMATFIT
 70
     3
  9
$DIMFRAC
 70
     0
  9
$DIMLDRBLK
  1

  9
$DIMLUNIT
 70
     2
  9
$DIMLWD
 70
    -2
  9
$DIMLWE
 70
    -2
  9
$DIMTMOVE
 70
     0
  9
$LUNITS
 70
     2
  9
$LUPREC
 70
     4
  9
$SKETCHINC
 40
0.1
  9
$FILLETRAD
 40
0.5
  9
$AUNITS
 70
     0
  9
$AUPREC
 70
     0
  9
$MENU
  1
.
  9
$ELEVATION
 40
0.0
  9
$PELEVATION
 40
0.0
  9
$THICKNESS
 40
0.0
  9
$LIMCHECK
 70
     0
  9
$CHAMFERA
 40
0.5
  9
$CHAMFERB
 40
0.5
  9
$CHAMFERC
 40
1.0
  9
$CHAMFERD
 40
0.0
  9
$SKPOLY
 70
     0
  9
$TDCREATE
 40
2457798.918749109
  9
$TDUCREATE
 40
2457798.585415775
  9
$TDUPDATE
 40
2457798.918749121
  9
$TDUUPDATE
 40
2457798.585415787
  9
$TDINDWG
 40
0.0000000116
  9
$TDUSRTIMER
 40
0.0000000116
  9
$USRTIMER
 70
     1
  9
$ANGBASE
 50
0.0
  9
$ANGDIR
 70
     0
  9
$PDMODE
 70
     0
  9
$PDSIZE
 40
0.0
  9
$PLINEWID
 40
0.0
  9
$SPLFRAME
 70
     0
  9
$SPLINETYPE
 70
     6
  9
$SPLINESEGS
 70
     8
  9
$HANDSEED
  5
C3
  9
$SURFTAB1
 70
     6
  9
$SURFTAB2
 70
     6
  9
$SURFTYPE
 70
     6
  9
$SURFU
 70
     6
  9
$SURFV
 70
     6
  9
$UCSBASE
  2

  9
$UCSNAME
  2

  9
$UCSORG
 10
0.0
 20
0.0
 30
0.0
  9
$UCSXDIR
 10
1.0
 20
0.0
 30
0.0
  9
$UCSYDIR
 10
0.0
 20
1.0
 30
0.0
  9
$UCSORTHOREF
  2

  9
$UCSORTHOVIEW
 70
     0
  9
$UCSORGTOP
 10
0.0
 20
0.0
 30
0.0
  9
$UCSORGBOTTOM
 10
0.0
 20
0.0
 30
0.0
  9
$UCSORGLEFT
 10
0.0
 20
0.0
 30
0.0
  9
$UCSORGRIGHT
 10
0.0
 20
0.0
 30
0.0
  9
$UCSORGFRONT
 10
0.0
 20
0.0
 30
0.0
  9
$UCSORGBACK
 10
0.0
 20
0.0
 30
0.0
  9
$PUCSBASE
  2

  9
$PUCSNAME
  2

  9
$PUCSORG
 10
0.0
 20
0.0
 30
0.0
  9
$PUCSXDIR
 10
1.0
 20
0.0
 30
0.0
  9
$PUCSYDIR
 10
0.0
 20
1.0
 30
0.0
  9
$PUCSORTHOREF
  2

  9
$PUCSORTHOVIEW
 70
     0
  9
$PUCSORGTOP
 10
0.0
 20
0.0
 30
0.0
  9
$PUCSORGBOTTOM
 10
0.0
 20
0.0
 30
0.0
  9
$PUCSORGLEFT
 10
0.0
 20
0.0
 30
0.0
  9
$PUCSORGRIGHT
 10
0.0
 20
0.0
 30
0.0
  9
$PUCSORGFRONT
 10
0.0
 20
0.0
 30
0.0
  9
$PUCSORGBACK
 10
0.0
 20
0.0
 30
0.0
  9
$USERI1
 70
     0
  9
$USERI2
 70
     0
  9
$USERI3
 70
     0
  9
$USERI4
 70
     0
  9
$USERI5
 70
     0
  9
$USERR1
 40
0.0
  9
$USERR2
 40
0.0
  9
$USERR3
 40
0.0
  9
$USERR4
 40
0.0
  9
$USERR5
 40
0.0
  9
$WORLDVIEW
 70
     1
  9
$SHADEDGE
 70
     3
  9
$SHADEDIF
 70
    70
  9
$TILEMODE
 70
     1
  9
$MAXACTVP
 70
    64
  9
$PINSBASE
 10
0.0
 20
0.0
 30
0.0
  9
$PLIMCHECK
 70
     0
  9
$PEXTMIN
 10
1.000000000000000E+20
 20
1.000000000000000E+20
 30
1.000000000000000E+20
  9
$PEXTMAX
 10
-1.000000000000000E+20
 20
-1.000000000000000E+20
 30
-1.000000000000000E+20
  9
$PLIMMIN
 10
0.0
 20
0.0
  9
$PLIMMAX
 10
12.0
 20
9.0
  9
$UNITMODE
 70
     0
  9
$VISRETAIN
 70
     1
  9
$PLINEGEN
 70
     0
  9
$PSLTSCALE
 70
     1
  9
$TREEDEPTH
 70
  3020
  9
$CMLSTYLE
  2
Standard
  9
$CMLJUST
 70
     0
  9
$CMLSCALE
 40
1.0
  9
$PROXYGRAPHICS
 70
     1
  9
$MEASUREMENT
 70
     0
  9
$CELWEIGHT
370
    -1
  9
$ENDCAPS
280
     0
  9
$JOINSTYLE
280
     0
  9
$LWDISPLAY
290
     0
  9
$INSUNITS
 70
     4
  9
$HYPERLINKBASE
  1

  9
$STYLESHEET
  1

  9
$XEDIT
290
     1
  9
$CEPSNTYPE
380
     0
  9
$PSTYLEMODE
290
     1
  9
$FINGERPRINTGUID
  2
{CFD76AEF-CBA0-45B2-BB35-A35233E2CD59}
  9
$VERSIONGUID
  2
{FAEB1C32-E019-11D5-929B-00C0DF256EC4}
  9
$EXTNAMES
290
     1
  9
$PSVPSCALE
 40
0.0
  9
$OLESTARTUP
290
     0
  0
ENDSEC
  0
SECTION
  2
CLASSES
  0
CLASS
  1
ACDBDICTIONARYWDFLT
  2
AcDbDictionaryWithDefault
  3
ObjectDBX Classes
 90
        0
280
     0
281
     0
  0
CLASS
  1
VISUALSTYLE
  2
AcDbVisualStyle
  3
ObjectDBX Classes
 90
     4095
280
     0
281
     0
  0
CLASS
  1
MATERIAL
  2
AcDbMaterial
  3
ObjectDBX Classes
 90
     1153
280
     0
281
     0
  0
CLASS
  1
DICTIONARYVAR
  2
AcDbDictionaryVar
  3
ObjectDBX Classes
 90
        0
280
     0
281
     0
  0
CLASS
  1
ACDBPLACEHOLDER
  2
AcDbPlaceHolder
  3
ObjectDBX Classes
 90
        0
280
     0
281
     0
  0
CLASS
  1
LAYOUT
  2
AcDbLayout
  3
ObjectDBX Classes
 90
        0
280
     0
281
     0
  0
ENDSEC
  0
SECTION
  2
TABLES
  0
TABLE
  2
VPORT
  5
8
330
0
100
AcDbSymbolTable
 70
     1
  0
VPORT
  5
29
330
8
100
AcDbSymbolTableRecord
100
AcDbViewportTableRecord
  2
*Active
 70
     0
 10
0.0
 20
0.0
 11
1.0
 21
1.0
 12
10.42990654205607
 22
4.5
 13
0.0
 23
0.0
 14
0.5
 24
0.5
 15
0.5
 25
0.5
 16
0.0
 26
0.0
 36
1.0
 17
0.0
 27
0.0
 37
0.0
 40
9.0
 41
1.972972972850329
 42
50.0
 43
0.0
 44
0.0
 50
0.0
 51
0.0
 71
     0
 72
   100
 73
     1
 74
     3
 75
     0
 76
     0
 77
     0
 78
     0
281
     0
 65
     1
110
0.0
120
0.0
130
0.0
111
1.0
121
0.0
131
0.0
112
0.0
122
1.0
132
0.0
 79
     0
146
0.0
  0
ENDTAB
  0
TABLE
  2
LTYPE
  5
5
330
0
100
AcDbSymbolTable
 70
     1
  0
LTYPE
  5
14
330
5
100
AcDbSymbolTableRecord
100
AcDbLinetypeTableRecord
  2
ByBlock
 70
     0
  3

 72
    65
 73
     0
 40
0.0
  0
LTYPE
  5
15
330
5
100
AcDbSymbolTableRecord
100
AcDbLinetypeTableRecord
  2
ByLayer
 70
     0
  3

 72
    65
 73
     0
 40
0.0
  0
LTYPE
  5
16
330
5
100
AcDbSymbolTableRecord
100
AcDbLinetypeTableRecord
  2
Continuous
 70
     0
  3
Solid line
 72
    65
 73
     0
 40
0.0
  0
ENDTAB
  0
TABLE
  2
LAYER
  5
2
330
0
100
AcDbSymbolTable
 70
     2
  0
LAYER
  5
10
330
2
100
AcDbSymbolTableRecord
100
AcDbLayerTableRecord
  2
0
 70
     0
 62
     7
  6
Continuous
370
    -3
390
F
  0
LAYER
  5
40
330
2
100
AcDbSymbolTableRecord
100
AcDbLayerTableRecord
  2
layer 1
 70
     0
 62
     7
  6
Continuous
370
    -3
390
F
  0
ENDTAB
  0
TABLE
  2
STYLE
  5
3
330
0
100
AcDbSymbolTable
 70
     1
  0
STYLE
  5
11
330
3
100
AcDbSymbolTableRecord
100
AcDbTextStyleTableRecord
  2
Standard
 70
     0
 40
0.0
 41
1.0
 50
0.0
 71
     0
 42
0.2
  3
txt
  4

  0
ENDTAB
  0
TABLE
  2
VIEW
  5
6
330
0
100
AcDbSymbolTable
 70
     0
  0
ENDTAB
  0
TABLE
  2
UCS
  5
7
330
0
100
AcDbSymbolTable
 70
     0
  0
ENDTAB
  0
TABLE
  2
APPID
  5
9
330
0
100
AcDbSymbolTable
 70
     2
  0
APPID
  5
12
330
9
100
AcDbSymbolTableRecord
100
AcDbRegAppTableRecord
  2
ACAD
 70
     0
  0
APPID
  5
3F
330
9
100
AcDbSymbolTableRecord
100
AcDbRegAppTableRecord
  2
ODA
 70
     0
  0
ENDTAB
  0
TABLE
  2
DIMSTYLE
  5
A
330
0
100
AcDbSymbolTable
 70
     1
100
AcDbDimStyleTable
  0
DIMSTYLE
105
27
330
A
100
AcDbSymbolTableRecord
100
AcDbDimStyleTableRecord
  2
Standard
 70
     0
340
11
  0
ENDTAB
  0
TABLE
  2
BLOCK_RECORD
  5
1
330
0
100
AcDbSymbolTable
 70
     1
  0
BLOCK_RECORD
  5
1F
330
1
100
AcDbSymbolTableRecord
100
AcDbBlockTableRecord
  2
*Model_Space
340
22
  0
BLOCK_RECORD
  5
1B
330
1
100
AcDbSymbolTableRecord
100
AcDbBlockTableRecord
  2
*Paper_Space
340
1E
  0
BLOCK_RECORD
  5
23
330
1
100
AcDbSymbolTableRecord
100
AcDbBlockTableRecord
  2
*Paper_Space0
340
26
  0
ENDTAB
  0
ENDSEC
  0
SECTION
  2
BLOCKS
  0
BLOCK
  5
20
330
1F
100
AcDbEntity
  8
0
100
AcDbBlockBegin
  2
*Model_Space
 70
     0
 10
0.0
 20
0.0
 30
0.0
  3
*Model_Space
  1

  0
ENDBLK
  5
21
330
1F
100
AcDbEntity
  8
0
100
AcDbBlockEnd
  0
BLOCK
  5
1C
330
1B
100
AcDbEntity
 67
     1
  8
0
100
AcDbBlockBegin
  2
*Paper_Space
 70
     0
 10
0.0
 20
0.0
 30
0.0
  3
*Paper_Space
  1

  0
ENDBLK
  5
1D
330
1B
100
AcDbEntity
 67
     1
  8
0
100
AcDbBlockEnd
  0
BLOCK
  5
24
330
23
100
AcDbEntity
  8
0
100
AcDbBlockBegin
  2
*Paper_Space0
 70
     0
 10
0.0
 20
0.0
 30
0.0
  3
*Paper_Space0
  1

  0
ENDBLK
  5
25
330
23
100
AcDbEntity
  8
0
100
AcDbBlockEnd
  0
ENDSEC
  0
SECTION
  2
ENTITIES
  0
SPLINE
  5
41
330
1F
100
AcDbEntity
  8
layer 1
 62
   250
370
    20
100
AcDbSpline
210
0.0
220
0.0
230
1.0
 70
     8
 71
     3
 72
     8
 73
     4
 74
     0
 42
0.0000000001
 43
0.0000000001
 40
0.0
 40
0.0
 40
0.0
 40
0.0
 40
1.0
 40
1.0
 40
1.0
 40
1.0
 10
-24.0286
 20
114.7839
 30
0.0
 10
-24.0286
 20
114.7839
 30
0.0
 10
-24.2278
 20
131.2846
 30
0.0
 10
-6.5507
 20
132.05
 30
0.0
  0
SPLINE
  5
42
330
1F
100
AcDbEntity
  8
layer 1
 62
   250
370
    20
100
AcDbSpline
210
0.0
220
0.0
230
1.0
 70
     8
 71
     3
 72
     8
 73
     4
 74
     0
 42
0.0000000001
 43
0.0000000001
 40
0.0
 40
0.0
 40
0.0
 40
0.0
 40
1.0
 40
1.0
 40
1.0
 40
1.0
 10
-6.5265
 20
132.031
 30
0.0
 10
-6.5265
 20
132.031
 30
0.0
 10
9.9742
 20
132.2302
 30
0.0
 10
10.7396
 20
114.5531
 30
0.0
  0
SPLINE
  5
43
330
1F
100
AcDbEntity
  8
layer 1
 62
   250
370
    20
100
AcDbSpline
210
0.0
220
0.0
230
1.0
 70
    24
 71
     3
 72
     8
 73
     4
 74
     0
 42
0.0000000001
 43
0.0000000001
 40
0.0
 40
0.0
 40
0.0
 40
0.0
 40
1.0
 40
1.0
 40
1.0
 40
1.0
 10
-24.0286
 20
114.7839
 30
0.0
 10
-22.4719
 20
114.7839
 30
0.0
 10
10.7396
 20
114.7839
 30
0.0
 10
10.7396
 20
114.7839
 30
0.0
  0
ELLIPSE
  5
44
330
1F
100
AcDbEntity
  8
layer 1
 62
   250
370
    20
100
AcDbEllipse
 10
-16.1479
 20
120.6539
 30
0.0
 11
0.0
 21
3.9241
 31
0.0
210
0.0
220
0.0
230
1.0
 40
1.0
 41
0.0
 42
6.283185307179586
  0
ELLIPSE
  5
45
330
1F
100
AcDbEntity
  8
layer 1
 62
   250
370
    20
100
AcDbEllipse
 10
2.9176
 20
120.6214
 30
0.0
 11
0.0
 21
3.9241
 31
0.0
210
0.0
220
0.0
230
1.0
 40
1.0
 41
0.0
 42
6.283185307179586
  0
SPLINE
  5
46
330
1F
100
AcDbEntity
  8
layer 1
 62
   250
370
    20
100
AcDbSpline
210
0.0
220
0.0
230
1.0
 70
     8
 71
     3
 72
    12
 73
     8
 74
     0
 42
0.0000000001
 43
0.0000000001
 40
0.0
 40
0.0
 40
0.0
 40
0.0
 40
0.3333333333333333
 40
0.3333333333333333
 40
0.3333333333333333
 40
0.3333333333333333
 40
1.0
 40
1.0
 40
1.0
 40
1.0
 10
-41.1521
 20
91.1742
 30
0.0
 10
-41.1521
 20
91.1742
 30
0.0
 10
-45.4329
 20
91.1742
 30
0.0
 10
-45.4329
 20
91.1742
 30
0.0
 10
-45.4329
 20
91.1742
 30
0.0
 10
-45.4329
 20
91.1742
 30
0.0
 10
-47.6383
 20
109.7246
 30
0.0
 10
-29.2175
 20
108.4274
 30
0.0
  0
SPLINE
  5
47
330
1F
100
AcDbEntity
  8
layer 1
 62
   250
370
    20
100
AcDbSpline
210
0.0
220
0.0
230
1.0
 70
     8
 71
     3
 72
    12
 73
     8
 74
     0
 42
0.0000000001
 43
0.0000000001
 40
0.0
 40
0.0
 40
0.0
 40
0.0
 40
0.3333333333333333
 40
0.3333333333333333
 40
0.3333333333333333
 40
0.3333333333333333
 40
1.0
 40
1.0
 40
1.0
 40
1.0
 10
-32.5903
 20
91.1742
 30
0.0
 10
-32.5903
 20
91.1742
 30
0.0
 10
-29.3472
 20
91.1742
 30
0.0
 10
-29.3472
 20
91.1742
 30
0.0
 10
-29.3472
 20
91.1742
 30
0.0
 10
-29.3472
 20
91.1742
 30
0.0
 10
-29.2175
 20
108.4274
 30
0.0
 10
-29.2175
 20
108.4274
 30
0.0
  0
SPLINE
  5
48
330
1F
100
AcDbEntity
  8
layer 1
 62
   250
370
    20
100
AcDbSpline
210
0.0
220
0.0
230
1.0
 70
     8
 71
     3
 72
    32
 73
    28
 74
     0
 42
0.0000000001
 43
0.0000000001
 40
0.0
 40
0.0
 40
0.0
 40
0.0
 40
0.125
 40
0.125
 40
0.125
 40
0.125
 40
0.25
 40
0.25
 40
0.25
 40
0.25
 40
0.375
 40
0.375
 40
0.375
 40
0.375
 40
0.5
 40
0.5
 40
0.5
 40
0.5
 40
0.625
 40
0.625
 40
0.625
 40
0.625
 40
0.75
 40
0.75
 40
0.75
 40
0.75
 40
1.0
 40
1.0
 40
1.0
 40
1.0
 10
-41.1521
 20
91.1742
 30
0.0
 10
-41.1521
 20
91.1742
 30
0.0
 10
-41.1521
 20
87.023
 30
0.0
 10
-41.1521
 20
87.023
 30
0.0
 10
-41.1521
 20
87.023
 30
0.0
 10
-41.1521
 20
87.023
 30
0.0
 10
-42.4493
 20
86.9582
 30
0.0
 10
-42.4493
 20
86.9582
 30
0.0
 10
-42.4493
 20
86.9582
 30
0.0
 10
-42.4493
 20
86.9582
 30
0.0
 10
-44.2006
 20
72.04
 30
0.0
 10
-44.2006
 20
72.04
 30
0.0
 10
-44.2006
 20
72.04
 30
0.0
 10
-44.2006
 20
72.04
 30
0.0
 10
-29.6716
 20
72.04
 30
0.0
 10
-29.6716
 20
72.04
 30
0.0
 10
-29.6716
 20
72.04
 30
0.0
 10
-29.6716
 20
72.04
 30
0.0
 10
-31.3579
 20
87.023
 30
0.0
 10
-31.3579
 20
87.023
 30
0.0
 10
-31.3579
 20
87.023
 30
0.0
 10
-31.3579
 20
87.023
 30
0.0
 10
-32.6552
 20
87.023
 30
0.0
 10
-32.6552
 20
87.023
 30
0.0
 10
-32.6552
 20
87.023
 30
0.0
 10
-32.6552
 20
87.023
 30
0.0
 10
-32.5903
 20
91.1742
 30
0.0
 10
-32.5903
 20
91.1742
 30
0.0
  0
SPLINE
  5
49
330
1F
100
AcDbEntity
  8
layer 1
 62
   250
370
    20
100
AcDbSpline
210
0.0
220
0.0
230
1.0
 70
    11
 71
     3
 72
    44
 73
    40
 74
     0
 42
0.0000000001
 43
0.0000000001
 40
0.0
 40
0.0
 40
0.0
 40
0.0
 40
0.0909090909090909
 40
0.0909090909090909
 40
0.0909090909090909
 40
0.0909090909090909
 40
0.1818181818181818
 40
0.1818181818181818
 40
0.1818181818181818
 40
0.1818181818181818
 40
0.2727272727272727
 40
0.2727272727272727
 40
0.2727272727272727
 40
0.2727272727272727
 40
0.3636363636363636
 40
0.3636363636363636
 40
0.3636363636363636
 40
0.3636363636363636
 40
0.4545454545454545
 40
0.4545454545454545
 40
0.4545454545454545
 40
0.4545454545454545
 40
0.5454545454545454
 40
0.5454545454545454
 40
0.5454545454545454
 40
0.5454545454545454
 40
0.6363636363636364
 40
0.6363636363636364
 40
0.6363636363636364
 40
0.6363636363636364
 40
0.7272727272727273
 40
0.7272727272727273
 40
0.7272727272727273
 40
0.7272727272727273
 40
0.8181818181818182
 40
0.8181818181818182
 40
0.8181818181818182
 40
0.8181818181818182
 40
1.0
 40
1.0
 40
1.0
 40
1.0
 10
-17.9317
 20
97.79
 30
0.0
 10
-17.3478
 20
109.2705
 30
0.0
 10
-6.2565
 20
109.0111
 30
0.0
 10
-6.2565
 20
109.0111
 30
0.0
 10
-6.2565
 20
109.0111
 30
0.0
 10
4.7701
 20
108.0382
 30
0.0
 10
4.7701
 20
97.7252
 30
0.0
 10
4.7701
 20
97.7252
 30
0.0
 10
4.7701
 20
97.7252
 30
0.0
 10
4.7701
 20
97.7252
 30
0.0
 10
14.5641
 20
97.7252
 30
0.0
 10
14.5641
 20
97.7252
 30
0.0
 10
14.5641
 20
97.7252
 30
0.0
 10
14.5641
 20
97.7252
 30
0.0
 10
14.5641
 20
108.4274
 30
0.0
 10
14.5641
 20
108.4274
 30
0.0
 10
14.5641
 20
108.4274
 30
0.0
 10
14.1101
 20
112.7731
 30
0.0
 10
9.6994
 20
113.3569
 30
0.0
 10
9.6994
 20
113.3569
 30
0.0
 10
9.6994
 20
113.3569
 30
0.0
 10
9.6994
 20
113.3569
 30
0.0
 10
-23.1205
 20
113.3569
 30
0.0
 10
-23.1205
 20
113.3569
 30
0.0
 10
-23.1205
 20
113.3569
 30
0.0
 10
-27.4015
 20
112.4488
 30
0.0
 10
-27.8554
 20
108.4274
 30
0.0
 10
-27.8554
 20
108.4274
 30
0.0
 10
-27.8554
 20
108.4274
 30
0.0
 10
-27.8554
 20
108.4274
 30
0.0
 10
-27.8554
 20
97.7252
 30
0.0
 10
-27.8554
 20
97.7252
 30
0.0
 10
-27.8554
 20
97.7252
 30
0.0
 10
-27.8554
 20
97.7252
 30
0.0
 10
-17.9317
 20
97.7252
 30
0.0
 10
-17.9317
 20
97.7252
 30
0.0
 10
-17.9317
 20
97.7252
 30
0.0
 10
-17.9317
 20
97.7252
 30
0.0
 10
-17.9317
 20
97.79
 30
0.0
 10
-17.9317
 20
97.79
 30
0.0
  0
SPLINE
  5
4A
330
1F
100
AcDbEntity
  8
layer 1
 62
   250
370
    20
100
AcDbSpline
210
0.0
220
0.0
230
1.0
 70
     8
 71
     3
 72
    16
 73
    12
 74
     0
 42
0.0000000001
 43
0.0000000001
 40
0.0
 40
0.0
 40
0.0
 40
0.0
 40
0.25
 40
0.25
 40
0.25
 40
0.25
 40
0.5
 40
0.5
 40
0.5
 40
0.5
 40
1.0
 40
1.0
 40
1.0
 40
1.0
 10
-14.2345
 20
104.9897
 30
0.0
 10
-14.2345
 20
104.9897
 30
0.0
 10
-14.2345
 20
90.2013
 30
0.0
 10
-14.2345
 20
90.2013
 30
0.0
 10
-14.2345
 20
90.2013
 30
0.0
 10
-14.2345
 20
90.2013
 30
0.0
 10
-11.2509
 20
90.2013
 30
0.0
 10
-11.2509
 20
90.2013
 30
0.0
 10
-11.2509
 20
90.2013
 30
0.0
 10
-11.2509
 20
90.2013
 30
0.0
 10
-11.2509
 20
100.0602
 30
0.0
 10
-11.2509
 20
100.0602
 30
0.0
  0
SPLINE
  5
4B
330
1F
100
AcDbEntity
  8
layer 1
 62
   250
370
    20
100
AcDbSpline
210
0.0
220
0.0
230
1.0
 70
     8
 71
     3
 72
    36
 73
    32
 74
     0
 42
0.0000000001
 43
0.0000000001
 40
0.0
 40
0.0
 40
0.0
 40
0.0
 40
0.1111111111111111
 40
0.1111111111111111
 40
0.1111111111111111
 40
0.1111111111111111
 40
0.2222222222222222
 40
0.2222222222222222
 40
0.2222222222222222
 40
0.2222222222222222
 40
0.3333333333333333
 40
0.3333333333333333
 40
0.3333333333333333
 40
0.3333333333333333
 40
0.4444444444444444
 40
0.4444444444444444
 40
0.4444444444444444
 40
0.4444444444444444
 40
0.5555555555555556
 40
0.5555555555555556
 40
0.5555555555555556
 40
0.5555555555555556
 40
0.6666666666666666
 40
0.6666666666666666
 40
0.6666666666666666
 40
0.6666666666666666
 40
0.7777777777777778
 40
0.7777777777777778
 40
0.7777777777777778
 40
0.7777777777777778
 40
1.0
 40
1.0
 40
1.0
 40
1.0
 10
-11.2446
 20
100.0894
 30
0.0
 10
-11.2446
 20
100.0894
 30
0.0
 10
-7.9299
 20
90.3081
 30
0.0
 10
-7.9299
 20
90.3081
 30
0.0
 10
-7.9299
 20
90.3081
 30
0.0
 10
-7.9299
 20
90.3081
 30
0.0
 10
-5.2513
 20
90.3081
 30
0.0
 10
-5.2513
 20
90.3081
 30
0.0
 10
-5.2513
 20
90.3081
 30
0.0
 10
-5.2513
 20
90.3081
 30
0.0
 10
-2.2346
 20
99.993
 30
0.0
 10
-2.2346
 20
99.993
 30
0.0
 10
-2.2346
 20
99.993
 30
0.0
 10
-2.2346
 20
99.993
 30
0.0
 10
-2.2346
 20
90.211
 30
0.0
 10
-2.2346
 20
90.211
 30
0.0
 10
-2.2346
 20
90.211
 30
0.0
 10
-2.2346
 20
90.211
 30
0.0
 10
0.9765
 20
90.211
 30
0.0
 10
0.9765
 20
90.211
 30
0.0
 10
0.9765
 20
90.211
 30
0.0
 10
0.9765
 20
90.211
 30
0.0
 10
0.9765
 20
104.9979
 30
0.0
 10
0.9765
 20
104.9979
 30
0.0
 10
0.9765
 20
104.9979
 30
0.0
 10
0.9765
 20
104.9979
 30
0.0
 10
-3.4997
 20
104.9979
 30
0.0
 10
-3.4997
 20
104.9979
 30
0.0
 10
-3.4997
 20
104.9979
 30
0.0
 10
-3.4997
 20
104.9979
 30
0.0
 10
-6.3909
 20
94.2072
 30
0.0
 10
-6.3909
 20
94.2072
 30
0.0
  0
SPLINE
  5
4C
330
1F
100
AcDbEntity
  8
layer 1
 62
   250
370
    20
100
AcDbSpline
210
0.0
220
0.0
230
1.0
 70
    24
 71
     3
 72
     8
 73
     4
 74
     0
 42
0.0000000001
 43
0.0000000001
 40
0.0
 40
0.0
 40
0.0
 40
0.0
 40
1.0
 40
1.0
 40
1.0
 40
1.0
 10
-9.9015
 20
104.9455
 30
0.0
 10
-9.9015
 20
104.9455
 30
0.0
 10
-6.3967
 20
94.1751
 30
0.0
 10
-6.3967
 20
94.1751
 30
0.0
  0
SPLINE
  5
4D
330
1F
100
AcDbEntity
  8
layer 1
 62
   250
370
    20
100
AcDbSpline
210
0.0
220
0.0
230
1.0
 70
    24
 71
     3
 72
     8
 73
     4
 74
     0
 42
0.0000000001
 43
0.0000000001
 40
0.0
 40
0.0
 40
0.0
 40
0.0
 40
1.0
 40
1.0
 40
1.0
 40
1.0
 10
-14.2345
 20
104.9897
 30
0.0
 10
-14.2345
 20
104.9897
 30
0.0
 10
-9.9015
 20
104.9897
 30
0.0
 10
-9.9015
 20
104.9897
 30
0.0
  0
SPLINE
  5
4E
330
1F
100
AcDbEntity
  8
layer 1
 62
   250
370
    20
100
AcDbSpline
210
0.0
220
0.0
230
1.0
 70
     8
 71
     3
 72
     8
 73
     4
 74
     0
 42
0.0000000001
 43
0.0000000001
 40
0.0
 40
0.0
 40
0.0
 40
0.0
 40
1.0
 40
1.0
 40
1.0
 40
1.0
 10
4.7051
 20
96.428
 30
0.0
 10
4.7051
 20
96.428
 30
0.0
 10
3.7321
 20
86.6338
 30
0.0
 10
-6.516
 20
86.2447
 30
0.0
  0
SPLINE
  5
4F
330
1F
100
AcDbEntity
  8
layer 1
 62
   250
370
    20
100
AcDbSpline
210
0.0
220
0.0
230
1.0
 70
     8
 71
     3
 72
    36
 73
    32
 74
     0
 42
0.0000000001
 43
0.0000000001
 40
0.0
 40
0.0
 40
0.0
 40
0.0
 40
0.1111111111111111
 40
0.1111111111111111
 40
0.1111111111111111
 40
0.1111111111111111
 40
0.2222222222222222
 40
0.2222222222222222
 40
0.2222222222222222
 40
0.2222222222222222
 40
0.3333333333333333
 40
0.3333333333333333
 40
0.3333333333333333
 40
0.3333333333333333
 40
0.4444444444444444
 40
0.4444444444444444
 40
0.4444444444444444
 40
0.4444444444444444
 40
0.5555555555555556
 40
0.5555555555555556
 40
0.5555555555555556
 40
0.5555555555555556
 40
0.6666666666666666
 40
0.6666666666666666
 40
0.6666666666666666
 40
0.6666666666666666
 40
0.7777777777777778
 40
0.7777777777777778
 40
0.7777777777777778
 40
0.7777777777777778
 40
1.0
 40
1.0
 40
1.0
 40
1.0
 10
-6.516
 20
86.2447
 30
0.0
 10
-17.0235
 20
86.6338
 30
0.0
 10
-17.8667
 20
96.428
 30
0.0
 10
-17.8667
 20
96.428
 30
0.0
 10
-17.8667
 20
96.428
 30
0.0
 10
-17.8667
 20
96.428
 30
0.0
 10
-27.9203
 20
96.428
 30
0.0
 10
-27.9203
 20
96.428
 30
0.0
 10
-27.9203
 20
96.428
 30
0.0
 10
-27.9203
 20
96.428
 30
0.0
 10
-27.9203
 20
86.8284
 30
0.0
 10
-27.9203
 20
86.8284
 30
0.0
 10
-27.9203
 20
86.8284
 30
0.0
 10
-27.9203
 20
86.8284
 30
0.0
 10
-27.4663
 20
82.5476
 30
0.0
 10
-23.0556
 20
81.9639
 30
0.0
 10
-23.0556
 20
81.9639
 30
0.0
 10
-23.0556
 20
81.9639
 30
0.0
 10
9.3752
 20
81.9639
 30
0.0
 10
9.3752
 20
81.9639
 30
0.0
 10
9.3752
 20
81.9639
 30
0.0
 10
9.3752
 20
81.9639
 30
0.0
 10
13.3318
 20
81.6394
 30
0.0
 10
14.6289
 20
86.8284
 30
0.0
 10
14.6289
 20
86.8284
 30
0.0
 10
14.6289
 20
86.8284
 30
0.0
 10
14.6289
 20
96.4928
 30
0.0
 10
14.6289
 20
96.4928
 30
0.0
 10
14.6289
 20
96.4928
 30
0.0
 10
14.6289
 20
96.4928
 30
0.0
 10
4.7053
 20
96.4928
 30
0.0
 10
4.7053
 20
96.4928
 30
0.0
  0
SPLINE
  5
50
330
1F
100
AcDbEntity
  8
layer 1
 62
   250
370
    20
100
AcDbSpline
210
0.0
220
0.0
230
1.0
 70
     8
 71
     3
 72
    36
 73
    32
 74
     0
 42
0.0000000001
 43
0.0000000001
 40
0.0
 40
0.0
 40
0.0
 40
0.0
 40
0.1111111111111111
 40
0.1111111111111111
 40
0.1111111111111111
 40
0.1111111111111111
 40
0.2222222222222222
 40
0.2222222222222222
 40
0.2222222222222222
 40
0.2222222222222222
 40
0.3333333333333333
 40
0.3333333333333333
 40
0.3333333333333333
 40
0.3333333333333333
 40
0.4444444444444444
 40
0.4444444444444444
 40
0.4444444444444444
 40
0.4444444444444444
 40
0.5555555555555556
 40
0.5555555555555556
 40
0.5555555555555556
 40
0.5555555555555556
 40
0.6666666666666666
 40
0.6666666666666666
 40
0.6666666666666666
 40
0.6666666666666666
 40
0.7777777777777778
 40
0.7777777777777778
 40
0.7777777777777778
 40
0.7777777777777778
 40
1.0
 40
1.0
 40
1.0
 40
1.0
 10
29.2877
 20
87.088
 30
0.0
 10
29.2877
 20
87.088
 30
0.0
 10
28.0553
 20
87.088
 30
0.0
 10
28.0553
 20
87.088
 30
0.0
 10
28.0553
 20
87.088
 30
0.0
 10
28.0553
 20
87.088
 30
0.0
 10
28.0553
 20
91.2391
 30
0.0
 10
28.0553
 20
91.2391
 30
0.0
 10
28.0553
 20
91.2391
 30
0.0
 10
28.0553
 20
91.2391
 30
0.0
 10
32.2065
 20
91.2391
 30
0.0
 10
32.2065
 20
91.2391
 30
0.0
 10
32.2065
 20
91.2391
 30
0.0
 10
33.1795
 20
110.8273
 30
0.0
 10
15.9911
 20
108.622
 30
0.0
 10
15.9911
 20
108.622
 30
0.0
 10
15.9911
 20
108.622
 30
0.0
 10
15.9911
 20
108.622
 30
0.0
 10
15.9911
 20
91.3039
 30
0.0
 10
15.9911
 20
91.3039
 30
0.0
 10
15.9911
 20
91.3039
 30
0.0
 10
15.9911
 20
91.3039
 30
0.0
 10
19.4287
 20
91.3039
 30
0.0
 10
19.4287
 20
91.3039
 30
0.0
 10
19.4287
 20
91.3039
 30
0.0
 10
19.4287
 20
91.3039
 30
0.0
 10
19.4287
 20
87.023
 30
0.0
 10
19.4287
 20
87.023
 30
0.0
 10
19.4287
 20
87.023
 30
0.0
 10
19.4287
 20
87.023
 30
0.0
 10
18.1965
 20
87.023
 30
0.0
 10
18.1965
 20
87.023
 30
0.0
  0
SPLINE
  5
51
330
1F
100
AcDbEntity
  8
layer 1
 62
   250
370
    20
100
AcDbSpline
210
0.0
220
0.0
230
1.0
 70
     8
 71
     3
 72
    12
 73
     8
 74
     0
 42
0.0000000001
 43
0.0000000001
 40
0.0
 40
0.0
 40
0.0
 40
0.0
 40
0.3333333333333333
 40
0.3333333333333333
 40
0.3333333333333333
 40
0.3333333333333333
 40
1.0
 40
1.0
 40
1.0
 40
1.0
 10
18.1624
 20
87.0108
 30
0.0
 10
18.1624
 20
87.0108
 30
0.0
 10
16.4539
 20
72.0601
 30
0.0
 10
16.4539
 20
72.0601
 30
0.0
 10
16.4539
 20
72.0601
 30
0.0
 10
16.4539
 20
72.0601
 30
0.0
 10
31.1038
 20
72.0601
 30
0.0
 10
31.1038
 20
72.0601
 30
0.0
  0
SPLINE
  5
52
330
1F
100
AcDbEntity
  8
layer 1
 62
   250
370
    20
100
AcDbSpline
210
0.0
220
0.0
230
1.0
 70
    24
 71
     3
 72
     8
 73
     4
 74
     0
 42
0.0000000001
 43
0.0000000001
 40
0.0
 40
0.0
 40
0.0
 40
0.0
 40
1.0
 40
1.0
 40
1.0
 40
1.0
 10
29.2744
 20
87.0358
 30
0.0
 10
29.2744
 20
87.0358
 30
0.0
 10
31.0424
 20
72.1123
 30
0.0
 10
31.0424
 20
72.1123
 30
0.0
  0
SPLINE
  5
53
330
1F
100
AcDbEntity
  8
layer 1
 62
   250
370
    20
100
AcDbSpline
210
0.0
220
0.0
230
1.0
 70
    11
 71
     3
 72
    16
 73
    12
 74
     0
 42
0.0000000001
 43
0.0000000001
 40
0.0
 40
0.0
 40
0.0
 40
0.0
 40
0.25
 40
0.25
 40
0.25
 40
0.25
 40
0.5
 40
0.5
 40
0.5
 40
0.5
 40
1.0
 40
1.0
 40
1.0
 40
1.0
 10
-44.2006
 20
70.7428
 30
0.0
 10
-44.2006
 20
70.7428
 30
0.0
 10
-29.6066
 20
70.7428
 30
0.0
 10
-29.6066
 20
70.7428
 30
0.0
 10
-29.6066
 20
70.7428
 30
0.0
 10
-29.6066
 20
70.7428
 30
0.0
 10
-29.6066
 20
61.6621
 30
0.0
 10
-29.6066
 20
61.6621
 30
0.0
 10
-29.6066
 20
61.6621
 30
0.0
 10
-29.6066
 20
61.6621
 30
0.0
 10
-41.4115
 20
60.8189
 30
0.0
 10
-44.2006
 20
70.7428
 30
0.0
  0
SPLINE
  5
54
330
1F
100
AcDbEntity
  8
layer 1
 62
   250
370
    20
100
AcDbSpline
210
0.0
220
0.0
230
1.0
 70
    11
 71
     3
 72
    20
 73
    16
 74
     0
 42
0.0000000001
 43
0.0000000001
 40
0.0
 40
0.0
 40
0.0
 40
0.0
 40
0.2
 40
0.2
 40
0.2
 40
0.2
 40
0.4
 40
0.4
 40
0.4
 40
0.4
 40
0.6
 40
0.6
 40
0.6
 40
0.6
 40
1.0
 40
1.0
 40
1.0
 40
1.0
 10
-23.6393
 20
80.6017
 30
0.0
 10
-23.6393
 20
80.6017
 30
0.0
 10
-23.6393
 20
72.04
 30
0.0
 10
-23.6393
 20
72.04
 30
0.0
 10
-23.6393
 20
72.04
 30
0.0
 10
-23.6393
 20
72.04
 30
0.0
 10
-11.5751
 20
72.04
 30
0.0
 10
-11.5751
 20
72.04
 30
0.0
 10
-11.5751
 20
72.04
 30
0.0
 10
-11.5751
 20
72.04
 30
0.0
 10
-11.5751
 20
80.5369
 30
0.0
 10
-11.5751
 20
80.5369
 30
0.0
 10
-11.5751
 20
80.5369
 30
0.0
 10
-11.5751
 20
80.5369
 30
0.0
 10
-23.6393
 20
80.6017
 30
0.0
 10
-23.6393
 20
80.6017
 30
0.0
  0
SPLINE
  5
55
330
1F
100
AcDbEntity
  8
layer 1
 62
   250
370
    20
100
AcDbSpline
210
0.0
220
0.0
230
1.0
 70
    11
 71
     3
 72
    20
 73
    16
 74
     0
 42
0.0000000001
 43
0.0000000001
 40
0.0
 40
0.0
 40
0.0
 40
0.0
 40
0.2
 40
0.2
 40
0.2
 40
0.2
 40
0.4
 40
0.4
 40
0.4
 40
0.4
 40
0.6
 40
0.6
 40
0.6
 40
0.6
 40
1.0
 40
1.0
 40
1.0
 40
1.0
 10
-1.5865
 20
80.6017
 30
0.0
 10
-1.5865
 20
80.6017
 30
0.0
 10
-1.5865
 20
72.04
 30
0.0
 10
-1.5865
 20
72.04
 30
0.0
 10
-1.5865
 20
72.04
 30
0.0
 10
-1.5865
 20
72.04
 30
0.0
 10
10.4779
 20
72.04
 30
0.0
 10
10.4779
 20
72.04
 30
0.0
 10
10.4779
 20
72.04
 30
0.0
 10
10.4779
 20
72.04
 30
0.0
 10
10.4779
 20
80.6017
 30
0.0
 10
10.4779
 20
80.6017
 30
0.0
 10
10.4779
 20
80.6017
 30
0.0
 10
10.4779
 20
80.6017
 30
0.0
 10
-1.5865
 20
80.6017
 30
0.0
 10
-1.5865
 20
80.6017
 30
0.0
  0
SPLINE
  5
56
330
1F
100
AcDbEntity
  8
layer 1
 62
   250
370
    20
100
AcDbSpline
210
0.0
220
0.0
230
1.0
 70
     8
 71
     3
 72
    16
 73
    12
 74
     0
 42
0.0000000001
 43
0.0000000001
 40
0.0
 40
0.0
 40
0.0
 40
0.0
 40
0.25
 40
0.25
 40
0.25
 40
0.25
 40
0.5
 40
0.5
 40
0.5
 40
0.5
 40
1.0
 40
1.0
 40
1.0
 40
1.0
 10
30.9742
 20
70.613
 30
0.0
 10
27.9905
 20
60.8837
 30
0.0
 10
16.4452
 20
61.6621
 30
0.0
 10
16.4452
 20
61.6621
 30
0.0
 10
16.4452
 20
61.6621
 30
0.0
 10
16.4452
 20
61.6621
 30
0.0
 10
16.4452
 20
70.7428
 30
0.0
 10
16.4452
 20
70.7428
 30
0.0
 10
16.4452
 20
70.7428
 30
0.0
 10
16.4452
 20
70.7428
 30
0.0
 10
30.9742
 20
70.7428
 30
0.0
 10
30.9742
 20
70.7428
 30
0.0
  0
SPLINE
  5
57
330
1F
100
AcDbEntity
  8
layer 1
 62
   250
370
    20
100
AcDbSpline
210
0.0
220
0.0
230
1.0
 70
    24
 71
     3
 72
     8
 73
     4
 74
     0
 42
0.0000000001
 43
0.0000000001
 40
0.0
 40
0.0
 40
0.0
 40
0.0
 40
1.0
 40
1.0
 40
1.0
 40
1.0
 10
-1.9755
 20
70.7428
 30
0.0
 10
-1.9755
 20
70.7428
 30
0.0
 10
12.3588
 20
70.7428
 30
0.0
 10
12.3588
 20
70.7428
 30
0.0
  0
SPLINE
  5
58
330
1F
100
AcDbEntity
  8
layer 1
 62
   250
370
    20
100
AcDbSpline
210
0.0
220
0.0
230
1.0
 70
    24
 71
     3
 72
     8
 73
     4
 74
     0
 42
0.0000000001
 43
0.0000000001
 40
0.0
 40
0.0
 40
0.0
 40
0.0
 40
1.0
 40
1.0
 40
1.0
 40
1.0
 10
14.7548
 20
57.5675
 30
0.0
 10
14.7548
 20
57.5675
 30
0.0
 10
12.3455
 20
70.6705
 30
0.0
 10
12.3455
 20
70.6705
 30
0.0
  0
SPLINE
  5
59
330
1F
100
AcDbEntity
  8
layer 1
 62
   250
370
    20
100
AcDbSpline
210
0.0
220
0.0
230
1.0
 70
    24
 71
     3
 72
     8
 73
     4
 74
     0
 42
0.0000000001
 43
0.0000000001
 40
0.0
 40
0.0
 40
0.0
 40
0.0
 40
1.0
 40
1.0
 40
1.0
 40
1.0
 10
14.7548
 20
57.5675
 30
0.0
 10
14.7548
 20
57.5675
 30
0.0
 10
-2.8837
 20
57.5675
 30
0.0
 10
-2.8837
 20
57.5675
 30
0.0
  0
SPLINE
  5
5A
330
1F
100
AcDbEntity
  8
layer 1
 62
   250
370
    20
100
AcDbSpline
210
0.0
220
0.0
230
1.0
 70
    24
 71
     3
 72
     8
 73
     4
 74
     0
 42
0.0000000001
 43
0.0000000001
 40
0.0
 40
0.0
 40
0.0
 40
0.0
 40
1.0
 40
1.0
 40
1.0
 40
1.0
 10
-2.0099
 20
70.7305
 30
0.0
 10
-2.0099
 20
70.7305
 30
0.0
 10
-2.8119
 20
57.5798
 30
0.0
 10
-2.8119
 20
57.5798
 30
0.0
  0
SPLINE
  5
5B
330
1F
100
AcDbEntity
  8
layer 1
 62
   250
370
    20
100
AcDbSpline
210
0.0
220
0.0
230
1.0
 70
    24
 71
     3
 72
     8
 73
     4
 74
     0
 42
0.0000000001
 43
0.0000000001
 40
0.0
 40
0.0
 40
0.0
 40
0.0
 40
1.0
 40
1.0
 40
1.0
 40
1.0
 10
-1.9755
 20
70.7428
 30
0.0
 10
-1.9755
 20
70.7428
 30
0.0
 10
12.3588
 20
70.7428
 30
0.0
 10
12.3588
 20
70.7428
 30
0.0
  0
SPLINE
  5
5C
330
1F
100
AcDbEntity
  8
layer 1
 62
   250
370
    20
100
AcDbSpline
210
0.0
220
0.0
230
1.0
 70
    24
 71
     3
 72
     8
 73
     4
 74
     0
 42
0.0000000001
 43
0.0000000001
 40
0.0
 40
0.0
 40
0.0
 40
0.0
 40
1.0
 40
1.0
 40
1.0
 40
1.0
 10
14.7548
 20
57.5675
 30
0.0
 10
14.7548
 20
57.5675
 30
0.0
 10
12.3455
 20
70.6705
 30
0.0
 10
12.3455
 20
70.6705
 30
0.0
  0
SPLINE
  5
5D
330
1F
100
AcDbEntity
  8
layer 1
 62
   250
370
    20
100
AcDbSpline
210
0.0
220
0.0
230
1.0
 70
    24
 71
     3
 72
     8
 73
     4
 74
     0
 42
0.0000000001
 43
0.0000000001
 40
0.0
 40
0.0
 40
0.0
 40
0.0
 40
1.0
 40
1.0
 40
1.0
 40
1.0
 10
14.7548
 20
57.5675
 30
0.0
 10
14.7548
 20
57.5675
 30
0.0
 10
-2.8837
 20
57.5675
 30
0.0
 10
-2.8837
 20
57.5675
 30
0.0
  0
SPLINE
  5
5E
330
1F
100
AcDbEntity
  8
layer 1
 62
   250
370
    20
100
AcDbSpline
210
0.0
220
0.0
230
1.0
 70
    24
 71
     3
 72
     8
 73
     4
 74
     0
 42
0.0000000001
 43
0.0000000001
 40
0.0
 40
0.0
 40
0.0
 40
0.0
 40
1.0
 40
1.0
 40
1.0
 40
1.0
 10
-2.0099
 20
70.7305
 30
0.0
 10
-2.0099
 20
70.7305
 30
0.0
 10
-2.8119
 20
57.5798
 30
0.0
 10
-2.8119
 20
57.5798
 30
0.0
  0
SPLINE
  5
5F
330
1F
100
AcDbEntity
  8
layer 1
 62
   250
370
    20
100
AcDbSpline
210
0.0
220
0.0
230
1.0
 70
    24
 71
     3
 72
     8
 73
     4
 74
     0
 42
0.0000000001
 43
0.0000000001
 40
0.0
 40
0.0
 40
0.0
 40
0.0
 40
1.0
 40
1.0
 40
1.0
 40
1.0
 10
-11.2386
 20
70.7399
 30
0.0
 10
-11.2386
 20
70.7399
 30
0.0
 10
-25.5731
 20
70.7399
 30
0.0
 10
-25.5731
 20
70.7399
 30
0.0
  0
SPLINE
  5
60
330
1F
100
AcDbEntity
  8
layer 1
 62
   250
370
    20
100
AcDbSpline
210
0.0
220
0.0
230
1.0
 70
    24
 71
     3
 72
     8
 73
     4
 74
     0
 42
0.0000000001
 43
0.0000000001
 40
0.0
 40
0.0
 40
0.0
 40
0.0
 40
1.0
 40
1.0
 40
1.0
 40
1.0
 10
-27.9692
 20
57.5646
 30
0.0
 10
-27.9692
 20
57.5646
 30
0.0
 10
-25.5599
 20
70.6676
 30
0.0
 10
-25.5599
 20
70.6676
 30
0.0
  0
SPLINE
  5
61
330
1F
100
AcDbEntity
  8
layer 1
 62
   250
370
    20
100
AcDbSpline
210
0.0
220
0.0
230
1.0
 70
    24
 71
     3
 72
     8
 73
     4
 74
     0
 42
0.0000000001
 43
0.0000000001
 40
0.0
 40
0.0
 40
0.0
 40
0.0
 40
1.0
 40
1.0
 40
1.0
 40
1.0
 10
-27.9692
 20
57.5646
 30
0.0
 10
-27.9692
 20
57.5646
 30
0.0
 10
-10.3307
 20
57.5646
 30
0.0
 10
-10.3307
 20
57.5646
 30
0.0
  0
SPLINE
  5
62
330
1F
100
AcDbEntity
  8
layer 1
 62
   250
370
    20
100
AcDbSpline
210
0.0
220
0.0
230
1.0
 70
    24
 71
     3
 72
     8
 73
     4
 74
     0
 42
0.0000000001
 43
0.0000000001
 40
0.0
 40
0.0
 40
0.0
 40
0.0
 40
1.0
 40
1.0
 40
1.0
 40
1.0
 10
-11.2043
 20
70.7277
 30
0.0
 10
-11.2043
 20
70.7277
 30
0.0
 10
-10.4025
 20
57.5767
 30
0.0
 10
-10.4025
 20
57.5767
 30
0.0
  0
SPLINE
  5
63
330
1F
100
AcDbEntity
  8
layer 1
 62
   250
370
    20
100
AcDbSpline
210
0.0
220
0.0
230
1.0
 70
    24
 71
     3
 72
     8
 73
     4
 74
     0
 42
0.0000000001
 43
0.0000000001
 40
0.0
 40
0.0
 40
0.0
 40
0.0
 40
1.0
 40
1.0
 40
1.0
 40
1.0
 10
-28.5148
 20
56.4792
 30
0.0
 10
-28.5148
 20
56.4792
 30
0.0
 10
-31.7039
 20
54.0811
 30
0.0
 10
-31.7039
 20
54.0811
 30
0.0
  0
SPLINE
  5
64
330
1F
100
AcDbEntity
  8
layer 1
 62
   250
370
    20
100
AcDbSpline
210
0.0
220
0.0
230
1.0
 70
     8
 71
     3
 72
    20
 73
    16
 74
     0
 42
0.0000000001
 43
0.0000000001
 40
0.0
 40
0.0
 40
0.0
 40
0.0
 40
0.2
 40
0.2
 40
0.2
 40
0.2
 40
0.4
 40
0.4
 40
0.4
 40
0.4
 40
0.6
 40
0.6
 40
0.6
 40
0.6
 40
1.0
 40
1.0
 40
1.0
 40
1.0
 10
-31.7039
 20
54.0811
 30
0.0
 10
-31.7039
 20
54.0811
 30
0.0
 10
-31.7039
 20
51.4139
 30
0.0
 10
-31.7039
 20
51.4139
 30
0.0
 10
-31.7039
 20
51.4139
 30
0.0
 10
-31.7039
 20
51.4139
 30
0.0
 10
-9.2402
 20
51.4139
 30
0.0
 10
-9.2402
 20
51.4139
 30
0.0
 10
-9.2402
 20
51.4139
 30
0.0
 10
-9.2402
 20
51.4139
 30
0.0
 10
-9.2402
 20
56.4083
 30
0.0
 10
-9.2402
 20
56.4083
 30
0.0
 10
-9.2402
 20
56.4083
 30
0.0
 10
-9.2402
 20
56.4083
 30
0.0
 10
-28.5148
 20
56.4083
 30
0.0
 10
-28.5148
 20
56.4083
 30
0.0
  0
SPLINE
  5
65
330
1F
100
AcDbEntity
  8
layer 1
 62
   250
370
    20
100
AcDbSpline
210
0.0
220
0.0
230
1.0
 70
     8
 71
     3
 72
    20
 73
    16
 74
     0
 42
0.0000000001
 43
0.0000000001
 40
0.0
 40
0.0
 40
0.0
 40
0.0
 40
0.2
 40
0.2
 40
0.2
 40
0.2
 40
0.4
 40
0.4
 40
0.4
 40
0.4
 40
0.6
 40
0.6
 40
0.6
 40
0.6
 40
1.0
 40
1.0
 40
1.0
 40
1.0
 10
18.3911
 20
54.0811
 30
0.0
 10
18.3911
 20
54.0811
 30
0.0
 10
18.3911
 20
51.4139
 30
0.0
 10
18.3911
 20
51.4139
 30
0.0
 10
18.3911
 20
51.4139
 30
0.0
 10
18.3911
 20
51.4139
 30
0.0
 10
-4.0728
 20
51.4139
 30
0.0
 10
-4.0728
 20
51.4139
 30
0.0
 10
-4.0728
 20
51.4139
 30
0.0
 10
-4.0728
 20
51.4139
 30
0.0
 10
-4.0728
 20
56.4083
 30
0.0
 10
-4.0728
 20
56.4083
 30
0.0
 10
-4.0728
 20
56.4083
 30
0.0
 10
-4.0728
 20
56.4083
 30
0.0
 10
15.2019
 20
56.4083
 30
0.0
 10
15.2019
 20
56.4083
 30
0.0
  0
SPLINE
  5
66
330
1F
100
AcDbEntity
  8
layer 1
 62
   250
370
    20
100
AcDbSpline
210
0.0
220
0.0
230
1.0
 70
    24
 71
     3
 72
     8
 73
     4
 74
     0
 42
0.0000000001
 43
0.0000000001
 40
0.0
 40
0.0
 40
0.0
 40
0.0
 40
1.0
 40
1.0
 40
1.0
 40
1.0
 10
15.2545
 20
56.4535
 30
0.0
 10
15.2545
 20
56.4535
 30
0.0
 10
18.4037
 20
54.1102
 30
0.0
 10
18.4037
 20
54.1102
 30
0.0
  0
SPLINE
  5
67
330
1F
100
AcDbEntity
  8
layer 1
 62
   250
370
    20
100
AcDbSpline
210
0.0
220
0.0
230
1.0
 70
     8
 71
     3
 72
    12
 73
     8
 74
     0
 42
0.0000000001
 43
0.0000000001
 40
0.0
 40
0.0
 40
0.0
 40
0.0
 40
0.3333333333333333
 40
0.3333333333333333
 40
0.3333333333333333
 40
0.3333333333333333
 40
1.0
 40
1.0
 40
1.0
 40
1.0
 10
-72.0584
 20
69.801
 30
0.0
 10
-72.1966
 20
69.801
 30
0.0
 10
-73.4398
 20
78.781
 30
0.0
 10
-64.46
 20
82.0966
 30
0.0
 10
-64.46
 20
82.0966
 30
0.0
 10
-64.46
 20
82.0966
 30
0.0
 10
-64.46
 20
84.5834
 30
0.0
 10
-64.46
 20
84.5834
 30
0.0
  0
SPLINE
  5
68
330
1F
100
AcDbEntity
  8
layer 1
 62
   250
370
    20
100
AcDbSpline
210
0.0
220
0.0
230
1.0
 70
    24
 71
     3
 72
     8
 73
     4
 74
     0
 42
0.0000000001
 43
0.0000000001
 40
0.0
 40
0.0
 40
0.0
 40
0.0
 40
1.0
 40
1.0
 40
1.0
 40
1.0
 10
-64.3865
 20
84.5387
 30
0.0
 10
-64.3865
 20
84.5387
 30
0.0
 10
-66.5353
 20
88.6309
 30
0.0
 10
-66.5353
 20
88.6309
 30
0.0
  0
SPLINE
  5
69
330
1F
100
AcDbEntity
  8
layer 1
 62
   250
370
    20
100
AcDbSpline
210
0.0
220
0.0
230
1.0
 70
     8
 71
     3
 72
    12
 73
     8
 74
     0
 42
0.0000000001
 43
0.0000000001
 40
0.0
 40
0.0
 40
0.0
 40
0.0
 40
0.3333333333333333
 40
0.3333333333333333
 40
0.3333333333333333
 40
0.3333333333333333
 40
1.0
 40
1.0
 40
1.0
 40
1.0
 10
-66.5353
 20
88.6309
 30
0.0
 10
-66.5353
 20
88.6309
 30
0.0
 10
-70.334
 20
88.0509
 30
0.0
 10
-70.7139
 20
92.2387
 30
0.0
 10
-70.7139
 20
92.2387
 30
0.0
 10
-70.7139
 20
92.2387
 30
0.0
 10
-70.5758
 20
95.6997
 30
0.0
 10
-67.0522
 20
95.6997
 30
0.0
  0
SPLINE
  5
6A
330
1F
100
AcDbEntity
  8
layer 1
 62
   250
370
    20
100
AcDbSpline
210
0.0
220
0.0
230
1.0
 70
     8
 71
     3
 72
    12
 73
     8
 74
     0
 42
0.0000000001
 43
0.0000000001
 40
0.0
 40
0.0
 40
0.0
 40
0.0
 40
0.3333333333333333
 40
0.3333333333333333
 40
0.3333333333333333
 40
0.3333333333333333
 40
1.0
 40
1.0
 40
1.0
 40
1.0
 10
-67.1296
 20
95.6997
 30
0.0
 10
-67.1296
 20
95.6997
 30
0.0
 10
-63.8479
 20
95.6997
 30
0.0
 10
-63.606
 20
92.4117
 30
0.0
 10
-63.606
 20
92.4117
 30
0.0
 10
-63.606
 20
92.4117
 30
0.0
 10
-63.4333
 20
90.612
 30
0.0
 10
-64.6424
 20
89.6082
 30
0.0
  0
SPLINE
  5
6B
330
1F
100
AcDbEntity
  8
layer 1
 62
   250
370
    20
100
AcDbSpline
210
0.0
220
0.0
230
1.0
 70
    24
 71
     3
 72
     8
 73
     4
 74
     0
 42
0.0000000001
 43
0.0000000001
 40
0.0
 40
0.0
 40
0.0
 40
0.0
 40
1.0
 40
1.0
 40
1.0
 40
1.0
 10
-64.729
 20
89.646
 30
0.0
 10
-64.729
 20
89.646
 30
0.0
 10
-62.4539
 20
85.3949
 30
0.0
 10
-62.4539
 20
85.3949
 30
0.0
  0
SPLINE
  5
6C
330
1F
100
AcDbEntity
  8
layer 1
 62
   250
370
    20
100
AcDbSpline
210
0.0
220
0.0
230
1.0
 70
     8
 71
     3
 72
    16
 73
    12
 74
     0
 42
0.0000000001
 43
0.0000000001
 40
0.0
 40
0.0
 40
0.0
 40
0.0
 40
0.25
 40
0.25
 40
0.25
 40
0.25
 40
0.5
 40
0.5
 40
0.5
 40
0.5
 40
1.0
 40
1.0
 40
1.0
 40
1.0
 10
-62.4539
 20
85.3949
 30
0.0
 10
-62.4539
 20
85.3949
 30
0.0
 10
-58.8653
 20
85.3949
 30
0.0
 10
-58.8653
 20
85.3949
 30
0.0
 10
-58.8653
 20
85.3949
 30
0.0
 10
-58.8653
 20
85.3949
 30
0.0
 10
-56.5504
 20
89.4044
 30
0.0
 10
-56.5504
 20
89.4044
 30
0.0
 10
-56.5504
 20
89.4044
 30
0.0
 10
-56.5504
 20
89.4044
 30
0.0
 10
-59.2799
 20
91.9963
 30
0.0
 10
-56.5853
 20
94.9037
 30
0.0
  0
SPLINE
  5
6D
330
1F
100
AcDbEntity
  8
layer 1
 62
   250
370
    20
100
AcDbSpline
210
0.0
220
0.0
230
1.0
 70
     8
 71
     3
 72
    16
 73
    12
 74
     0
 42
0.0000000001
 43
0.0000000001
 40
0.0
 40
0.0
 40
0.0
 40
0.0
 40
0.25
 40
0.25
 40
0.25
 40
0.25
 40
0.5
 40
0.5
 40
0.5
 40
0.5
 40
1.0
 40
1.0
 40
1.0
 40
1.0
 10
-56.5853
 20
94.9037
 30
0.0
 10
-56.5853
 20
94.9037
 30
0.0
 10
-53.5455
 20
97.3264
 30
0.0
 10
-51.1619
 20
94.0384
 30
0.0
 10
-51.1619
 20
94.0384
 30
0.0
 10
-51.1619
 20
94.0384
 30
0.0
 10
-49.5386
 20
91.7542
 30
0.0
 10
-52.0256
 20
89.2275
 30
0.0
 10
-52.0256
 20
89.2275
 30
0.0
 10
-52.0256
 20
89.2275
 30
0.0
 10
-53.2345
 20
88.2932
 30
0.0
 10
-54.8927
 20
88.6392
 30
0.0
  0
SPLINE
  5
6E
330
1F
100
AcDbEntity
  8
layer 1
 62
   250
370
    20
100
AcDbSpline
210
0.0
220
0.0
230
1.0
 70
    24
 71
     3
 72
     8
 73
     4
 74
     0
 42
0.0000000001
 43
0.0000000001
 40
0.0
 40
0.0
 40
0.0
 40
0.0
 40
1.0
 40
1.0
 40
1.0
 40
1.0
 10
-56.7358
 20
84.923
 30
0.0
 10
-56.7358
 20
84.923
 30
0.0
 10
-54.7105
 20
88.5336
 30
0.0
 10
-54.7105
 20
88.5336
 30
0.0
  0
SPLINE
  5
6F
330
1F
100
AcDbEntity
  8
layer 1
 62
   250
370
    20
100
AcDbSpline
210
0.0
220
0.0
230
1.0
 70
     8
 71
     3
 72
    16
 73
    12
 74
     0
 42
0.0000000001
 43
0.0000000001
 40
0.0
 40
0.0
 40
0.0
 40
0.0
 40
0.25
 40
0.25
 40
0.25
 40
0.25
 40
0.5
 40
0.5
 40
0.5
 40
0.5
 40
1.0
 40
1.0
 40
1.0
 40
1.0
 10
-56.7358
 20
84.923
 30
0.0
 10
-56.7358
 20
84.923
 30
0.0
 10
-56.7358
 20
81.9594
 30
0.0
 10
-56.7358
 20
81.9594
 30
0.0
 10
-56.7358
 20
81.9594
 30
0.0
 10
-56.7358
 20
81.9594
 30
0.0
 10
-48.4331
 20
79.0866
 30
0.0
 10
-49.2621
 20
69.6724
 30
0.0
 10
-49.2621
 20
69.6724
 30
0.0
 10
-49.2621
 20
69.6724
 30
0.0
 10
-72.0584
 20
69.6724
 30
0.0
 10
-72.0584
 20
69.6724
 30
0.0
  0
ELLIPSE
  5
70
330
1F
100
AcDbEntity
  8
layer 1
 62
   250
370
    20
100
AcDbEllipse
 10
-64.5832
 20
76.7329
 30
0.0
 11
0.0
 21
3.2452
 31
0.0
210
0.0
220
0.0
230
1.0
 40
1.0
 41
0.0
 42
6.283185307179586
  0
ELLIPSE
  5
71
330
1F
100
AcDbEntity
  8
layer 1
 62
   250
370
    20
100
AcDbEllipse
 10
-56.6462
 20
76.7861
 30
0.0
 11
0.0
 21
3.2452
 31
0.0
210
0.0
220
0.0
230
1.0
 40
1.0
 41
0.0
 42
6.283185307179586
  0
SPLINE
  5
72
330
1F
100
AcDbEntity
  8
layer 1
 62
   250
370
    20
100
AcDbSpline
210
0.0
220
0.0
230
1.0
 70
    11
 71
     3
 72
    84
 73
    80
 74
     0
 42
0.0000000001
 43
0.0000000001
 40
0.0
 40
0.0
 40
0.0
 40
0.0
 40
0.0476190476190476
 40
0.0476190476190476
 40
0.0476190476190476
 40
0.0476190476190476
 40
0.0952380952380952
 40
0.0952380952380952
 40
0.0952380952380952
 40
0.0952380952380952
 40
0.1428571428571428
 40
0.1428571428571428
 40
0.1428571428571428
 40
0.1428571428571428
 40
0.1904761904761905
 40
0.1904761904761905
 40
0.1904761904761905
 40
0.1904761904761905
 40
0.2380952380952381
 40
0.2380952380952381
 40
0.2380952380952381
 40
0.2380952380952381
 40
0.2857142857142857
 40
0.2857142857142857
 40
0.2857142857142857
 40
0.2857142857142857
 40
0.3333333333333333
 40
0.3333333333333333
 40
0.3333333333333333
 40
0.3333333333333333
 40
0.3809523809523809
 40
0.3809523809523809
 40
0.3809523809523809
 40
0.3809523809523809
 40
0.4285714285714285
 40
0.4285714285714285
 40
0.4285714285714285
 40
0.4285714285714285
 40
0.4761904761904762
 40
0.4761904761904762
 40
0.4761904761904762
 40
0.4761904761904762
 40
0.5238095238095238
 40
0.5238095238095238
 40
0.5238095238095238
 40
0.5238095238095238
 40
0.5714285714285714
 40
0.5714285714285714
 40
0.5714285714285714
 40
0.5714285714285714
 40
0.6190476190476191
 40
0.6190476190476191
 40
0.6190476190476191
 40
0.6190476190476191
 40
0.6666666666666666
 40
0.6666666666666666
 40
0.6666666666666666
 40
0.6666666666666666
 40
0.7142857142857143
 40
0.7142857142857143
 40
0.7142857142857143
 40
0.7142857142857143
 40
0.7619047619047619
 40
0.7619047619047619
 40
0.7619047619047619
 40
0.7619047619047619
 40
0.8095238095238095
 40
0.8095238095238095
 40
0.8095238095238095
 40
0.8095238095238095
 40
0.8571428571428571
 40
0.8571428571428571
 40
0.8571428571428571
 40
0.8571428571428571
 40
0.9047619047619048
 40
0.9047619047619048
 40
0.9047619047619048
 40
0.9047619047619048
 40
1.0
 40
1.0
 40
1.0
 40
1.0
 10
-71.1631
 20
69.0494
 30
0.0
 10
-71.1631
 20
69.0494
 30
0.0
 10
-65.8431
 20
69.0494
 30
0.0
 10
-65.8431
 20
69.0494
 30
0.0
 10
-65.8431
 20
69.0494
 30
0.0
 10
-65.8431
 20
69.0494
 30
0.0
 10
-60.9034
 20
65.6227
 30
0.0
 10
-55.2728
 20
69.0839
 30
0.0
 10
-55.2728
 20
69.0839
 30
0.0
 10
-55.2728
 20
69.0839
 30
0.0
 10
-49.9875
 20
69.0839
 30
0.0
 10
-49.9875
 20
69.0839
 30
0.0
 10
-49.9875
 20
69.0839
 30
0.0
 10
-49.9875
 20
69.0839
 30
0.0
 10
-51.3002
 20
65.865
 30
0.0
 10
-53.4419
 20
64.3422
 30
0.0
 10
-53.4419
 20
64.3422
 30
0.0
 10
-53.4419
 20
64.3422
 30
0.0
 10
-53.4419
 20
55.6895
 30
0.0
 10
-53.4419
 20
55.6895
 30
0.0
 10
-53.4419
 20
55.6895
 30
0.0
 10
-53.4419
 20
55.6895
 30
0.0
 10
-47.2931
 20
55.6895
 30
0.0
 10
-47.2931
 20
55.6895
 30
0.0
 10
-47.2931
 20
55.6895
 30
0.0
 10
-47.2931
 20
55.6895
 30
0.0
 10
-47.2931
 20
51.3285
 30
0.0
 10
-47.2931
 20
51.3285
 30
0.0
 10
-47.2931
 20
51.3285
 30
0.0
 10
-47.2931
 20
51.3285
 30
0.0
 10
-59.6943
 20
51.3285
 30
0.0
 10
-59.6943
 20
51.3285
 30
0.0
 10
-59.6943
 20
51.3285
 30
0.0
 10
-59.6943
 20
51.3285
 30
0.0
 10
-59.6943
 20
55.6548
 30
0.0
 10
-59.6943
 20
55.6548
 30
0.0
 10
-59.6943
 20
55.6548
 30
0.0
 10
-59.6943
 20
55.6548
 30
0.0
 10
-57.3454
 20
55.6548
 30
0.0
 10
-57.3454
 20
55.6548
 30
0.0
 10
-57.3454
 20
55.6548
 30
0.0
 10
-57.3454
 20
55.6548
 30
0.0
 10
-57.3454
 20
62.3346
 30
0.0
 10
-57.3454
 20
62.3346
 30
0.0
 10
-57.3454
 20
62.3346
 30
0.0
 10
-57.3454
 20
62.3346
 30
0.0
 10
-60.9377
 20
61.2619
 30
0.0
 10
-63.9432
 20
62.3347
 30
0.0
 10
-63.9432
 20
62.3347
 30
0.0
 10
-63.9432
 20
62.3347
 30
0.0
 10
-63.9432
 20
55.6548
 30
0.0
 10
-63.9432
 20
55.6548
 30
0.0
 10
-63.9432
 20
55.6548
 30
0.0
 10
-63.9432
 20
55.6548
 30
0.0
 10
-61.5597
 20
55.6548
 30
0.0
 10
-61.5597
 20
55.6548
 30
0.0
 10
-61.5597
 20
55.6548
 30
0.0
 10
-61.5597
 20
55.6548
 30
0.0
 10
-61.5597
 20
51.3631
 30
0.0
 10
-61.5597
 20
51.3631
 30
0.0
 10
-61.5597
 20
51.3631
 30
0.0
 10
-61.5597
 20
51.3631
 30
0.0
 10
-74.0647
 20
51.3631
 30
0.0
 10
-74.0647
 20
51.3631
 30
0.0
 10
-74.0647
 20
51.3631
 30
0.0
 10
-74.0647
 20
51.3631
 30
0.0
 10
-74.0647
 20
55.6548
 30
0.0
 10
-74.0647
 20
55.6548
 30
0.0
 10
-74.0647
 20
55.6548
 30
0.0
 10
-74.0647
 20
55.6548
 30
0.0
 10
-67.8467
 20
55.6548
 30
0.0
 10
-67.8467
 20
55.6548
 30
0.0
 10
-67.8467
 20
55.6548
 30
0.0
 10
-67.8467
 20
55.6548
 30
0.0
 10
-67.8467
 20
64.3767
 30
0.0
 10
-67.8467
 20
64.3767
 30
0.0
 10
-67.8467
 20
64.3767
 30
0.0
 10
-67.8467
 20
64.3767
 30
0.0
 10
-70.5756
 20
66.5572
 30
0.0
 10
-71.1631
 20
69.0494
 30
0.0
  0
SPLINE
  5
73
330
1F
100
AcDbEntity
  8
layer 1
 62
   250
370
    20
100
AcDbSpline
210
0.0
220
0.0
230
1.0
 70
    11
 71
     3
 72
    20
 73
    16
 74
     0
 42
0.0000000001
 43
0.0000000001
 40
0.0
 40
0.0
 40
0.0
 40
0.0
 40
0.2
 40
0.2
 40
0.2
 40
0.2
 40
0.4
 40
0.4
 40
0.4
 40
0.4
 40
0.6
 40
0.6
 40
0.6
 40
0.6
 40
1.0
 40
1.0
 40
1.0
 40
1.0
 10
45.3912
 20
101.1479
 30
0.0
 10
45.3912
 20
102.1226
 30
0.0
 10
44.5945
 20
102.913
 30
0.0
 10
43.6122
 20
102.913
 30
0.0
 10
43.6122
 20
102.913
 30
0.0
 10
42.6301
 20
102.913
 30
0.0
 10
41.8332
 20
102.1226
 30
0.0
 10
41.8332
 20
101.1479
 30
0.0
 10
41.8332
 20
101.1479
 30
0.0
 10
41.8332
 20
100.1735
 30
0.0
 10
42.6301
 20
99.3829
 30
0.0
 10
43.6122
 20
99.3829
 30
0.0
 10
43.6122
 20
99.3829
 30
0.0
 10
44.5945
 20
99.3829
 30
0.0
 10
45.3912
 20
100.1735
 30
0.0
 10
45.3912
 20
101.1479
 30
0.0
  0
SPLINE
  5
74
330
1F
100
AcDbEntity
  8
layer 1
 62
   250
370
    20
100
AcDbSpline
210
0.0
220
0.0
230
1.0
 70
    11
 71
     3
 72
    20
 73
    16
 74
     0
 42
0.0000000001
 43
0.0000000001
 40
0.0
 40
0.0
 40
0.0
 40
0.0
 40
0.2
 40
0.2
 40
0.2
 40
0.2
 40
0.4
 40
0.4
 40
0.4
 40
0.4
 40
0.6
 40
0.6
 40
0.6
 40
0.6
 40
1.0
 40
1.0
 40
1.0
 40
1.0
 10
44.6797
 20
101.1479
 30
0.0
 10
44.6797
 20
100.5632
 30
0.0
 10
44.2017
 20
100.0888
 30
0.0
 10
43.6122
 20
100.0888
 30
0.0
 10
43.6122
 20
100.0888
 30
0.0
 10
43.0229
 20
100.0888
 30
0.0
 10
42.5447
 20
100.5632
 30
0.0
 10
42.5447
 20
101.1479
 30
0.0
 10
42.5447
 20
101.1479
 30
0.0
 10
42.5447
 20
101.7327
 30
0.0
 10
43.0229
 20
102.2071
 30
0.0
 10
43.6122
 20
102.2071
 30
0.0
 10
43.6122
 20
102.2071
 30
0.0
 10
44.2017
 20
102.2071
 30
0.0
 10
44.6797
 20
101.7327
 30
0.0
 10
44.6797
 20
101.1479
 30
0.0
  0
SPLINE
  5
75
330
1F
100
AcDbEntity
  8
layer 1
 62
   250
370
    20
100
AcDbSpline
210
0.0
220
0.0
230
1.0
 70
    11
 71
     3
 72
    20
 73
    16
 74
     0
 42
0.0000000001
 43
0.0000000001
 40
0.0
 40
0.0
 40
0.0
 40
0.0
 40
0.2
 40
0.2
 40
0.2
 40
0.2
 40
0.4
 40
0.4
 40
0.4
 40
0.4
 40
0.6
 40
0.6
 40
0.6
 40
0.6
 40
1.0
 40
1.0
 40
1.0
 40
1.0
 10
65.3148
 20
108.504
 30
0.0
 10
65.3148
 20
109.4786
 30
0.0
 10
64.5181
 20
110.269
 30
0.0
 10
63.5358
 20
110.269
 30
0.0
 10
63.5358
 20
110.269
 30
0.0
 10
62.5537
 20
110.269
 30
0.0
 10
61.7568
 20
109.4786
 30
0.0
 10
61.7568
 20
108.504
 30
0.0
 10
61.7568
 20
108.504
 30
0.0
 10
61.7568
 20
107.5295
 30
0.0
 10
62.5537
 20
106.7389
 30
0.0
 10
63.5358
 20
106.7389
 30
0.0
 10
63.5358
 20
106.7389
 30
0.0
 10
64.5181
 20
106.7389
 30
0.0
 10
65.3148
 20
107.5295
 30
0.0
 10
65.3148
 20
108.504
 30
0.0
  0
SPLINE
  5
76
330
1F
100
AcDbEntity
  8
layer 1
 62
   250
370
    20
100
AcDbSpline
210
0.0
220
0.0
230
1.0
 70
    11
 71
     3
 72
    20
 73
    16
 74
     0
 42
0.0000000001
 43
0.0000000001
 40
0.0
 40
0.0
 40
0.0
 40
0.0
 40
0.2
 40
0.2
 40
0.2
 40
0.2
 40
0.4
 40
0.4
 40
0.4
 40
0.4
 40
0.6
 40
0.6
 40
0.6
 40
0.6
 40
1.0
 40
1.0
 40
1.0
 40
1.0
 10
64.6033
 20
108.504
 30
0.0
 10
64.6033
 20
107.9192
 30
0.0
 10
64.1253
 20
107.4448
 30
0.0
 10
63.5358
 20
107.4448
 30
0.0
 10
63.5358
 20
107.4448
 30
0.0
 10
62.9465
 20
107.4448
 30
0.0
 10
62.4683
 20
107.9192
 30
0.0
 10
62.4683
 20
108.504
 30
0.0
 10
62.4683
 20
108.504
 30
0.0
 10
62.4683
 20
109.0887
 30
0.0
 10
62.9465
 20
109.5632
 30
0.0
 10
63.5358
 20
109.5632
 30
0.0
 10
63.5358
 20
109.5632
 30
0.0
 10
64.1253
 20
109.5632
 30
0.0
 10
64.6033
 20
109.0887
 30
0.0
 10
64.6033
 20
108.504
 30
0.0
  0
SPLINE
  5
77
330
1F
100
AcDbEntity
  8
layer 1
 62
   250
370
    20
100
AcDbSpline
210
0.0
220
0.0
230
1.0
 70
     8
 71
     3
 72
    24
 73
    20
 74
     0
 42
0.0000000001
 43
0.0000000001
 40
0.0
 40
0.0
 40
0.0
 40
0.0
 40
0.1666666666666667
 40
0.1666666666666667
 40
0.1666666666666667
 40
0.1666666666666667
 40
0.3333333333333333
 40
0.3333333333333333
 40
0.3333333333333333
 40
0.3333333333333333
 40
0.5
 40
0.5
 40
0.5
 40
0.5
 40
0.6666666666666666
 40
0.6666666666666666
 40
0.6666666666666666
 40
0.6666666666666666
 40
1.0
 40
1.0
 40
1.0
 40
1.0
 10
45.3776
 20
101.3671
 30
0.0
 10
45.3776
 20
101.3671
 30
0.0
 10
46.4711
 20
101.3671
 30
0.0
 10
46.4711
 20
101.3671
 30
0.0
 10
46.4711
 20
101.3671
 30
0.0
 10
46.4711
 20
101.3671
 30
0.0
 10
48.3299
 20
108.0086
 30
0.0
 10
55.5561
 20
107.881
 30
0.0
 10
55.5561
 20
107.881
 30
0.0
 10
55.5561
 20
107.881
 30
0.0
 10
59.5634
 20
107.9502
 30
0.0
 10
62.2233
 20
104.593
 30
0.0
 10
62.2233
 20
104.593
 30
0.0
 10
62.2233
 20
104.593
 30
0.0
 10
62.6377
 20
104.9737
 30
0.0
 10
63.1559
 20
104.9045
 30
0.0
 10
63.1559
 20
104.9045
 30
0.0
 10
63.1559
 20
104.9045
 30
0.0
 10
63.1559
 20
106.7486
 30
0.0
 10
63.1559
 20
106.7486
 30
0.0
  0
SPLINE
  5
78
330
1F
100
AcDbEntity
  8
layer 1
 62
   250
370
    20
100
AcDbSpline
210
0.0
220
0.0
230
1.0
 70
     8
 71
     3
 72
    32
 73
    28
 74
     0
 42
0.0000000001
 43
0.0000000001
 40
0.0
 40
0.0
 40
0.0
 40
0.0
 40
0.125
 40
0.125
 40
0.125
 40
0.125
 40
0.25
 40
0.25
 40
0.25
 40
0.25
 40
0.375
 40
0.375
 40
0.375
 40
0.375
 40
0.5
 40
0.5
 40
0.5
 40
0.5
 40
0.625
 40
0.625
 40
0.625
 40
0.625
 40
0.75
 40
0.75
 40
0.75
 40
0.75
 40
1.0
 40
1.0
 40
1.0
 40
1.0
 10
63.9077
 20
106.7775
 30
0.0
 10
63.9077
 20
106.7775
 30
0.0
 10
63.9077
 20
104.9046
 30
0.0
 10
63.9077
 20
104.9046
 30
0.0
 10
63.9077
 20
104.9046
 30
0.0
 10
63.9077
 20
104.9046
 30
0.0
 10
65.7814
 20
104.766
 30
0.0
 10
66.023
 20
102.551
 30
0.0
 10
66.023
 20
102.551
 30
0.0
 10
66.023
 20
102.551
 30
0.0
 10
66.1957
 20
100.7859
 30
0.0
 10
64.3303
 20
100.1628
 30
0.0
 10
64.3303
 20
100.1628
 30
0.0
 10
64.3303
 20
100.1628
 30
0.0
 10
64.6067
 20
98.5362
 30
0.0
 10
64.365
 20
97.9477
 30
0.0
 10
64.365
 20
97.9477
 30
0.0
 10
64.365
 20
97.9477
 30
0.0
 10
46.0912
 20
97.9477
 30
0.0
 10
46.0912
 20
97.9477
 30
0.0
 10
46.0912
 20
97.9477
 30
0.0
 10
46.0912
 20
97.9477
 30
0.0
 10
45.8714
 20
99.2616
 30
0.0
 10
46.2639
 20
100.578
 30
0.0
 10
46.2639
 20
100.578
 30
0.0
 10
46.2639
 20
100.578
 30
0.0
 10
45.3065
 20
100.578
 30
0.0
 10
45.3065
 20
100.578
 30
0.0
  0
SPLINE
  5
79
330
1F
100
AcDbEntity
  8
layer 1
 62
   250
370
    20
100
AcDbSpline
210
0.0
220
0.0
230
1.0
 70
    11
 71
     3
 72
    20
 73
    16
 74
     0
 42
0.0000000001
 43
0.0000000001
 40
0.0
 40
0.0
 40
0.0
 40
0.0
 40
0.2
 40
0.2
 40
0.2
 40
0.2
 40
0.4
 40
0.4
 40
0.4
 40
0.4
 40
0.6
 40
0.6
 40
0.6
 40
0.6
 40
1.0
 40
1.0
 40
1.0
 40
1.0
 10
50.7877
 20
94.1404
 30
0.0
 10
50.7877
 20
94.1404
 30
0.0
 10
50.7877
 20
92.3061
 30
0.0
 10
50.7877
 20
92.3061
 30
0.0
 10
50.7877
 20
92.3061
 30
0.0
 10
50.7877
 20
92.3061
 30
0.0
 10
59.6695
 20
94.6859
 30
0.0
 10
59.6695
 20
94.6859
 30
0.0
 10
59.6695
 20
94.6859
 30
0.0
 10
59.6695
 20
94.6859
 30
0.0
 10
59.6695
 20
96.4593
 30
0.0
 10
59.6695
 20
96.4593
 30
0.0
 10
59.6695
 20
96.4593
 30
0.0
 10
59.6695
 20
96.4593
 30
0.0
 10
50.7877
 20
94.1404
 30
0.0
 10
50.7877
 20
94.1404
 30
0.0
  0
SPLINE
  5
7A
330
1F
100
AcDbEntity
  8
layer 1
 62
   250
370
    20
100
AcDbSpline
210
0.0
220
0.0
230
1.0
 70
     8
 71
     3
 72
    20
 73
    16
 74
     0
 42
0.0000000001
 43
0.0000000001
 40
0.0
 40
0.0
 40
0.0
 40
0.0
 40
0.2
 40
0.2
 40
0.2
 40
0.2
 40
0.4
 40
0.4
 40
0.4
 40
0.4
 40
0.6
 40
0.6
 40
0.6
 40
0.6
 40
1.0
 40
1.0
 40
1.0
 40
1.0
 10
50.7547
 20
91.7176
 30
0.0
 10
50.7547
 20
91.7176
 30
0.0
 10
50.7547
 20
89.4679
 30
0.0
 10
50.7547
 20
89.4679
 30
0.0
 10
50.7547
 20
89.4679
 30
0.0
 10
50.7547
 20
89.4679
 30
0.0
 10
59.7141
 20
91.8685
 30
0.0
 10
59.7141
 20
91.8685
 30
0.0
 10
59.7141
 20
91.8685
 30
0.0
 10
59.7141
 20
91.8685
 30
0.0
 10
59.7141
 20
93.9326
 30
0.0
 10
59.7141
 20
93.9326
 30
0.0
 10
59.7141
 20
93.9326
 30
0.0
 10
59.7141
 20
93.9326
 30
0.0
 10
50.8011
 20
91.5444
 30
0.0
 10
50.8011
 20
91.5444
 30
0.0
  0
SPLINE
  5
7B
330
1F
100
AcDbEntity
  8
layer 1
 62
   250
370
    20
100
AcDbSpline
210
0.0
220
0.0
230
1.0
 70
    11
 71
     3
 72
    20
 73
    16
 74
     0
 42
0.0000000001
 43
0.0000000001
 40
0.0
 40
0.0
 40
0.0
 40
0.0
 40
0.2
 40
0.2
 40
0.2
 40
0.2
 40
0.4
 40
0.4
 40
0.4
 40
0.4
 40
0.6
 40
0.6
 40
0.6
 40
0.6
 40
1.0
 40
1.0
 40
1.0
 40
1.0
 10
50.7532
 20
88.8622
 30
0.0
 10
50.7532
 20
88.8622
 30
0.0
 10
50.7532
 20
87.7547
 30
0.0
 10
50.7532
 20
87.7547
 30
0.0
 10
50.7532
 20
87.7547
 30
0.0
 10
50.7532
 20
87.7547
 30
0.0
 10
59.7345
 20
87.7547
 30
0.0
 10
59.7345
 20
87.7547
 30
0.0
 10
59.7345
 20
87.7547
 30
0.0
 10
59.7345
 20
87.7547
 30
0.0
 10
59.7345
 20
91.1984
 30
0.0
 10
59.7345
 20
91.1984
 30
0.0
 10
59.7345
 20
91.1984
 30
0.0
 10
59.7345
 20
91.1984
 30
0.0
 10
50.7532
 20
88.8622
 30
0.0
 10
50.7532
 20
88.8622
 30
0.0
  0
SPLINE
  5
7C
330
1F
100
AcDbEntity
  8
layer 1
 62
   250
370
    20
100
AcDbSpline
210
0.0
220
0.0
230
1.0
 70
    11
 71
     3
 72
    16
 73
    12
 74
     0
 42
0.0000000001
 43
0.0000000001
 40
0.0
 40
0.0
 40
0.0
 40
0.0
 40
0.25
 40
0.25
 40
0.25
 40
0.25
 40
0.5
 40
0.5
 40
0.5
 40
0.5
 40
1.0
 40
1.0
 40
1.0
 40
1.0
 10
50.7358
 20
94.8846
 30
0.0
 10
50.7358
 20
94.8846
 30
0.0
 10
50.7358
 20
97.2381
 30
0.0
 10
50.7358
 20
97.2381
 30
0.0
 10
50.7358
 20
97.2381
 30
0.0
 10
50.7358
 20
97.2381
 30
0.0
 10
59.5443
 20
97.2381
 30
0.0
 10
59.5443
 20
97.2381
 30
0.0
 10
59.5443
 20
97.2381
 30
0.0
 10
59.5443
 20
97.2381
 30
0.0
 10
50.7358
 20
94.8846
 30
0.0
 10
50.7358
 20
94.8846
 30
0.0
  0
SPLINE
  5
7D
330
1F
100
AcDbEntity
  8
layer 1
 62
   250
370
    20
100
AcDbSpline
210
0.0
220
0.0
230
1.0
 70
    11
 71
     3
 72
    92
 73
    88
 74
     0
 42
0.0000000001
 43
0.0000000001
 40
0.0
 40
0.0
 40
0.0
 40
0.0
 40
0.0434782608695652
 40
0.0434782608695652
 40
0.0434782608695652
 40
0.0434782608695652
 40
0.0869565217391304
 40
0.0869565217391304
 40
0.0869565217391304
 40
0.0869565217391304
 40
0.1304347826086956
 40
0.1304347826086956
 40
0.1304347826086956
 40
0.1304347826086956
 40
0.1739130434782609
 40
0.1739130434782609
 40
0.1739130434782609
 40
0.1739130434782609
 40
0.2173913043478261
 40
0.2173913043478261
 40
0.2173913043478261
 40
0.2173913043478261
 40
0.2608695652173913
 40
0.2608695652173913
 40
0.2608695652173913
 40
0.2608695652173913
 40
0.3043478260869565
 40
0.3043478260869565
 40
0.3043478260869565
 40
0.3043478260869565
 40
0.3478260869565217
 40
0.3478260869565217
 40
0.3478260869565217
 40
0.3478260869565217
 40
0.391304347826087
 40
0.391304347826087
 40
0.391304347826087
 40
0.391304347826087
 40
0.4347826086956522
 40
0.4347826086956522
 40
0.4347826086956522
 40
0.4347826086956522
 40
0.4782608695652174
 40
0.4782608695652174
 40
0.4782608695652174
 40
0.4782608695652174
 40
0.5217391304347826
 40
0.5217391304347826
 40
0.5217391304347826
 40
0.5217391304347826
 40
0.5652173913043478
 40
0.5652173913043478
 40
0.5652173913043478
 40
0.5652173913043478
 40
0.6086956521739131
 40
0.6086956521739131
 40
0.6086956521739131
 40
0.6086956521739131
 40
0.6521739130434783
 40
0.6521739130434783
 40
0.6521739130434783
 40
0.6521739130434783
 40
0.6956521739130435
 40
0.6956521739130435
 40
0.6956521739130435
 40
0.6956521739130435
 40
0.7391304347826086
 40
0.7391304347826086
 40
0.7391304347826086
 40
0.7391304347826086
 40
0.782608695652174
 40
0.782608695652174
 40
0.782608695652174
 40
0.782608695652174
 40
0.8260869565217391
 40
0.8260869565217391
 40
0.8260869565217391
 40
0.8260869565217391
 40
0.8695652173913043
 40
0.8695652173913043
 40
0.8695652173913043
 40
0.8695652173913043
 40
0.9130434782608695
 40
0.9130434782608695
 40
0.9130434782608695
 40
0.9130434782608695
 40
1.0
 40
1.0
 40
1.0
 40
1.0
 10
46.6093
 20
71.3319
 30
0.0
 10
46.6093
 20
71.3319
 30
0.0
 10
46.6093
 20
87.2529
 30
0.0
 10
46.6093
 20
87.2529
 30
0.0
 10
46.6093
 20
87.2529
 30
0.0
 10
46.6093
 20
87.2529
 30
0.0
 10
48.4747
 20
87.2529
 30
0.0
 10
48.4747
 20
87.2529
 30
0.0
 10
48.4747
 20
87.2529
 30
0.0
 10
48.4747
 20
87.2529
 30
0.0
 10
48.4747
 20
85.384
 30
0.0
 10
48.4747
 20
85.384
 30
0.0
 10
48.4747
 20
85.384
 30
0.0
 10
48.4747
 20
85.384
 30
0.0
 10
50.202
 20
85.384
 30
0.0
 10
50.202
 20
85.384
 30
0.0
 10
50.202
 20
85.384
 30
0.0
 10
50.202
 20
85.384
 30
0.0
 10
50.202
 20
87.1836
 30
0.0
 10
50.202
 20
87.1836
 30
0.0
 10
50.202
 20
87.1836
 30
0.0
 10
50.202
 20
87.1836
 30
0.0
 10
60.7032
 20
87.1836
 30
0.0
 10
60.7032
 20
87.1836
 30
0.0
 10
60.7032
 20
87.1836
 30
0.0
 10
60.7032
 20
87.1836
 30
0.0
 10
60.7032
 20
85.3839
 30
0.0
 10
60.7032
 20
85.3839
 30
0.0
 10
60.7032
 20
85.3839
 30
0.0
 10
60.7032
 20
85.3839
 30
0.0
 10
62.4305
 20
85.3839
 30
0.0
 10
62.4305
 20
85.3839
 30
0.0
 10
62.4305
 20
85.3839
 30
0.0
 10
62.4305
 20
85.3839
 30
0.0
 10
62.4305
 20
87.2529
 30
0.0
 10
62.4305
 20
87.2529
 30
0.0
 10
62.4305
 20
87.2529
 30
0.0
 10
62.4305
 20
87.2529
 30
0.0
 10
64.365
 20
87.2529
 30
0.0
 10
64.365
 20
87.2529
 30
0.0
 10
64.365
 20
87.2529
 30
0.0
 10
64.365
 20
87.2529
 30
0.0
 10
64.365
 20
70.9859
 30
0.0
 10
64.365
 20
70.9859
 30
0.0
 10
64.365
 20
70.9859
 30
0.0
 10
64.365
 20
70.9859
 30
0.0
 10
66.5067
 20
69.3245
 30
0.0
 10
66.6448
 20
65.3788
 30
0.0
 10
66.6448
 20
65.3788
 30
0.0
 10
66.6448
 20
65.3788
 30
0.0
 10
66.6448
 20
58.526
 30
0.0
 10
66.6448
 20
58.526
 30
0.0
 10
66.6448
 20
58.526
 30
0.0
 10
66.6448
 20
58.526
 30
0.0
 10
64.0885
 20
58.0413
 30
0.0
 10
62.914
 20
56.3799
 30
0.0
 10
62.914
 20
56.3799
 30
0.0
 10
62.914
 20
56.3799
 30
0.0
 10
62.914
 20
64.202
 30
0.0
 10
62.914
 20
64.202
 30
0.0
 10
62.914
 20
64.202
 30
0.0
 10
62.914
 20
64.202
 30
0.0
 10
60.5651
 20
64.202
 30
0.0
 10
60.5651
 20
64.202
 30
0.0
 10
60.5651
 20
64.202
 30
0.0
 10
60.5651
 20
64.202
 30
0.0
 10
55.5216
 20
61.7793
 30
0.0
 10
50.5473
 20
64.202
 30
0.0
 10
50.5473
 20
64.202
 30
0.0
 10
50.5473
 20
64.202
 30
0.0
 10
47.5075
 20
64.202
 30
0.0
 10
47.5075
 20
64.202
 30
0.0
 10
47.5075
 20
64.202
 30
0.0
 10
47.5075
 20
64.202
 30
0.0
 10
47.5075
 20
56.1723
 30
0.0
 10
47.5075
 20
56.1723
 30
0.0
 10
47.5075
 20
56.1723
 30
0.0
 10
47.5075
 20
56.1723
 30
0.0
 10
45.9875
 20
58.2489
 30
0.0
 10
43.6386
 20
58.5951
 30
0.0
 10
43.6386
 20
58.5951
 30
0.0
 10
43.6386
 20
58.5951
 30
0.0
 10
43.6386
 20
65.1018
 30
0.0
 10
43.6386
 20
65.1018
 30
0.0
 10
43.6386
 20
65.1018
 30
0.0
 10
43.6386
 20
65.1018
 30
0.0
 10
43.7076
 20
69.6013
 30
0.0
 10
46.6093
 20
71.3319
 30
0.0
  0
SPLINE
  5
7E
330
1F
100
AcDbEntity
  8
layer 1
 62
   250
370
    20
100
AcDbSpline
210
0.0
220
0.0
230
1.0
 70
    11
 71
     3
 72
    16
 73
    12
 74
     0
 42
0.0000000001
 43
0.0000000001
 40
0.0
 40
0.0
 40
0.0
 40
0.0
 40
0.25
 40
0.25
 40
0.25
 40
0.25
 40
0.5
 40
0.5
 40
0.5
 40
0.5
 40
1.0
 40
1.0
 40
1.0
 40
1.0
 10
42.2568
 20
58.1104
 30
0.0
 10
48.4748
 20
57.5566
 30
0.0
 10
47.3001
 20
51.4651
 30
0.0
 10
47.3001
 20
51.4651
 30
0.0
 10
47.3001
 20
51.4651
 30
0.0
 10
47.3001
 20
51.4651
 30
0.0
 10
37.1442
 20
51.4651
 30
0.0
 10
37.1442
 20
51.4651
 30
0.0
 10
37.1442
 20
51.4651
 30
0.0
 10
37.1442
 20
51.4651
 30
0.0
 10
35.9008
 20
57.4874
 30
0.0
 10
42.2568
 20
58.1104
 30
0.0
  0
SPLINE
  5
7F
330
1F
100
AcDbEntity
  8
layer 1
 62
   250
370
    20
100
AcDbSpline
210
0.0
220
0.0
230
1.0
 70
    11
 71
     3
 72
    16
 73
    12
 74
     0
 42
0.0000000001
 43
0.0000000001
 40
0.0
 40
0.0
 40
0.0
 40
0.0
 40
0.25
 40
0.25
 40
0.25
 40
0.25
 40
0.5
 40
0.5
 40
0.5
 40
0.5
 40
1.0
 40
1.0
 40
1.0
 40
1.0
 10
68.0055
 20
58.1796
 30
0.0
 10
74.2235
 20
57.6259
 30
0.0
 10
73.0488
 20
51.5344
 30
0.0
 10
73.0488
 20
51.5344
 30
0.0
 10
73.0488
 20
51.5344
 30
0.0
 10
73.0488
 20
51.5344
 30
0.0
 10
62.8929
 20
51.5344
 30
0.0
 10
62.8929
 20
51.5344
 30
0.0
 10
62.8929
 20
51.5344
 30
0.0
 10
62.8929
 20
51.5344
 30
0.0
 10
61.6494
 20
57.5566
 30
0.0
 10
68.0055
 20
58.1796
 30
0.0
  0
SPLINE
  5
80
330
1F
100
AcDbEntity
  8
layer 1
 62
   250
370
    20
100
AcDbSpline
210
0.0
220
0.0
230
1.0
 70
     8
 71
     3
 72
    16
 73
    12
 74
     0
 42
0.0000000001
 43
0.0000000001
 40
0.0
 40
0.0
 40
0.0
 40
0.0
 40
0.25
 40
0.25
 40
0.25
 40
0.25
 40
0.5
 40
0.5
 40
0.5
 40
0.5
 40
1.0
 40
1.0
 40
1.0
 40
1.0
 10
42.7059
 20
85.6608
 30
0.0
 10
42.7059
 20
85.6608
 30
0.0
 10
45.5038
 20
85.6608
 30
0.0
 10
45.5038
 20
85.6608
 30
0.0
 10
45.5038
 20
85.6608
 30
0.0
 10
45.5038
 20
85.6608
 30
0.0
 10
45.5038
 20
82.1998
 30
0.0
 10
45.5038
 20
82.1998
 30
0.0
 10
45.5038
 20
82.1998
 30
0.0
 10
45.5038
 20
82.1998
 30
0.0
 10
44.0533
 20
82.1998
 30
0.0
 10
44.0533
 20
82.1998
 30
0.0
  0
SPLINE
  5
81
330
1F
100
AcDbEntity
  8
layer 1
 62
   250
370
    20
100
AcDbSpline
210
0.0
220
0.0
230
1.0
 70
    24
 71
     3
 72
     8
 73
     4
 74
     0
 42
0.0000000001
 43
0.0000000001
 40
0.0
 40
0.0
 40
0.0
 40
0.0
 40
1.0
 40
1.0
 40
1.0
 40
1.0
 10
42.7934
 20
85.5862
 30
0.0
 10
42.7934
 20
85.5862
 30
0.0
 10
44.192
 20
82.1697
 30
0.0
 10
44.192
 20
82.1697
 30
0.0
  0
SPLINE
  5
82
330
1F
100
AcDbEntity
  8
layer 1
 62
   250
370
    20
100
AcDbSpline
210
0.0
220
0.0
230
1.0
 70
    24
 71
     3
 72
     8
 73
     4
 74
     0
 42
0.0000000001
 43
0.0000000001
 40
0.0
 40
0.0
 40
0.0
 40
0.0
 40
1.0
 40
1.0
 40
1.0
 40
1.0
 10
41.972
 20
85.6037
 30
0.0
 10
41.972
 20
85.6037
 30
0.0
 10
43.3706
 20
82.1872
 30
0.0
 10
43.3706
 20
82.1872
 30
0.0
  0
SPLINE
  5
83
330
1F
100
AcDbEntity
  8
layer 1
 62
   250
370
    20
100
AcDbSpline
210
0.0
220
0.0
230
1.0
 70
     8
 71
     3
 72
    16
 73
    12
 74
     0
 42
0.0000000001
 43
0.0000000001
 40
0.0
 40
0.0
 40
0.0
 40
0.0
 40
0.25
 40
0.25
 40
0.25
 40
0.25
 40
0.5
 40
0.5
 40
0.5
 40
0.5
 40
1.0
 40
1.0
 40
1.0
 40
1.0
 10
41.972
 20
85.5691
 30
0.0
 10
41.972
 20
85.5691
 30
0.0
 10
40.4867
 20
85.5691
 30
0.0
 10
40.4867
 20
85.5691
 30
0.0
 10
40.4867
 20
85.5691
 30
0.0
 10
40.4867
 20
85.5691
 30
0.0
 10
41.8853
 20
82.1527
 30
0.0
 10
41.8853
 20
82.1527
 30
0.0
 10
41.8853
 20
82.1527
 30
0.0
 10
41.8853
 20
82.1527
 30
0.0
 10
43.3706
 20
82.1527
 30
0.0
 10
43.3706
 20
82.1527
 30
0.0
  0
SPLINE
  5
84
330
1F
100
AcDbEntity
  8
layer 1
 62
   250
370
    20
100
AcDbSpline
210
0.0
220
0.0
230
1.0
 70
     8
 71
     3
 72
     8
 73
     4
 74
     0
 42
0.0000000001
 43
0.0000000001
 40
0.0
 40
0.0
 40
0.0
 40
0.0
 40
1.0
 40
1.0
 40
1.0
 40
1.0
 10
41.2549
 20
82.0959
 30
0.0
 10
41.2549
 20
82.0959
 30
0.0
 10
40.1496
 20
81.8189
 30
0.0
 10
40.2187
 20
80.7459
 30
0.0
  0
SPLINE
  5
85
330
1F
100
AcDbEntity
  8
layer 1
 62
   250
370
    20
100
AcDbSpline
210
0.0
220
0.0
230
1.0
 70
     8
 71
     3
 72
    12
 73
     8
 74
     0
 42
0.0000000001
 43
0.0000000001
 40
0.0
 40
0.0
 40
0.0
 40
0.0
 40
0.3333333333333333
 40
0.3333333333333333
 40
0.3333333333333333
 40
0.3333333333333333
 40
1.0
 40
1.0
 40
1.0
 40
1.0
 10
37.2805
 20
84.3175
 30
0.0
 10
38.3887
 20
85.5074
 30
0.0
 10
39.7024
 20
85.4635
 30
0.0
 10
39.7024
 20
85.4635
 30
0.0
 10
39.7024
 20
85.4635
 30
0.0
 10
39.7024
 20
85.4635
 30
0.0
 10
41.3055
 20
82.0362
 30
0.0
 10
41.3055
 20
82.0362
 30
0.0
  0
SPLINE
  5
86
330
1F
100
AcDbEntity
  8
layer 1
 62
   250
370
    20
100
AcDbSpline
210
0.0
220
0.0
230
1.0
 70
    24
 71
     3
 72
     8
 73
     4
 74
     0
 42
0.0000000001
 43
0.0000000001
 40
0.0
 40
0.0
 40
0.0
 40
0.0
 40
1.0
 40
1.0
 40
1.0
 40
1.0
 10
37.1968
 20
84.2987
 30
0.0
 10
37.1968
 20
84.2987
 30
0.0
 10
40.1554
 20
80.7727
 30
0.0
 10
40.1554
 20
80.7727
 30
0.0
  0
SPLINE
  5
87
330
1F
100
AcDbEntity
  8
layer 1
 62
   250
370
    20
100
AcDbSpline
210
0.0
220
0.0
230
1.0
 70
    11
 71
     3
 72
    24
 73
    20
 74
     0
 42
0.0000000001
 43
0.0000000001
 40
0.0
 40
0.0
 40
0.0
 40
0.0
 40
0.1666666666666667
 40
0.1666666666666667
 40
0.1666666666666667
 40
0.1666666666666667
 40
0.3333333333333333
 40
0.3333333333333333
 40
0.3333333333333333
 40
0.3333333333333333
 40
0.5
 40
0.5
 40
0.5
 40
0.5
 40
0.6666666666666666
 40
0.6666666666666666
 40
0.6666666666666666
 40
0.6666666666666666
 40
1.0
 40
1.0
 40
1.0
 40
1.0
 10
40.2223
 20
79.6764
 30
0.0
 10
40.2223
 20
79.6764
 30
0.0
 10
36.9025
 20
83.5149
 30
0.0
 10
36.9025
 20
83.5149
 30
0.0
 10
36.9025
 20
83.5149
 30
0.0
 10
36.9025
 20
83.5149
 30
0.0
 10
36.5571
 20
83.1342
 30
0.0
 10
36.5224
 20
82.2344
 30
0.0
 10
36.5224
 20
82.2344
 30
0.0
 10
36.5224
 20
82.2344
 30
0.0
 10
36.5224
 20
79.9154
 30
0.0
 10
36.5224
 20
79.9154
 30
0.0
 10
36.5224
 20
79.9154
 30
0.0
 10
36.5224
 20
79.9154
 30
0.0
 10
40.134
 20
78.9477
 30
0.0
 10
40.134
 20
78.9477
 30
0.0
 10
40.134
 20
78.9477
 30
0.0
 10
40.134
 20
78.9477
 30
0.0
 10
40.2223
 20
79.6764
 30
0.0
 10
40.2223
 20
79.6764
 30
0.0
  0
SPLINE
  5
88
330
1F
100
AcDbEntity
  8
layer 1
 62
   250
370
    20
100
AcDbSpline
210
0.0
220
0.0
230
1.0
 70
    11
 71
     3
 72
    20
 73
    16
 74
     0
 42
0.0000000001
 43
0.0000000001
 40
0.0
 40
0.0
 40
0.0
 40
0.0
 40
0.2
 40
0.2
 40
0.2
 40
0.2
 40
0.4
 40
0.4
 40
0.4
 40
0.4
 40
0.6
 40
0.6
 40
0.6
 40
0.6
 40
1.0
 40
1.0
 40
1.0
 40
1.0
 10
40.2189
 20
76.6968
 30
0.0
 10
40.2189
 20
76.6968
 30
0.0
 10
36.4879
 20
77.0427
 30
0.0
 10
36.4879
 20
77.0427
 30
0.0
 10
36.4879
 20
77.0427
 30
0.0
 10
36.4879
 20
77.0427
 30
0.0
 10
36.4879
 20
79.2922
 30
0.0
 10
36.4879
 20
79.2922
 30
0.0
 10
36.4879
 20
79.2922
 30
0.0
 10
36.4879
 20
79.2922
 30
0.0
 10
40.1898
 20
78.3006
 30
0.0
 10
40.1898
 20
78.3006
 30
0.0
 10
40.1898
 20
78.3006
 30
0.0
 10
40.1898
 20
78.3006
 30
0.0
 10
40.2189
 20
76.6968
 30
0.0
 10
40.2189
 20
76.6968
 30
0.0
  0
SPLINE
  5
89
330
1F
100
AcDbEntity
  8
layer 1
 62
   250
370
    20
100
AcDbSpline
210
0.0
220
0.0
230
1.0
 70
     8
 71
     3
 72
    12
 73
     8
 74
     0
 42
0.0000000001
 43
0.0000000001
 40
0.0
 40
0.0
 40
0.0
 40
0.0
 40
0.3333333333333333
 40
0.3333333333333333
 40
0.3333333333333333
 40
0.3333333333333333
 40
1.0
 40
1.0
 40
1.0
 40
1.0
 10
36.4879
 20
74.7582
 30
0.0
 10
36.4879
 20
74.7582
 30
0.0
 10
36.5052
 20
76.3937
 30
0.0
 10
36.5052
 20
76.3937
 30
0.0
 10
36.5052
 20
76.3937
 30
0.0
 10
36.5052
 20
76.3937
 30
0.0
 10
40.2361
 20
76.1254
 30
0.0
 10
40.2361
 20
76.1254
 30
0.0
  0
SPLINE
  5
8A
330
1F
100
AcDbEntity
  8
layer 1
 62
   250
370
    20
100
AcDbSpline
210
0.0
220
0.0
230
1.0
 70
     8
 71
     3
 72
    76
 73
    72
 74
     0
 42
0.0000000001
 43
0.0000000001
 40
0.0
 40
0.0
 40
0.0
 40
0.0
 40
0.0526315789473684
 40
0.0526315789473684
 40
0.0526315789473684
 40
0.0526315789473684
 40
0.1052631578947368
 40
0.1052631578947368
 40
0.1052631578947368
 40
0.1052631578947368
 40
0.1578947368421053
 40
0.1578947368421053
 40
0.1578947368421053
 40
0.1578947368421053
 40
0.2105263157894737
 40
0.2105263157894737
 40
0.2105263157894737
 40
0.2105263157894737
 40
0.2631578947368421
 40
0.2631578947368421
 40
0.2631578947368421
 40
0.2631578947368421
 40
0.3157894736842105
 40
0.3157894736842105
 40
0.3157894736842105
 40
0.3157894736842105
 40
0.3684210526315789
 40
0.3684210526315789
 40
0.3684210526315789
 40
0.3684210526315789
 40
0.4210526315789473
 40
0.4210526315789473
 40
0.4210526315789473
 40
0.4210526315789473
 40
0.4736842105263158
 40
0.4736842105263158
 40
0.4736842105263158
 40
0.4736842105263158
 40
0.5263157894736842
 40
0.5263157894736842
 40
0.5263157894736842
 40
0.5263157894736842
 40
0.5789473684210527
 40
0.5789473684210527
 40
0.5789473684210527
 40
0.5789473684210527
 40
0.631578947368421
 40
0.631578947368421
 40
0.631578947368421
 40
0.631578947368421
 40
0.6842105263157895
 40
0.6842105263157895
 40
0.6842105263157895
 40
0.6842105263157895
 40
0.7368421052631579
 40
0.7368421052631579
 40
0.7368421052631579
 40
0.7368421052631579
 40
0.7894736842105263
 40
0.7894736842105263
 40
0.7894736842105263
 40
0.7894736842105263
 40
0.8421052631578947
 40
0.8421052631578947
 40
0.8421052631578947
 40
0.8421052631578947
 40
0.8947368421052632
 40
0.8947368421052632
 40
0.8947368421052632
 40
0.8947368421052632
 40
1.0
 40
1.0
 40
1.0
 40
1.0
 10
40.1743
 20
76.1298
 30
0.0
 10
40.1743
 20
76.1298
 30
0.0
 10
40.1743
 20
74.7756
 30
0.0
 10
40.1743
 20
74.7756
 30
0.0
 10
40.1743
 20
74.7756
 30
0.0
 10
40.1743
 20
74.7756
 30
0.0
 10
41.5472
 20
74.7584
 30
0.0
 10
41.8063
 20
73.4258
 30
0.0
 10
41.8063
 20
73.4258
 30
0.0
 10
41.8063
 20
73.4258
 30
0.0
 10
41.8063
 20
71.574
 30
0.0
 10
41.8063
 20
71.574
 30
0.0
 10
41.8063
 20
71.574
 30
0.0
 10
41.8063
 20
71.574
 30
0.0
 10
41.4967
 20
70.4318
 30
0.0
 10
40.5641
 20
70.328
 30
0.0
 10
40.5641
 20
70.328
 30
0.0
 10
40.5641
 20
70.328
 30
0.0
 10
40.5641
 20
69.4282
 30
0.0
 10
40.5641
 20
69.4282
 30
0.0
 10
40.5641
 20
69.4282
 30
0.0
 10
40.5641
 20
69.4282
 30
0.0
 10
40.0113
 20
68.286
 30
0.0
 10
39.3895
 20
69.2898
 30
0.0
 10
39.3895
 20
69.2898
 30
0.0
 10
39.3895
 20
69.2898
 30
0.0
 10
39.3895
 20
70.1897
 30
0.0
 10
39.3895
 20
70.1897
 30
0.0
 10
39.3895
 20
70.1897
 30
0.0
 10
39.3895
 20
70.1897
 30
0.0
 10
38.906
 20
70.2244
 30
0.0
 10
38.906
 20
70.2244
 30
0.0
 10
38.906
 20
70.2244
 30
0.0
 10
38.906
 20
70.2244
 30
0.0
 10
38.906
 20
69.2898
 30
0.0
 10
38.906
 20
69.2898
 30
0.0
 10
38.906
 20
69.2898
 30
0.0
 10
38.906
 20
69.2898
 30
0.0
 10
38.3878
 20
68.0438
 30
0.0
 10
37.697
 20
69.2551
 30
0.0
 10
37.697
 20
69.2551
 30
0.0
 10
37.697
 20
69.2551
 30
0.0
 10
37.697
 20
70.1897
 30
0.0
 10
37.697
 20
70.1897
 30
0.0
 10
37.697
 20
70.1897
 30
0.0
 10
37.697
 20
70.1897
 30
0.0
 10
37.1788
 20
70.1897
 30
0.0
 10
37.1788
 20
70.1897
 30
0.0
 10
37.1788
 20
70.1897
 30
0.0
 10
37.1788
 20
70.1897
 30
0.0
 10
37.1788
 20
69.2898
 30
0.0
 10
37.1788
 20
69.2898
 30
0.0
 10
37.1788
 20
69.2898
 30
0.0
 10
37.1788
 20
69.2898
 30
0.0
 10
36.6951
 20
68.113
 30
0.0
 10
35.9697
 20
69.2898
 30
0.0
 10
35.9697
 20
69.2898
 30
0.0
 10
35.9697
 20
69.2898
 30
0.0
 10
35.9697
 20
70.3626
 30
0.0
 10
35.9697
 20
70.3626
 30
0.0
 10
35.9697
 20
70.3626
 30
0.0
 10
35.9697
 20
70.3626
 30
0.0
 10
35.1754
 20
70.5358
 30
0.0
 10
34.8989
 20
71.574
 30
0.0
 10
34.8989
 20
71.574
 30
0.0
 10
34.8989
 20
71.574
 30
0.0
 10
34.8989
 20
73.3392
 30
0.0
 10
34.8989
 20
73.3392
 30
0.0
 10
34.8989
 20
73.3392
 30
0.0
 10
34.8989
 20
73.3392
 30
0.0
 10
35.0716
 20
74.7582
 30
0.0
 10
36.4879
 20
74.7582
 30
0.0
  0
SPLINE
  5
8B
330
1F
100
AcDbEntity
  8
layer 1
 62
   250
370
    20
100
AcDbSpline
210
0.0
220
0.0
230
1.0
 70
    11
 71
     3
 72
    20
 73
    16
 74
     0
 42
0.0000000001
 43
0.0000000001
 40
0.0
 40
0.0
 40
0.0
 40
0.0
 40
0.2
 40
0.2
 40
0.2
 40
0.2
 40
0.4
 40
0.4
 40
0.4
 40
0.4
 40
0.6
 40
0.6
 40
0.6
 40
0.6
 40
1.0
 40
1.0
 40
1.0
 40
1.0
 10
66.7348
 20
85.2117
 30
0.0
 10
66.7348
 20
85.2117
 30
0.0
 10
65.2495
 20
85.199
 30
0.0
 10
65.2495
 20
85.199
 30
0.0
 10
65.2495
 20
85.199
 30
0.0
 10
65.2495
 20
85.199
 30
0.0
 10
65.2777
 20
81.9111
 30
0.0
 10
65.2777
 20
81.9111
 30
0.0
 10
65.2777
 20
81.9111
 30
0.0
 10
65.2777
 20
81.9111
 30
0.0
 10
68.041
 20
81.9348
 30
0.0
 10
68.041
 20
81.9348
 30
0.0
 10
68.041
 20
81.9348
 30
0.0
 10
68.041
 20
81.9348
 30
0.0
 10
66.7348
 20
85.2117
 30
0.0
 10
66.7348
 20
85.2117
 30
0.0
  0
SPLINE
  5
8C
330
1F
100
AcDbEntity
  8
layer 1
 62
   250
370
    20
100
AcDbSpline
210
0.0
220
0.0
230
1.0
 70
     8
 71
     3
 72
    12
 73
     8
 74
     0
 42
0.0000000001
 43
0.0000000001
 40
0.0
 40
0.0
 40
0.0
 40
0.0
 40
0.3333333333333333
 40
0.3333333333333333
 40
0.3333333333333333
 40
0.3333333333333333
 40
1.0
 40
1.0
 40
1.0
 40
1.0
 10
67.4895
 20
85.228
 30
0.0
 10
67.4895
 20
85.228
 30
0.0
 10
68.8712
 20
85.228
 30
0.0
 10
68.8712
 20
85.228
 30
0.0
 10
68.8712
 20
85.228
 30
0.0
 10
68.8712
 20
85.228
 30
0.0
 10
70.5128
 20
81.9566
 30
0.0
 10
70.5128
 20
81.9566
 30
0.0
  0
SPLINE
  5
8D
330
1F
100
AcDbEntity
  8
layer 1
 62
   250
370
    20
100
AcDbSpline
210
0.0
220
0.0
230
1.0
 70
     8
 71
     3
 72
    12
 73
     8
 74
     0
 42
0.0000000001
 43
0.0000000001
 40
0.0
 40
0.0
 40
0.0
 40
0.0
 40
0.3333333333333333
 40
0.3333333333333333
 40
0.3333333333333333
 40
0.3333333333333333
 40
1.0
 40
1.0
 40
1.0
 40
1.0
 10
70.5128
 20
82.0001
 30
0.0
 10
70.5128
 20
82.0001
 30
0.0
 10
68.7503
 20
82.0001
 30
0.0
 10
68.7503
 20
82.0001
 30
0.0
 10
68.7503
 20
82.0001
 30
0.0
 10
68.7503
 20
82.0001
 30
0.0
 10
67.4895
 20
85.3055
 30
0.0
 10
67.4895
 20
85.3055
 30
0.0
  0
SPLINE
  5
8E
330
1F
100
AcDbEntity
  8
layer 1
 62
   250
370
    20
100
AcDbSpline
210
0.0
220
0.0
230
1.0
 70
    11
 71
     3
 72
    20
 73
    16
 74
     0
 42
0.0000000001
 43
0.0000000001
 40
0.0
 40
0.0
 40
0.0
 40
0.0
 40
0.2
 40
0.2
 40
0.2
 40
0.2
 40
0.4
 40
0.4
 40
0.4
 40
0.4
 40
0.6
 40
0.6
 40
0.6
 40
0.6
 40
1.0
 40
1.0
 40
1.0
 40
1.0
 10
69.5793
 20
85.2627
 30
0.0
 10
69.5793
 20
85.2627
 30
0.0
 10
71.139
 20
82.0384
 30
0.0
 10
71.139
 20
82.0384
 30
0.0
 10
71.139
 20
82.0384
 30
0.0
 10
71.139
 20
82.0384
 30
0.0
 10
72.9129
 20
82.1478
 30
0.0
 10
73.6209
 20
83.3073
 30
0.0
 10
73.6209
 20
83.3073
 30
0.0
 10
73.6209
 20
83.3073
 30
0.0
 10
70.6472
 20
86.5406
 30
0.0
 10
70.6472
 20
86.5406
 30
0.0
 10
70.6472
 20
86.5406
 30
0.0
 10
70.6472
 20
86.5406
 30
0.0
 10
70.5638
 20
85.5916
 30
0.0
 10
69.5793
 20
85.2627
 30
0.0
  0
SPLINE
  5
8F
330
1F
100
AcDbEntity
  8
layer 1
 62
   250
370
    20
100
AcDbSpline
210
0.0
220
0.0
230
1.0
 70
     8
 71
     3
 72
    24
 73
    20
 74
     0
 42
0.0000000001
 43
0.0000000001
 40
0.0
 40
0.0
 40
0.0
 40
0.0
 40
0.1666666666666667
 40
0.1666666666666667
 40
0.1666666666666667
 40
0.1666666666666667
 40
0.3333333333333333
 40
0.3333333333333333
 40
0.3333333333333333
 40
0.3333333333333333
 40
0.5
 40
0.5
 40
0.5
 40
0.5
 40
0.6666666666666666
 40
0.6666666666666666
 40
0.6666666666666666
 40
0.6666666666666666
 40
1.0
 40
1.0
 40
1.0
 40
1.0
 10
70.7193
 20
88.3604
 30
0.0
 10
70.7193
 20
88.3604
 30
0.0
 10
70.7193
 20
87.4951
 30
0.0
 10
70.7193
 20
87.4951
 30
0.0
 10
70.7193
 20
87.4951
 30
0.0
 10
70.7193
 20
87.4951
 30
0.0
 10
73.9525
 20
83.8296
 30
0.0
 10
73.9525
 20
83.8296
 30
0.0
 10
73.9525
 20
83.8296
 30
0.0
 10
73.9525
 20
83.8296
 30
0.0
 10
74.3463
 20
84.2243
 30
0.0
 10
74.329
 20
84.9513
 30
0.0
 10
74.329
 20
84.9513
 30
0.0
 10
74.3116
 20
85.6782
 30
0.0
 10
74.329
 20
87.27
 30
0.0
 10
74.329
 20
87.27
 30
0.0
 10
74.329
 20
87.27
 30
0.0
 10
74.329
 20
87.27
 30
0.0
 10
70.6885
 20
88.2454
 30
0.0
 10
70.6885
 20
88.2454
 30
0.0
  0
SPLINE
  5
90
330
1F
100
AcDbEntity
  8
layer 1
 62
   250
370
    20
100
AcDbSpline
210
0.0
220
0.0
230
1.0
 70
    11
 71
     3
 72
    20
 73
    16
 74
     0
 42
0.0000000001
 43
0.0000000001
 40
0.0
 40
0.0
 40
0.0
 40
0.0
 40
0.2
 40
0.2
 40
0.2
 40
0.2
 40
0.4
 40
0.4
 40
0.4
 40
0.4
 40
0.6
 40
0.6
 40
0.6
 40
0.6
 40
1.0
 40
1.0
 40
1.0
 40
1.0
 10
70.6502
 20
90.2988
 30
0.0
 10
70.6502
 20
90.2988
 30
0.0
 10
70.6502
 20
88.9835
 30
0.0
 10
70.6502
 20
88.9835
 30
0.0
 10
70.6502
 20
88.9835
 30
0.0
 10
70.6502
 20
88.9835
 30
0.0
 10
74.3669
 20
87.9876
 30
0.0
 10
74.3669
 20
87.9876
 30
0.0
 10
74.3669
 20
87.9876
 30
0.0
 10
74.3669
 20
87.9876
 30
0.0
 10
74.3669
 20
90.1428
 30
0.0
 10
74.3669
 20
90.1428
 30
0.0
 10
74.3669
 20
90.1428
 30
0.0
 10
74.3669
 20
90.1428
 30
0.0
 10
70.6502
 20
90.2988
 30
0.0
 10
70.6502
 20
90.2988
 30
0.0
  0
SPLINE
  5
91
330
1F
100
AcDbEntity
  8
layer 1
 62
   250
370
    20
100
AcDbSpline
210
0.0
220
0.0
230
1.0
 70
    11
 71
     3
 72
    76
 73
    72
 74
     0
 42
0.0000000001
 43
0.0000000001
 40
0.0
 40
0.0
 40
0.0
 40
0.0
 40
0.0526315789473684
 40
0.0526315789473684
 40
0.0526315789473684
 40
0.0526315789473684
 40
0.1052631578947368
 40
0.1052631578947368
 40
0.1052631578947368
 40
0.1052631578947368
 40
0.1578947368421053
 40
0.1578947368421053
 40
0.1578947368421053
 40
0.1578947368421053
 40
0.2105263157894737
 40
0.2105263157894737
 40
0.2105263157894737
 40
0.2105263157894737
 40
0.2631578947368421
 40
0.2631578947368421
 40
0.2631578947368421
 40
0.2631578947368421
 40
0.3157894736842105
 40
0.3157894736842105
 40
0.3157894736842105
 40
0.3157894736842105
 40
0.3684210526315789
 40
0.3684210526315789
 40
0.3684210526315789
 40
0.3684210526315789
 40
0.4210526315789473
 40
0.4210526315789473
 40
0.4210526315789473
 40
0.4210526315789473
 40
0.4736842105263158
 40
0.4736842105263158
 40
0.4736842105263158
 40
0.4736842105263158
 40
0.5263157894736842
 40
0.5263157894736842
 40
0.5263157894736842
 40
0.5263157894736842
 40
0.5789473684210527
 40
0.5789473684210527
 40
0.5789473684210527
 40
0.5789473684210527
 40
0.631578947368421
 40
0.631578947368421
 40
0.631578947368421
 40
0.631578947368421
 40
0.6842105263157895
 40
0.6842105263157895
 40
0.6842105263157895
 40
0.6842105263157895
 40
0.7368421052631579
 40
0.7368421052631579
 40
0.7368421052631579
 40
0.7368421052631579
 40
0.7894736842105263
 40
0.7894736842105263
 40
0.7894736842105263
 40
0.7894736842105263
 40
0.8421052631578947
 40
0.8421052631578947
 40
0.8421052631578947
 40
0.8421052631578947
 40
0.8947368421052632
 40
0.8947368421052632
 40
0.8947368421052632
 40
0.8947368421052632
 40
1.0
 40
1.0
 40
1.0
 40
1.0
 10
70.6329
 20
90.939
 30
0.0
 10
70.6329
 20
90.939
 30
0.0
 10
70.6329
 20
92.2023
 30
0.0
 10
70.6329
 20
92.2023
 30
0.0
 10
70.6329
 20
92.2023
 30
0.0
 10
70.6329
 20
92.2023
 30
0.0
 10
69.4413
 20
92.2715
 30
0.0
 10
69.0439
 20
93.4656
 30
0.0
 10
69.0439
 20
93.4656
 30
0.0
 10
69.0439
 20
93.4656
 30
0.0
 10
69.0439
 20
95.2479
 30
0.0
 10
69.0439
 20
95.2479
 30
0.0
 10
69.0439
 20
95.2479
 30
0.0
 10
69.0439
 20
95.2479
 30
0.0
 10
69.1649
 20
96.3901
 30
0.0
 10
70.4428
 20
96.5804
 30
0.0
 10
70.4428
 20
96.5804
 30
0.0
 10
70.4428
 20
96.5804
 30
0.0
 10
70.4428
 20
98.9687
 30
0.0
 10
70.4428
 20
98.9687
 30
0.0
 10
70.4428
 20
98.9687
 30
0.0
 10
70.4428
 20
98.9687
 30
0.0
 10
70.5466
 20
99.5049
 30
0.0
 10
71.1165
 20
99.4358
 30
0.0
 10
71.1165
 20
99.4358
 30
0.0
 10
71.1165
 20
99.4358
 30
0.0
 10
71.5481
 20
99.4707
 30
0.0
 10
71.7382
 20
99.0034
 30
0.0
 10
71.7382
 20
99.0034
 30
0.0
 10
71.7382
 20
99.0034
 30
0.0
 10
71.7382
 20
96.6499
 30
0.0
 10
71.7382
 20
96.6499
 30
0.0
 10
71.7382
 20
96.6499
 30
0.0
 10
71.7382
 20
96.6499
 30
0.0
 10
72.0492
 20
96.6499
 30
0.0
 10
72.0492
 20
96.6499
 30
0.0
 10
72.0492
 20
96.6499
 30
0.0
 10
72.0492
 20
96.6499
 30
0.0
 10
71.9282
 20
97.5149
 30
0.0
 10
72.6191
 20
97.4457
 30
0.0
 10
72.6191
 20
97.4457
 30
0.0
 10
72.6191
 20
97.4457
 30
0.0
 10
73.3273
 20
97.6534
 30
0.0
 10
73.2582
 20
96.5286
 30
0.0
 10
73.2582
 20
96.5286
 30
0.0
 10
73.2582
 20
96.5286
 30
0.0
 10
73.6381
 20
96.5286
 30
0.0
 10
73.6381
 20
96.5286
 30
0.0
 10
73.6381
 20
96.5286
 30
0.0
 10
73.6381
 20
96.5286
 30
0.0
 10
74.0527
 20
97.6361
 30
0.0
 10
74.7262
 20
96.494
 30
0.0
 10
74.7262
 20
96.494
 30
0.0
 10
74.7262
 20
96.494
 30
0.0
 10
75.5205
 20
96.5978
 30
0.0
 10
75.9353
 20
95.4037
 30
0.0
 10
75.9353
 20
95.4037
 30
0.0
 10
75.9353
 20
95.4037
 30
0.0
 10
75.9353
 20
93.5003
 30
0.0
 10
75.9353
 20
93.5003
 30
0.0
 10
75.9353
 20
93.5003
 30
0.0
 10
75.9353
 20
93.5003
 30
0.0
 10
75.6245
 20
92.2715
 30
0.0
 10
74.3463
 20
92.2023
 30
0.0
 10
74.3463
 20
92.2023
 30
0.0
 10
74.3463
 20
92.2023
 30
0.0
 10
74.3463
 20
90.7314
 30
0.0
 10
74.3463
 20
90.7314
 30
0.0
 10
74.3463
 20
90.7314
 30
0.0
 10
74.3463
 20
90.7314
 30
0.0
 10
70.6329
 20
90.939
 30
0.0
 10
70.6329
 20
90.939
 30
0.0
  0
ELLIPSE
  5
92
330
1F
100
AcDbEntity
  8
layer 1
 62
   114
370
    20
100
AcDbEllipse
 10
-64.5834
 20
76.7328
 30
0.0
 11
0.0
 21
1.7012
 31
0.0
210
0.0
220
0.0
230
1.0
 40
1.0
 41
0.0
 42
6.283185307179586
  0
ELLIPSE
  5
93
330
1F
100
AcDbEntity
  8
layer 1
 62
   114
370
    20
100
AcDbEllipse
 10
-56.6462
 20
76.7861
 30
0.0
 11
0.0
 21
1.7012
 31
0.0
210
0.0
220
0.0
230
1.0
 40
1.0
 41
0.0
 42
6.283185307179586
  0
ELLIPSE
  5
94
330
1F
100
AcDbEntity
  8
layer 1
 62
   250
370
    20
100
AcDbEllipse
 10
55.3295
 20
75.4974
 30
0.0
 11
0.0
 21
6.805
 31
0.0
210
0.0
220
0.0
230
1.0
 40
1.0
 41
0.0
 42
6.283185307179586
  0
ELLIPSE
  5
95
330
1F
100
AcDbEntity
  8
layer 1
 62
   114
370
    20
100
AcDbEllipse
 10
55.3295
 20
75.4974
 30
0.0
 11
0.0
 21
3.4025
 31
0.0
210
0.0
220
0.0
230
1.0
 40
1.0
 41
0.0
 42
6.283185307179586
  0
ELLIPSE
  5
96
330
1F
100
AcDbEntity
  8
layer 1
 62
   250
370
    20
100
AcDbEllipse
 10
52.4025
 20
101.2344
 30
0.0
 11
0.0
 21
1.2759
 31
0.0
210
0.0
220
0.0
230
1.0
 40
1.0
 41
0.0
 42
6.283185307179586
  0
ELLIPSE
  5
97
330
1F
100
AcDbEntity
  8
layer 1
 62
   250
370
    20
100
AcDbEllipse
 10
58.1819
 20
101.1573
 30
0.0
 11
0.0
 21
1.2759
 31
0.0
210
0.0
220
0.0
230
1.0
 40
1.0
 41
0.0
 42
6.283185307179586
  0
ENDSEC
  0
SECTION
  2
OBJECTS
  0
DICTIONARY
  5
C
330
0
100
AcDbDictionary
281
     1
  3
ACAD_GROUP
350
D
  3
ACAD_LAYOUT
350
1A
  3
ACAD_MATERIAL
350
3B
  3
ACAD_MLEADERSTYLE
350
9A
  3
ACAD_MLINESTYLE
350
17
  3
ACAD_PLOTSETTINGS
350
19
  3
ACAD_PLOTSTYLENAME
350
E
  3
ACAD_VISUALSTYLE
350
2A
  3
AcDbVariableDictionary
350
98
  0
DICTIONARY
  5
D
102
{ACAD_REACTORS
330
C
102
}
330
C
100
AcDbDictionary
281
     1
  0
DICTIONARY
  5
1A
102
{ACAD_REACTORS
330
C
102
}
330
C
100
AcDbDictionary
281
     1
  3
Layout1
350
1E
  3
Layout2
350
26
  3
Model
350
22
  0
DICTIONARY
  5
3B
102
{ACAD_REACTORS
330
C
102
}
330
C
100
AcDbDictionary
281
     1
  3
ByBlock
350
3D
  3
ByLayer
350
3C
  3
Global
350
3E
  0
DICTIONARY
  5
9A
102
{ACAD_REACTORS
330
C
102
}
330
C
100
AcDbDictionary
281
     1
  0
DICTIONARY
  5
17
102
{ACAD_REACTORS
330
C
102
}
330
C
100
AcDbDictionary
281
     1
  3
Standard
350
18
  0
DICTIONARY
  5
19
102
{ACAD_REACTORS
330
C
102
}
330
C
100
AcDbDictionary
281
     1
  0
ACDBDICTIONARYWDFLT
  5
E
102
{ACAD_REACTORS
330
C
102
}
330
C
100
AcDbDictionary
281
     1
  3
Normal
350
F
100
AcDbDictionaryWithDefault
340
F
  0
DICTIONARY
  5
2A
102
{ACAD_REACTORS
330
C
102
}
330
C
100
AcDbDictionary
281
     1
  3
2dWireframe
350
2F
  3
3D Hidden
350
31
  3
3dWireframe
350
30
  3
Basic
350
32
  3
Brighten
350
36
  3
ColorChange
350
3A
  3
Conceptual
350
34
  3
Dim
350
35
  3
Facepattern
350
39
  3
Flat
350
2B
  3
FlatWithEdges
350
2C
  3
Gouraud
350
2D
  3
GouraudWithEdges
350
2E
  3
Linepattern
350
38
  3
Realistic
350
33
  3
Thicken
350
37
  0
DICTIONARY
  5
98
102
{ACAD_REACTORS
330
C
102
}
330
C
100
AcDbDictionary
281
     1
  3
DIMASSOC
350
9B
  3
HIDETEXT
350
9C
  0
LAYOUT
  5
1E
102
{ACAD_REACTORS
330
1A
102
}
330
1A
100
AcDbPlotSettings
  1

  2
none_device
  4

  6

 40
0.0
 41
0.0
 42
0.0
 43
0.0
 44
0.0
 45
0.0
 46
0.0
 47
0.0
 48
0.0
 49
0.0
140
0.0
141
0.0
142
1.0
143
1.0
 70
   688
 72
     0
 73
     0
 74
     5
  7

 75
    16
147
1.0
148
0.0
149
0.0
100
AcDbLayout
  1
Layout1
 70
     1
 71
     1
 10
0.0
 20
0.0
 11
12.0
 21
9.0
 12
0.0
 22
0.0
 32
0.0
 14
1.000000000000000E+20
 24
1.000000000000000E+20
 34
1.000000000000000E+20
 15
-1.000000000000000E+20
 25
-1.000000000000000E+20
 35
-1.000000000000000E+20
146
0.0
 13
0.0
 23
0.0
 33
0.0
 16
1.0
 26
0.0
 36
0.0
 17
0.0
 27
1.0
 37
0.0
 76
     0
330
1B
  0
LAYOUT
  5
26
102
{ACAD_REACTORS
330
1A
102
}
330
1A
100
AcDbPlotSettings
  1

  2
none_device
  4

  6

 40
0.0
 41
0.0
 42
0.0
 43
0.0
 44
0.0
 45
0.0
 46
0.0
 47
0.0
 48
0.0
 49
0.0
140
0.0
141
0.0
142
1.0
143
1.0
 70
   688
 72
     0
 73
     0
 74
     5
  7

 75
    16
147
1.0
148
0.0
149
0.0
100
AcDbLayout
  1
Layout2
 70
     1
 71
     2
 10
0.0
 20
0.0
 11
0.0
 21
0.0
 12
0.0
 22
0.0
 32
0.0
 14
0.0
 24
0.0
 34
0.0
 15
0.0
 25
0.0
 35
0.0
146
0.0
 13
0.0
 23
0.0
 33
0.0
 16
1.0
 26
0.0
 36
0.0
 17
0.0
 27
1.0
 37
0.0
 76
     0
330
23
  0
LAYOUT
  5
22
102
{ACAD_REACTORS
330
1A
102
}
330
1A
100
AcDbPlotSettings
  1

  2
none_device
  4

  6

 40
0.0
 41
0.0
 42
0.0
 43
0.0
 44
0.0
 45
0.0
 46
0.0
 47
0.0
 48
0.0
 49
0.0
140
0.0
141
0.0
142
1.0
143
1.0
 70
  1712
 72
     0
 73
     0
 74
     0
  7

 75
     0
147
1.0
148
0.0
149
0.0
100
AcDbLayout
  1
Model
 70
     1
 71
     0
 10
0.0
 20
0.0
 11
12.0
 21
9.0
 12
0.0
 22
0.0
 32
0.0
 14
-74.1647
 24
51.2285
 34
0.0
 15
76.0353
 25
132.1499
 35
0.0
146
0.0
 13
0.0
 23
0.0
 33
0.0
 16
1.0
 26
0.0
 36
0.0
 17
0.0
 27
1.0
 37
0.0
 76
     0
330
1F
331
29
  0
MATERIAL
  5
3D
102
{ACAD_REACTORS
330
3B
102
}
102
{ACAD_XDICTIONARY
360
BF
102
}
330
3B
100
AcDbMaterial
  1
ByBlock
  0
MATERIAL
  5
3C
102
{ACAD_REACTORS
330
3B
102
}
102
{ACAD_XDICTIONARY
360
BD
102
}
330
3B
100
AcDbMaterial
  1
ByLayer
  0
MATERIAL
  5
3E
102
{ACAD_REACTORS
330
3B
102
}
102
{ACAD_XDICTIONARY
360
C1
102
}
330
3B
100
AcDbMaterial
  1
Global
  0
MLINESTYLE
  5
18
102
{ACAD_REACTORS
330
17
102
}
330
17
100
AcDbMlineStyle
  2
Standard
 70
     0
  3

 62
   256
 51
90.0
 52
90.0
 71
     2
 49
0.5
 62
   256
  6
BYLAYER
 49
-0.5
 62
   256
  6
BYLAYER
  0
ACDBPLACEHOLDER
  5
F
102
{ACAD_REACTORS
330
E
102
}
330
E
  0
VISUALSTYLE
  5
2F
102
{ACAD_REACTORS
330
2A
102
}
102
{ACAD_XDICTIONARY
360
A5
102
}
330
2A
100
AcDbVisualStyle
  2
2dWireframe
 70
     4
 71
     0
 72
     2
 73
     0
 90
        0
 40
-0.6
 41
-30.0
 62
     5
 63
     7
 74
     1
 91
        4
 64
     7
 65
   257
 75
     1
175
     1
 42
1.0
 92
        0
 66
   257
 43
1.0
 76
     1
 77
     6
 78
     2
 67
     7
 79
     5
170
     0
171
     0
290
     0
174
     0
 93
        1
 44
0.0
173
     0
291
     0
 45
0.0
1001
ACAD
1000
AcDbSavedByObjectVersion
1070
     0
  0
VISUALSTYLE
  5
31
102
{ACAD_REACTORS
330
2A
102
}
102
{ACAD_XDICTIONARY
360
A9
102
}
330
2A
100
AcDbVisualStyle
  2
3D Hidden
 70
     6
 71
     1
 72
     2
 73
     2
 90
        0
 40
-0.6
 41
-30.0
 62
     5
 63
     7
 74
     2
 91
        2
 64
     7
 65
   257
 75
     2
175
     1
 42
40.0
 92
        0
 66
   257
 43
1.0
 76
     1
 77
     6
 78
     2
 67
     7
 79
     3
170
     0
171
     0
290
     0
174
     0
 93
        1
 44
0.0
173
     0
291
     0
 45
0.0
1001
ACAD
1000
AcDbSavedByObjectVersion
1070
     0
  0
VISUALSTYLE
  5
30
102
{ACAD_REACTORS
330
2A
102
}
102
{ACAD_XDICTIONARY
360
A7
102
}
330
2A
100
AcDbVisualStyle
  2
3dWireframe
 70
     5
 71
     0
 72
     2
 73
     0
 90
        0
 40
-0.6
 41
-30.0
 62
     5
 63
     7
 74
     1
 91
        4
 64
     7
 65
   257
 75
     1
175
     1
 42
1.0
 92
        0
 66
   257
 43
1.0
 76
     1
 77
     6
 78
     2
 67
     7
 79
     5
170
     0
171
     0
290
     0
174
     0
 93
        1
 44
0.0
173
     0
291
     0
 45
0.0
1001
ACAD
1000
AcDbSavedByObjectVersion
1070
     0
  0
VISUALSTYLE
  5
32
102
{ACAD_REACTORS
330
2A
102
}
102
{ACAD_XDICTIONARY
360
AB
102
}
330
2A
100
AcDbVisualStyle
  2
Basic
 70
     7
 71
     1
 72
     0
 73
     1
 90
        0
 40
-0.6
 41
-30.0
 62
     5
 63
     7
 74
     0
 91
        4
 64
     7
 65
   257
 75
     1
175
     1
 42
1.0
 92
        8
 66
     7
 43
1.0
 76
     1
 77
     6
 78
     2
 67
     7
 79
     5
170
     0
171
     0
290
     0
174
     0
 93
        1
 44
0.0
173
     0
291
     1
 45
0.0
1001
ACAD
1000
AcDbSavedByObjectVersion
1070
     0
  0
VISUALSTYLE
  5
36
102
{ACAD_REACTORS
330
2A
102
}
102
{ACAD_XDICTIONARY
360
B3
102
}
330
2A
100
AcDbVisualStyle
  2
Brighten
 70
    12
 71
     2
 72
     2
 73
     0
 90
        0
 40
-0.6
 41
-30.0
 62
     5
 63
     7
 74
     1
 91
        4
 64
     7
 65
   257
 75
     1
175
     1
 42
1.0
 92
        8
 66
     7
 43
1.0
 76
     1
 77
     6
 78
     2
 67
     7
 79
     5
170
     0
171
     0
290
     0
174
     0
 93
        1
 44
50.0
173
     0
291
     1
 45
0.0
1001
ACAD
1000
AcDbSavedByObjectVersion
1070
     0
  0
VISUALSTYLE
  5
3A
102
{ACAD_REACTORS
330
2A
102
}
102
{ACAD_XDICTIONARY
360
BB
102
}
330
2A
100
AcDbVisualStyle
  2
ColorChange
 70
    16
 71
     2
 72
     2
 73
     3
 90
        0
 40
-0.6
 41
-30.0
 62
     5
 63
     8
 74
     1
 91
        4
 64
     7
 65
   257
 75
     1
175
     1
 42
1.0
 92
        8
 66
     8
 43
1.0
 76
     1
 77
     6
 78
     2
 67
     7
 79
     5
170
     0
171
     0
290
     0
174
     0
 93
        1
 44
0.0
173
     0
291
     1
 45
0.0
1001
ACAD
1000
AcDbSavedByObjectVersion
1070
     0
  0
VISUALSTYLE
  5
34
102
{ACAD_REACTORS
330
2A
102
}
102
{ACAD_XDICTIONARY
360
AF
102
}
330
2A
100
AcDbVisualStyle
  2
Conceptual
 70
     9
 71
     3
 72
     2
 73
     0
 90
        0
 40
-0.6
 41
-30.0
 62
     5
 63
     7
 74
     2
 91
        2
 64
     7
 65
   257
 75
     1
175
     1
 42
40.0
 92
        8
 66
     7
 43
1.0
 76
     1
 77
     6
 78
     2
 67
     7
 79
     3
170
     0
171
     0
290
     0
174
     0
 93
        1
 44
0.0
173
     0
291
     0
 45
0.0
1001
ACAD
1000
AcDbSavedByObjectVersion
1070
     0
  0
VISUALSTYLE
  5
35
102
{ACAD_REACTORS
330
2A
102
}
102
{ACAD_XDICTIONARY
360
B1
102
}
330
2A
100
AcDbVisualStyle
  2
Dim
 70
    11
 71
     2
 72
     2
 73
     0
 90
        0
 40
-0.6
 41
-30.0
 62
     5
 63
     7
 74
     1
 91
        4
 64
     7
 65
   257
 75
     1
175
     1
 42
1.0
 92
        8
 66
     7
 43
1.0
 76
     1
 77
     6
 78
     2
 67
     7
 79
     5
170
     0
171
     0
290
     0
174
     0
 93
        1
 44
-50.0
173
     0
291
     1
 45
0.0
1001
ACAD
1000
AcDbSavedByObjectVersion
1070
     0
  0
VISUALSTYLE
  5
39
102
{ACAD_REACTORS
330
2A
102
}
102
{ACAD_XDICTIONARY
360
B9
102
}
330
2A
100
AcDbVisualStyle
  2
Facepattern
 70
    15
 71
     2
 72
     2
 73
     0
 90
        0
 40
-0.6
 41
-30.0
 62
     5
 63
     7
 74
     1
 91
        4
 64
     7
 65
   257
 75
     1
175
     1
 42
1.0
 92
        8
 66
     7
 43
1.0
 76
     1
 77
     6
 78
     2
 67
     7
 79
     5
170
     0
171
     0
290
     0
174
     0
 93
        1
 44
0.0
173
     0
291
     1
 45
0.0
1001
ACAD
1000
AcDbSavedByObjectVersion
1070
     0
  0
VISUALSTYLE
  5
2B
102
{ACAD_REACTORS
330
2A
102
}
102
{ACAD_XDICTIONARY
360
9D
102
}
330
2A
100
AcDbVisualStyle
  2
Flat
 70
     0
 71
     2
 72
     1
 73
     1
 90
        2
 40
-0.6
 41
30.0
 62
     5
 63
     7
 74
     0
 91
        4
 64
     7
 65
   257
 75
     1
175
     1
 42
1.0
 92
        8
 66
     7
 43
1.0
 76
     1
 77
     6
 78
     2
 67
     7
 79
     5
170
     0
171
     0
290
     0
174
     0
 93
       13
 44
0.0
173
     0
291
     1
 45
0.0
1001
ACAD
1000
AcDbSavedByObjectVersion
1070
     0
  0
VISUALSTYLE
  5
2C
102
{ACAD_REACTORS
330
2A
102
}
102
{ACAD_XDICTIONARY
360
9F
102
}
330
2A
100
AcDbVisualStyle
  2
FlatWithEdges
 70
     1
 71
     2
 72
     1
 73
     1
 90
        2
 40
-0.6
 41
30.0
 62
     5
 63
     7
 74
     1
 91
        4
 64
     7
 65
   257
 75
     1
175
     1
 42
1.0
 92
        0
 66
   257
 43
1.0
 76
     1
 77
     6
 78
     2
 67
     7
 79
     5
170
     0
171
     0
290
     0
174
     0
 93
       13
 44
0.0
173
     0
291
     1
 45
0.0
1001
ACAD
1000
AcDbSavedByObjectVersion
1070
     0
  0
VISUALSTYLE
  5
2D
102
{ACAD_REACTORS
330
2A
102
}
102
{ACAD_XDICTIONARY
360
A1
102
}
330
2A
100
AcDbVisualStyle
  2
Gouraud
 70
     2
 71
     2
 72
     2
 73
     1
 90
        2
 40
-0.6
 41
30.0
 62
     5
 63
     7
 74
     0
 91
        4
 64
     7
 65
   257
 75
     1
175
     1
 42
1.0
 92
        0
 66
     7
 43
1.0
 76
     1
 77
     6
 78
     2
 67
     7
 79
     5
170
     0
171
     0
290
     0
174
     0
 93
       13
 44
0.0
173
     0
291
     1
 45
0.0
1001
ACAD
1000
AcDbSavedByObjectVersion
1070
     0
  0
VISUALSTYLE
  5
2E
102
{ACAD_REACTORS
330
2A
102
}
102
{ACAD_XDICTIONARY
360
A3
102
}
330
2A
100
AcDbVisualStyle
  2
GouraudWithEdges
 70
     3
 71
     2
 72
     2
 73
     1
 90
        2
 40
-0.6
 41
30.0
 62
     5
 63
     7
 74
     1
 91
        4
 64
     7
 65
   257
 75
     1
175
     1
 42
1.0
 92
        0
 66
   257
 43
1.0
 76
     1
 77
     6
 78
     2
 67
     7
 79
     5
170
     0
171
     0
290
     0
174
     0
 93
       13
 44
0.0
173
     0
291
     1
 45
0.0
1001
ACAD
1000
AcDbSavedByObjectVersion
1070
     0
  0
VISUALSTYLE
  5
38
102
{ACAD_REACTORS
330
2A
102
}
102
{ACAD_XDICTIONARY
360
B7
102
}
330
2A
100
AcDbVisualStyle
  2
Linepattern
 70
    14
 71
     2
 72
     2
 73
     0
 90
        0
 40
-0.6
 41
-30.0
 62
     5
 63
     7
 74
     1
 91
        4
 64
     7
 65
   257
 75
     7
175
     7
 42
1.0
 92
        8
 66
     7
 43
1.0
 76
     1
 77
     6
 78
     2
 67
     7
 79
     5
170
     0
171
     0
290
     0
174
     0
 93
        1
 44
0.0
173
     0
291
     1
 45
0.0
1001
ACAD
1000
AcDbSavedByObjectVersion
1070
     0
  0
VISUALSTYLE
  5
33
102
{ACAD_REACTORS
330
2A
102
}
102
{ACAD_XDICTIONARY
360
AD
102
}
330
2A
100
AcDbVisualStyle
  2
Realistic
 70
     8
 71
     2
 72
     2
 73
     0
 90
        0
 40
-0.6
 41
-30.0
 62
     5
 63
     7
 74
     1
 91
        0
 64
     7
 65
   257
 75
     1
175
     1
 42
1.0
 92
        8
 66
     8
 43
1.0
 76
     1
 77
     6
 78
     2
 67
     7
 79
     5
170
     0
171
     0
290
     0
174
     0
 93
       13
 44
0.0
173
     0
291
     0
 45
0.0
1001
ACAD
1000
AcDbSavedByObjectVersion
1070
     0
  0
VISUALSTYLE
  5
37
102
{ACAD_REACTORS
330
2A
102
}
102
{ACAD_XDICTIONARY
360
B5
102
}
330
2A
100
AcDbVisualStyle
  2
Thicken
 70
    13
 71
     2
 72
     2
 73
     0
 90
        0
 40
-0.6
 41
-30.0
 62
     5
 63
     7
 74
     1
 91
        4
 64
     7
 65
   257
 75
     1
175
     1
 42
1.0
 92
       12
 66
     7
 43
1.0
 76
     1
 77
     6
 78
     2
 67
     7
 79
     5
170
     0
171
     0
290
     0
174
     0
 93
        1
 44
0.0
173
     0
291
     1
 45
0.0
1001
ACAD
1000
AcDbSavedByObjectVersion
1070
     0
  0
DICTIONARYVAR
  5
9B
102
{ACAD_REACTORS
330
98
102
}
330
98
100
DictionaryVariables
280
     0
  1
2
  0
DICTIONARYVAR
  5
9C
102
{ACAD_REACTORS
330
98
102
}
330
98
100
DictionaryVariables
280
     0
  1
1
  0
DICTIONARY
  5
BF
330
3D
100
AcDbDictionary
280
     1
281
     1
  3
ACAD_XREC_ROUNDTRIP
360
C0
  0
DICTIONARY
  5
BD
330
3C
100
AcDbDictionary
280
     1
281
     1
  3
ACAD_XREC_ROUNDTRIP
360
BE
  0
DICTIONARY
  5
C1
330
3E
100
AcDbDictionary
280
     1
281
     1
  3
ACAD_XREC_ROUNDTRIP
360
C2
  0
DICTIONARY
  5
A5
330
2F
100
AcDbDictionary
280
     1
281
     1
  3
ACAD_XREC_ROUNDTRIP
360
A6
  0
DICTIONARY
  5
A9
330
31
100
AcDbDictionary
280
     1
281
     1
  3
ACAD_XREC_ROUNDTRIP
360
AA
  0
DICTIONARY
  5
A7
330
30
100
AcDbDictionary
280
     1
281
     1
  3
ACAD_XREC_ROUNDTRIP
360
A8
  0
DICTIONARY
  5
AB
330
32
100
AcDbDictionary
280
     1
281
     1
  3
ACAD_XREC_ROUNDTRIP
360
AC
  0
DICTIONARY
  5
B3
330
36
100
AcDbDictionary
280
     1
281
     1
  3
ACAD_XREC_ROUNDTRIP
360
B4
  0
DICTIONARY
  5
BB
330
3A
100
AcDbDictionary
280
     1
281
     1
  3
ACAD_XREC_ROUNDTRIP
360
BC
  0
DICTIONARY
  5
AF
330
34
100
AcDbDictionary
280
     1
281
     1
  3
ACAD_XREC_ROUNDTRIP
360
B0
  0
DICTIONARY
  5
B1
330
35
100
AcDbDictionary
280
     1
281
     1
  3
ACAD_XREC_ROUNDTRIP
360
B2
  0
DICTIONARY
  5
B9
330
39
100
AcDbDictionary
280
     1
281
     1
  3
ACAD_XREC_ROUNDTRIP
360
BA
  0
DICTIONARY
  5
9D
330
2B
100
AcDbDictionary
280
     1
281
     1
  3
ACAD_XREC_ROUNDTRIP
360
9E
  0
DICTIONARY
  5
9F
330
2C
100
AcDbDictionary
280
     1
281
     1
  3
ACAD_XREC_ROUNDTRIP
360
A0
  0
DICTIONARY
  5
A1
330
2D
100
AcDbDictionary
280
     1
281
     1
  3
ACAD_XREC_ROUNDTRIP
360
A2
  0
DICTIONARY
  5
A3
330
2E
100
AcDbDictionary
280
     1
281
     1
  3
ACAD_XREC_ROUNDTRIP
360
A4
  0
DICTIONARY
  5
B7
330
38
100
AcDbDictionary
280
     1
281
     1
  3
ACAD_XREC_ROUNDTRIP
360
B8
  0
DICTIONARY
  5
AD
330
33
100
AcDbDictionary
280
     1
281
     1
  3
ACAD_XREC_ROUNDTRIP
360
AE
  0
DICTIONARY
  5
B5
330
37
100
AcDbDictionary
280
     1
281
     1
  3
ACAD_XREC_ROUNDTRIP
360
B6
  0
XRECORD
  5
C0
102
{ACAD_REACTORS
330
BF
102
}
330
BF
100
AcDbXrecord
280
     1
102
MATERIAL
148
0.0
149
0.0
149
0.0
 93
        0
 94
      127
282
     0
 72
     1
 77
     1
171
     1
175
     1
179
     1
273
     0
  0
XRECORD
  5
BE
102
{ACAD_REACTORS
330
BD
102
}
330
BD
100
AcDbXrecord
280
     1
102
MATERIAL
148
0.0
149
0.0
149
0.0
 93
        0
 94
      127
282
     0
 72
     1
 77
     1
171
     1
175
     1
179
     1
273
     0
  0
XRECORD
  5
C2
102
{ACAD_REACTORS
330
C1
102
}
330
C1
100
AcDbXrecord
280
     1
102
MATERIAL
148
0.0
149
0.0
149
0.0
 93
        0
 94
      127
282
     0
 72
     1
 77
     1
171
     1
175
     1
179
     1
273
     0
  0
XRECORD
  5
A6
102
{ACAD_REACTORS
330
A5
102
}
330
A5
100
AcDbXrecord
280
     1
102
RTVSPropertyOp0
 70
     1
102
RTVSPropertyOp1
 70
     1
102
RTVSPropertyOp2
 70
     1
102
RTVSPropertyOp3
 70
     1
102
RTVSPropertyOp4
 70
     1
102
RTVSPropertyOp5
 70
     1
102
RTVSPropertyOp6
 70
     1
102
RTVSPropertyOp7
 70
     1
102
RTVSPropertyOp8
 70
     1
102
RTVSPropertyOp9
 70
     1
102
RTVSPropertyOp10
 70
     1
102
RTVSPropertyOp11
 70
     1
102
RTVSPropertyOp12
 70
     1
102
RTVSPropertyOp13
 70
     1
102
RTVSPropertyOp14
 70
     1
102
RTVSPropertyOp15
 70
     1
102
RTVSPropertyOp16
 70
     1
102
RTVSPropertyOp17
 70
     1
102
RTVSPropertyOp18
 70
     1
102
RTVSPropertyOp19
 70
     1
102
RTVSPropertyOp20
 70
     1
102
RTVSPropertyOp21
 70
     1
102
RTVSPropertyOp22
 70
     1
102
RTVSPropertyOp23
 70
     1
102
RTVSPropertyOp24
 70
     1
102
RTVSPropertyOp25
 70
     1
102
RTVSPropertyOp26
 70
     1
102
RTVSPropertyOp27
 70
     1
  0
XRECORD
  5
AA
102
{ACAD_REACTORS
330
A9
102
}
330
A9
100
AcDbXrecord
280
     1
102
RTVSPropertyOp0
 70
     1
102
RTVSPropertyOp1
 70
     1
102
RTVSPropertyOp2
 70
     1
102
RTVSPropertyOp3
 70
     1
102
RTVSPropertyOp4
 70
     1
102
RTVSPropertyOp5
 70
     1
102
RTVSPropertyOp6
 70
     1
102
RTVSPropertyOp7
 70
     1
102
RTVSPropertyOp8
 70
     1
102
RTVSPropertyOp9
 70
     1
102
RTVSPropertyOp10
 70
     1
102
RTVSPropertyOp11
 70
     1
102
RTVSPropertyOp12
 70
     1
102
RTVSPropertyOp13
 70
     1
102
RTVSPropertyOp14
 70
     1
102
RTVSPropertyOp15
 70
     1
102
RTVSPropertyOp16
 70
     1
102
RTVSPropertyOp17
 70
     1
102
RTVSPropertyOp18
 70
     1
102
RTVSPropertyOp19
 70
     1
102
RTVSPropertyOp20
 70
     1
102
RTVSPropertyOp21
 70
     1
102
RTVSPropertyOp22
 70
     1
102
RTVSPropertyOp23
 70
     1
102
RTVSPropertyOp24
 70
     1
102
RTVSPropertyOp25
 70
     1
102
RTVSPropertyOp26
 70
     1
102
RTVSPropertyOp27
 70
     1
  0
XRECORD
  5
A8
102
{ACAD_REACTORS
330
A7
102
}
330
A7
100
AcDbXrecord
280
     1
102
RTVSPropertyOp0
 70
     1
102
RTVSPropertyOp1
 70
     1
102
RTVSPropertyOp2
 70
     1
102
RTVSPropertyOp3
 70
     1
102
RTVSPropertyOp4
 70
     1
102
RTVSPropertyOp5
 70
     1
102
RTVSPropertyOp6
 70
     1
102
RTVSPropertyOp7
 70
     1
102
RTVSPropertyOp8
 70
     1
102
RTVSPropertyOp9
 70
     1
102
RTVSPropertyOp10
 70
     1
102
RTVSPropertyOp11
 70
     1
102
RTVSPropertyOp12
 70
     1
102
RTVSPropertyOp13
 70
     1
102
RTVSPropertyOp14
 70
     1
102
RTVSPropertyOp15
 70
     1
102
RTVSPropertyOp16
 70
     1
102
RTVSPropertyOp17
 70
     1
102
RTVSPropertyOp18
 70
     1
102
RTVSPropertyOp19
 70
     1
102
RTVSPropertyOp20
 70
     1
102
RTVSPropertyOp21
 70
     1
102
RTVSPropertyOp22
 70
     1
102
RTVSPropertyOp23
 70
     1
102
RTVSPropertyOp24
 70
     1
102
RTVSPropertyOp25
 70
     1
102
RTVSPropertyOp26
 70
     1
102
RTVSPropertyOp27
 70
     1
  0
XRECORD
  5
AC
102
{ACAD_REACTORS
330
AB
102
}
330
AB
100
AcDbXrecord
280
     1
102
RTVSPropertyOp0
 70
     1
102
RTVSPropertyOp1
 70
     1
102
RTVSPropertyOp2
 70
     1
102
RTVSPropertyOp3
 70
     1
102
RTVSPropertyOp4
 70
     1
102
RTVSPropertyOp5
 70
     1
102
RTVSPropertyOp6
 70
     1
102
RTVSPropertyOp7
 70
     1
102
RTVSPropertyOp8
 70
     1
102
RTVSPropertyOp9
 70
     1
102
RTVSPropertyOp10
 70
     1
102
RTVSPropertyOp11
 70
     1
102
RTVSPropertyOp12
 70
     1
102
RTVSPropertyOp13
 70
     1
102
RTVSPropertyOp14
 70
     1
102
RTVSPropertyOp15
 70
     1
102
RTVSPropertyOp16
 70
     1
102
RTVSPropertyOp17
 70
     1
102
RTVSPropertyOp18
 70
     1
102
RTVSPropertyOp19
 70
     1
102
RTVSPropertyOp20
 70
     1
102
RTVSPropertyOp21
 70
     1
102
RTVSPropertyOp22
 70
     1
102
RTVSPropertyOp23
 70
     1
102
RTVSPropertyOp24
 70
     1
102
RTVSPropertyOp25
 70
     1
102
RTVSPropertyOp26
 70
     1
102
RTVSPropertyOp27
 70
     1
  0
XRECORD
  5
B4
102
{ACAD_REACTORS
330
B3
102
}
330
B3
100
AcDbXrecord
280
     1
102
RTVSPropertyOp0
 70
     1
102
RTVSPropertyOp1
 70
     1
102
RTVSPropertyOp2
 70
     1
102
RTVSPropertyOp3
 70
     1
102
RTVSPropertyOp4
 70
     1
102
RTVSPropertyOp5
 70
     1
102
RTVSPropertyOp6
 70
     1
102
RTVSPropertyOp7
 70
     1
102
RTVSPropertyOp8
 70
     1
102
RTVSPropertyOp9
 70
     1
102
RTVSPropertyOp10
 70
     1
102
RTVSPropertyOp11
 70
     1
102
RTVSPropertyOp12
 70
     1
102
RTVSPropertyOp13
 70
     1
102
RTVSPropertyOp14
 70
     1
102
RTVSPropertyOp15
 70
     1
102
RTVSPropertyOp16
 70
     1
102
RTVSPropertyOp17
 70
     1
102
RTVSPropertyOp18
 70
     1
102
RTVSPropertyOp19
 70
     1
102
RTVSPropertyOp20
 70
     1
102
RTVSPropertyOp21
 70
     1
102
RTVSPropertyOp22
 70
     1
102
RTVSPropertyOp23
 70
     1
102
RTVSPropertyOp24
 70
     1
102
RTVSPropertyOp25
 70
     1
102
RTVSPropertyOp26
 70
     1
102
RTVSPropertyOp27
 70
     1
  0
XRECORD
  5
BC
102
{ACAD_REACTORS
330
BB
102
}
330
BB
100
AcDbXrecord
280
     1
102
RTVSPropertyOp0
 70
     1
102
RTVSPropertyOp1
 70
     1
102
RTVSPropertyOp2
 70
     1
102
RTVSPropertyOp3
 70
     1
102
RTVSPropertyOp4
 70
     1
102
RTVSPropertyOp5
 70
     1
102
RTVSPropertyOp6
 70
     1
102
RTVSPropertyOp7
 70
     1
102
RTVSPropertyOp8
 70
     1
102
RTVSPropertyOp9
 70
     1
102
RTVSPropertyOp10
 70
     1
102
RTVSPropertyOp11
 70
     1
102
RTVSPropertyOp12
 70
     1
102
RTVSPropertyOp13
 70
     1
102
RTVSPropertyOp14
 70
     1
102
RTVSPropertyOp15
 70
     1
102
RTVSPropertyOp16
 70
     1
102
RTVSPropertyOp17
 70
     1
102
RTVSPropertyOp18
 70
     1
102
RTVSPropertyOp19
 70
     1
102
RTVSPropertyOp20
 70
     1
102
RTVSPropertyOp21
 70
     1
102
RTVSPropertyOp22
 70
     1
102
RTVSPropertyOp23
 70
     1
102
RTVSPropertyOp24
 70
     1
102
RTVSPropertyOp25
 70
     1
102
RTVSPropertyOp26
 70
     1
102
RTVSPropertyOp27
 70
     1
  0
XRECORD
  5
B0
102
{ACAD_REACTORS
330
AF
102
}
330
AF
100
AcDbXrecord
280
     1
102
RTVSPropertyOp0
 70
     1
102
RTVSPropertyOp1
 70
     1
102
RTVSPropertyOp2
 70
     1
102
RTVSPropertyOp3
 70
     1
102
RTVSPropertyOp4
 70
     1
102
RTVSPropertyOp5
 70
     1
102
RTVSPropertyOp6
 70
     1
102
RTVSPropertyOp7
 70
     1
102
RTVSPropertyOp8
 70
     1
102
RTVSPropertyOp9
 70
     1
102
RTVSPropertyOp10
 70
     1
102
RTVSPropertyOp11
 70
     1
102
RTVSPropertyOp12
 70
     1
102
RTVSPropertyOp13
 70
     1
102
RTVSPropertyOp14
 70
     1
102
RTVSPropertyOp15
 70
     1
102
RTVSPropertyOp16
 70
     1
102
RTVSPropertyOp17
 70
     1
102
RTVSPropertyOp18
 70
     1
102
RTVSPropertyOp19
 70
     1
102
RTVSPropertyOp20
 70
     1
102
RTVSPropertyOp21
 70
     1
102
RTVSPropertyOp22
 70
     1
102
RTVSPropertyOp23
 70
     1
102
RTVSPropertyOp24
 70
     1
102
RTVSPropertyOp25
 70
     1
102
RTVSPropertyOp26
 70
     1
102
RTVSPropertyOp27
 70
     1
  0
XRECORD
  5
B2
102
{ACAD_REACTORS
330
B1
102
}
330
B1
100
AcDbXrecord
280
     1
102
RTVSPropertyOp0
 70
     1
102
RTVSPropertyOp1
 70
     1
102
RTVSPropertyOp2
 70
     1
102
RTVSPropertyOp3
 70
     1
102
RTVSPropertyOp4
 70
     1
102
RTVSPropertyOp5
 70
     1
102
RTVSPropertyOp6
 70
     1
102
RTVSPropertyOp7
 70
     1
102
RTVSPropertyOp8
 70
     1
102
RTVSPropertyOp9
 70
     1
102
RTVSPropertyOp10
 70
     1
102
RTVSPropertyOp11
 70
     1
102
RTVSPropertyOp12
 70
     1
102
RTVSPropertyOp13
 70
     1
102
RTVSPropertyOp14
 70
     1
102
RTVSPropertyOp15
 70
     1
102
RTVSPropertyOp16
 70
     1
102
RTVSPropertyOp17
 70
     1
102
RTVSPropertyOp18
 70
     1
102
RTVSPropertyOp19
 70
     1
102
RTVSPropertyOp20
 70
     1
102
RTVSPropertyOp21
 70
     1
102
RTVSPropertyOp22
 70
     1
102
RTVSPropertyOp23
 70
     1
102
RTVSPropertyOp24
 70
     1
102
RTVSPropertyOp25
 70
     1
102
RTVSPropertyOp26
 70
     1
102
RTVSPropertyOp27
 70
     1
  0
XRECORD
  5
BA
102
{ACAD_REACTORS
330
B9
102
}
330
B9
100
AcDbXrecord
280
     1
102
RTVSPropertyOp0
 70
     1
102
RTVSPropertyOp1
 70
     1
102
RTVSPropertyOp2
 70
     1
102
RTVSPropertyOp3
 70
     1
102
RTVSPropertyOp4
 70
     1
102
RTVSPropertyOp5
 70
     1
102
RTVSPropertyOp6
 70
     1
102
RTVSPropertyOp7
 70
     1
102
RTVSPropertyOp8
 70
     1
102
RTVSPropertyOp9
 70
     1
102
RTVSPropertyOp10
 70
     1
102
RTVSPropertyOp11
 70
     1
102
RTVSPropertyOp12
 70
     1
102
RTVSPropertyOp13
 70
     1
102
RTVSPropertyOp14
 70
     1
102
RTVSPropertyOp15
 70
     1
102
RTVSPropertyOp16
 70
     1
102
RTVSPropertyOp17
 70
     1
102
RTVSPropertyOp18
 70
     1
102
RTVSPropertyOp19
 70
     1
102
RTVSPropertyOp20
 70
     1
102
RTVSPropertyOp21
 70
     1
102
RTVSPropertyOp22
 70
     1
102
RTVSPropertyOp23
 70
     1
102
RTVSPropertyOp24
 70
     1
102
RTVSPropertyOp25
 70
     1
102
RTVSPropertyOp26
 70
     1
102
RTVSPropertyOp27
 70
     1
  0
XRECORD
  5
9E
102
{ACAD_REACTORS
330
9D
102
}
330
9D
100
AcDbXrecord
280
     1
102
RTVSPropertyOp0
 70
     1
102
RTVSPropertyOp1
 70
     1
102
RTVSPropertyOp2
 70
     1
102
RTVSPropertyOp3
 70
     1
102
RTVSPropertyOp4
 70
     1
102
RTVSPropertyOp5
 70
     1
102
RTVSPropertyOp6
 70
     1
102
RTVSPropertyOp7
 70
     1
102
RTVSPropertyOp8
 70
     1
102
RTVSPropertyOp9
 70
     1
102
RTVSPropertyOp10
 70
     1
102
RTVSPropertyOp11
 70
     1
102
RTVSPropertyOp12
 70
     1
102
RTVSPropertyOp13
 70
     1
102
RTVSPropertyOp14
 70
     1
102
RTVSPropertyOp15
 70
     1
102
RTVSPropertyOp16
 70
     1
102
RTVSPropertyOp17
 70
     1
102
RTVSPropertyOp18
 70
     1
102
RTVSPropertyOp19
 70
     1
102
RTVSPropertyOp20
 70
     1
102
RTVSPropertyOp21
 70
     1
102
RTVSPropertyOp22
 70
     1
102
RTVSPropertyOp23
 70
     1
102
RTVSPropertyOp24
 70
     1
102
RTVSPropertyOp25
 70
     1
102
RTVSPropertyOp26
 70
     1
102
RTVSPropertyOp27
 70
     1
  0
XRECORD
  5
A0
102
{ACAD_REACTORS
330
9F
102
}
330
9F
100
AcDbXrecord
280
     1
102
RTVSPropertyOp0
 70
     1
102
RTVSPropertyOp1
 70
     1
102
RTVSPropertyOp2
 70
     1
102
RTVSPropertyOp3
 70
     1
102
RTVSPropertyOp4
 70
     1
102
RTVSPropertyOp5
 70
     1
102
RTVSPropertyOp6
 70
     1
102
RTVSPropertyOp7
 70
     1
102
RTVSPropertyOp8
 70
     1
102
RTVSPropertyOp9
 70
     1
102
RTVSPropertyOp10
 70
     1
102
RTVSPropertyOp11
 70
     1
102
RTVSPropertyOp12
 70
     1
102
RTVSPropertyOp13
 70
     1
102
RTVSPropertyOp14
 70
     1
102
RTVSPropertyOp15
 70
     1
102
RTVSPropertyOp16
 70
     1
102
RTVSPropertyOp17
 70
     1
102
RTVSPropertyOp18
 70
     1
102
RTVSPropertyOp19
 70
     1
102
RTVSPropertyOp20
 70
     1
102
RTVSPropertyOp21
 70
     1
102
RTVSPropertyOp22
 70
     1
102
RTVSPropertyOp23
 70
     1
102
RTVSPropertyOp24
 70
     1
102
RTVSPropertyOp25
 70
     1
102
RTVSPropertyOp26
 70
     1
102
RTVSPropertyOp27
 70
     1
  0
XRECORD
  5
A2
102
{ACAD_REACTORS
330
A1
102
}
330
A1
100
AcDbXrecord
280
     1
102
RTVSPropertyOp0
 70
     1
102
RTVSPropertyOp1
 70
     1
102
RTVSPropertyOp2
 70
     1
102
RTVSPropertyOp3
 70
     1
102
RTVSPropertyOp4
 70
     1
102
RTVSPropertyOp5
 70
     1
102
RTVSPropertyOp6
 70
     1
102
RTVSPropertyOp7
 70
     1
102
RTVSPropertyOp8
 70
     1
102
RTVSPropertyOp9
 70
     1
102
RTVSPropertyOp10
 70
     1
102
RTVSPropertyOp11
 70
     1
102
RTVSPropertyOp12
 70
     1
102
RTVSPropertyOp13
 70
     1
102
RTVSPropertyOp14
 70
     1
102
RTVSPropertyOp15
 70
     1
102
RTVSPropertyOp16
 70
     1
102
RTVSPropertyOp17
 70
     1
102
RTVSPropertyOp18
 70
     1
102
RTVSPropertyOp19
 70
     1
102
RTVSPropertyOp20
 70
     1
102
RTVSPropertyOp21
 70
     1
102
RTVSPropertyOp22
 70
     1
102
RTVSPropertyOp23
 70
     1
102
RTVSPropertyOp24
 70
     1
102
RTVSPropertyOp25
 70
     1
102
RTVSPropertyOp26
 70
     1
102
RTVSPropertyOp27
 70
     1
  0
XRECORD
  5
A4
102
{ACAD_REACTORS
330
A3
102
}
330
A3
100
AcDbXrecord
280
     1
102
RTVSPropertyOp0
 70
     1
102
RTVSPropertyOp1
 70
     1
102
RTVSPropertyOp2
 70
     1
102
RTVSPropertyOp3
 70
     1
102
RTVSPropertyOp4
 70
     1
102
RTVSPropertyOp5
 70
     1
102
RTVSPropertyOp6
 70
     1
102
RTVSPropertyOp7
 70
     1
102
RTVSPropertyOp8
 70
     1
102
RTVSPropertyOp9
 70
     1
102
RTVSPropertyOp10
 70
     1
102
RTVSPropertyOp11
 70
     1
102
RTVSPropertyOp12
 70
     1
102
RTVSPropertyOp13
 70
     1
102
RTVSPropertyOp14
 70
     1
102
RTVSPropertyOp15
 70
     1
102
RTVSPropertyOp16
 70
     1
102
RTVSPropertyOp17
 70
     1
102
RTVSPropertyOp18
 70
     1
102
RTVSPropertyOp19
 70
     1
102
RTVSPropertyOp20
 70
     1
102
RTVSPropertyOp21
 70
     1
102
RTVSPropertyOp22
 70
     1
102
RTVSPropertyOp23
 70
     1
102
RTVSPropertyOp24
 70
     1
102
RTVSPropertyOp25
 70
     1
102
RTVSPropertyOp26
 70
     1
102
RTVSPropertyOp27
 70
     1
  0
XRECORD
  5
B8
102
{ACAD_REACTORS
330
B7
102
}
330
B7
100
AcDbXrecord
280
     1
102
RTVSPropertyOp0
 70
     1
102
RTVSPropertyOp1
 70
     1
102
RTVSPropertyOp2
 70
     1
102
RTVSPropertyOp3
 70
     1
102
RTVSPropertyOp4
 70
     1
102
RTVSPropertyOp5
 70
     1
102
RTVSPropertyOp6
 70
     1
102
RTVSPropertyOp7
 70
     1
102
RTVSPropertyOp8
 70
     1
102
RTVSPropertyOp9
 70
     1
102
RTVSPropertyOp10
 70
     1
102
RTVSPropertyOp11
 70
     1
102
RTVSPropertyOp12
 70
     1
102
RTVSPropertyOp13
 70
     1
102
RTVSPropertyOp14
 70
     1
102
RTVSPropertyOp15
 70
     1
102
RTVSPropertyOp16
 70
     1
102
RTVSPropertyOp17
 70
     1
102
RTVSPropertyOp18
 70
     1
102
RTVSPropertyOp19
 70
     1
102
RTVSPropertyOp20
 70
     1
102
RTVSPropertyOp21
 70
     1
102
RTVSPropertyOp22
 70
     1
102
RTVSPropertyOp23
 70
     1
102
RTVSPropertyOp24
 70
     1
102
RTVSPropertyOp25
 70
     1
102
RTVSPropertyOp26
 70
     1
102
RTVSPropertyOp27
 70
     1
  0
XRECORD
  5
AE
102
{ACAD_REACTORS
330
AD
102
}
330
AD
100
AcDbXrecord
280
     1
102
RTVSPropertyOp0
 70
     1
102
RTVSPropertyOp1
 70
     1
102
RTVSPropertyOp2
 70
     1
102
RTVSPropertyOp3
 70
     1
102
RTVSPropertyOp4
 70
     1
102
RTVSPropertyOp5
 70
     1
102
RTVSPropertyOp6
 70
     1
102
RTVSPropertyOp7
 70
     1
102
RTVSPropertyOp8
 70
     1
102
RTVSPropertyOp9
 70
     1
102
RTVSPropertyOp10
 70
     1
102
RTVSPropertyOp11
 70
     1
102
RTVSPropertyOp12
 70
     1
102
RTVSPropertyOp13
 70
     1
102
RTVSPropertyOp14
 70
     1
102
RTVSPropertyOp15
 70
     1
102
RTVSPropertyOp16
 70
     1
102
RTVSPropertyOp17
 70
     1
102
RTVSPropertyOp18
 70
     1
102
RTVSPropertyOp19
 70
     1
102
RTVSPropertyOp20
 70
     1
102
RTVSPropertyOp21
 70
     1
102
RTVSPropertyOp22
 70
     1
102
RTVSPropertyOp23
 70
     1
102
RTVSPropertyOp24
 70
     1
102
RTVSPropertyOp25
 70
     1
102
RTVSPropertyOp26
 70
     1
102
RTVSPropertyOp27
 70
     1
  0
XRECORD
  5
B6
102
{ACAD_REACTORS
330
B5
102
}
330
B5
100
AcDbXrecord
280
     1
102
RTVSPropertyOp0
 70
     1
102
RTVSPropertyOp1
 70
     1
102
RTVSPropertyOp2
 70
     1
102
RTVSPropertyOp3
 70
     1
102
RTVSPropertyOp4
 70
     1
102
RTVSPropertyOp5
 70
     1
102
RTVSPropertyOp6
 70
     1
102
RTVSPropertyOp7
 70
     1
102
RTVSPropertyOp8
 70
     1
102
RTVSPropertyOp9
 70
     1
102
RTVSPropertyOp10
 70
     1
102
RTVSPropertyOp11
 70
     1
102
RTVSPropertyOp12
 70
     1
102
RTVSPropertyOp13
 70
     1
102
RTVSPropertyOp14
 70
     1
102
RTVSPropertyOp15
 70
     1
102
RTVSPropertyOp16
 70
     1
102
RTVSPropertyOp17
 70
     1
102
RTVSPropertyOp18
 70
     1
102
RTVSPropertyOp19
 70
     1
102
RTVSPropertyOp20
 70
     1
102
RTVSPropertyOp21
 70
     1
102
RTVSPropertyOp22
 70
     1
102
RTVSPropertyOp23
 70
     1
102
RTVSPropertyOp24
 70
     1
102
RTVSPropertyOp25
 70
     1
102
RTVSPropertyOp26
 70
     1
102
RTVSPropertyOp27
 70
     1
  0
ENDSEC
  0
EOF
