  0
SECTION
  2
HEADER
  9
$ACADVER
  1
AC1009
  9
$INSBASE
 10
0.0
 20
0.0
 30
0.0
  9
$EXTMIN
 10
0.0
 20
0.0
 30
0.0
  9
$EXTMAX
 10
0.0
 20
0.0
 30
0.0
  0
ENDSEC
  0
SECTION
  2
TABLES
  0
TABLE
  2
VPORT
 70
0
  0
ENDTAB
  0
TABLE
  2
LTYPE
 70
1
  0
LTYPE
  2
CONTINUOUS
 70
0
  3
Solid line
 72
65
 73
0
 40
0.0
  0
ENDTAB
  0
TABLE
  2
LAYER
 70
1
  0
LAYER
  2
0
 70
64
 62
7
  6
continuous
  0
ENDTAB
  0
TABLE
  2
STYLE
 70
1
  0
STYLE
  2
STANDARD
 70
0
 40
0
 41
1.0
 50
0.0
 71
0
 42
1
 3
ARIAL.TTF
 4

  0
ENDTAB
  0
TABLE
  2
VIEW
 70
0
  0
ENDTAB
  0
ENDSEC
  0
SECTION
  2
BLOCKS
  0
BLOCK
  8
0
  2
ARRAY
 70
0
 10
0.0
 20
0.0
 30
0.0
  3
ARRAY
  0
LINE
  8
0
 62
0
 10
3.46563777522
 20
-8.89918693812
 30
0.0
 11
5.01861877129
 21
-4.11960289296
 31
0.0
  0
LINE
  8
0
 62
0
 10
5.01861877129
 20
-4.11960289296
 30
0.0
 11
2.26172970375
 21
-3.22641022734
 31
0.0
  0
LINE
  8
0
 62
0
 10
2.26172970375
 20
-3.22641022734
 30
0.0
 11
3.16787655225
 21
-0.429537350549
 31
0.0
  0
LINE
  8
0
 62
0
 10
3.16787655225
 20
-0.429537350549
 30
0.0
 11
5.92712905912
 21
-1.32349573674
 31
0.0
  0
LINE
  8
0
 62
0
 10
5.92712905912
 20
-1.32349573674
 30
0.0
 11
7.46162167925
 21
3.39918693812
 31
0.0
  0
LINE
  8
0
 62
0
 10
7.46162167925
 20
3.39918693812
 30
0.0
 11
3.39566444939
 21
6.35327778266
 31
0.0
  0
LINE
  8
0
 62
0
 10
3.39566444939
 20
6.35327778266
 30
0.0
 11
1.68638290749
 21
4.00866686237
 31
0.0
  0
LINE
  8
0
 62
0
 10
1.68638290749
 20
4.00866686237
 30
0.0
 11
-0.689318686189
 21
5.7406143032
 31
0.0
  0
LINE
  8
0
 62
0
 10
-0.689318686189
 20
5.7406143032
 30
0.0
 11
1.01715135205
 21
8.0813687013
 31
0.0
  0
LINE
  8
0
 62
0
 10
1.01715135205
 20
8.0813687013
 30
0.0
 11
-3.0
 21
11.0
 31
0.0
  0
LINE
  8
0
 62
0
 10
-3.0
 20
11.0
 30
0.0
 11
-7.06582636772
 21
8.04600423237
 31
0.0
  0
LINE
  8
0
 62
0
 10
-7.06582636772
 20
8.04600423237
 30
0.0
 11
-5.36172704185
 21
5.70051272955
 31
0.0
  0
LINE
  8
0
 62
0
 10
-5.36172704185
 20
5.70051272955
 30
0.0
 11
-7.74023700531
 21
3.97242408781
 31
0.0
  0
LINE
  8
0
 62
0
 10
-7.74023700531
 20
3.97242408781
 30
0.0
 11
-9.44433633118
 21
6.31791559063
 31
0.0
  0
LINE
  8
0
 62
0
 10
-9.44433633118
 20
6.31791559063
 30
0.0
 11
-13.4616216792
 21
3.39918693812
 31
0.0
  0
LINE
  8
0
 62
0
 10
-13.4616216792
 20
3.39918693812
 30
0.0
 11
-11.9084763381
 21
-1.3809029093
 31
0.0
  0
LINE
  8
0
 62
0
 10
-11.9084763381
 20
-1.3809029093
 30
0.0
 11
-9.14084259102
 21
-0.495621389338
 31
0.0
  0
LINE
  8
0
 62
0
 10
-9.14084259102
 20
-0.495621389338
 30
0.0
 11
-8.24513354027
 21
-3.29585446828
 31
0.0
  0
LINE
  8
0
 62
0
 10
-8.24513354027
 20
-3.29585446828
 30
0.0
 11
-10.9999568678
 21
-4.17703832622
 31
0.0
  0
LINE
  8
0
 62
0
 10
-10.9999568678
 20
-4.17703832622
 30
0.0
 11
-9.46563777522
 21
-8.89918693812
 31
0.0
  0
LINE
  8
0
 62
0
 10
-9.46563777522
 20
-8.89918693812
 30
0.0
 11
-4.44059318633
 21
-8.89918693812
 31
0.0
  0
LINE
  8
0
 62
0
 10
-4.44059318633
 20
-8.89918693812
 30
0.0
 11
-4.45694345474
 21
-6.00819188954
 31
0.0
  0
LINE
  8
0
 62
0
 10
-4.45694345474
 20
-6.00819188954
 30
0.0
 11
-1.51699047251
 21
-5.99156473536
 31
0.0
  0
LINE
  8
0
 62
0
 10
-1.51699047251
 20
-5.99156473536
 30
0.0
 11
-1.50054616781
 21
-8.89918693812
 31
0.0
  0
LINE
  8
0
 62
0
 10
-1.50054616781
 20
-8.89918693812
 30
0.0
 11
3.46563777522
 21
-8.89918693812
 31
0.0
  0
LINE
  8
0
 62
0
 10
3.46563777522
 20
11.1008130619
 30
0.0
 11
5.01861877129
 21
15.880397107
 31
0.0
  0
LINE
  8
0
 62
0
 10
5.01861877129
 20
15.880397107
 30
0.0
 11
2.26172970375
 21
16.7735897727
 31
0.0
  0
LINE
  8
0
 62
0
 10
2.26172970375
 20
16.7735897727
 30
0.0
 11
3.16787655225
 21
19.5704626495
 31
0.0
  0
LINE
  8
0
 62
0
 10
3.16787655225
 20
19.5704626495
 30
0.0
 11
5.92712905912
 21
18.6765042633
 31
0.0
  0
LINE
  8
0
 62
0
 10
5.92712905912
 20
18.6765042633
 30
0.0
 11
7.46162167925
 21
23.3991869381
 31
0.0
  0
LINE
  8
0
 62
0
 10
7.46162167925
 20
23.3991869381
 30
0.0
 11
3.39566444939
 21
26.3532777827
 31
0.0
  0
LINE
  8
0
 62
0
 10
3.39566444939
 20
26.3532777827
 30
0.0
 11
1.68638290749
 21
24.0086668624
 31
0.0
  0
LINE
  8
0
 62
0
 10
1.68638290749
 20
24.0086668624
 30
0.0
 11
-0.689318686189
 21
25.7406143032
 31
0.0
  0
LINE
  8
0
 62
0
 10
-0.689318686189
 20
25.7406143032
 30
0.0
 11
1.01715135205
 21
28.0813687013
 31
0.0
  0
LINE
  8
0
 62
0
 10
1.01715135205
 20
28.0813687013
 30
0.0
 11
-3.0
 21
31.0
 31
0.0
  0
LINE
  8
0
 62
0
 10
-3.0
 20
31.0
 30
0.0
 11
-7.06582636772
 21
28.0460042324
 31
0.0
  0
LINE
  8
0
 62
0
 10
-7.06582636772
 20
28.0460042324
 30
0.0
 11
-5.36172704185
 21
25.7005127295
 31
0.0
  0
LINE
  8
0
 62
0
 10
-5.36172704185
 20
25.7005127295
 30
0.0
 11
-7.74023700531
 21
23.9724240878
 31
0.0
  0
LINE
  8
0
 62
0
 10
-7.74023700531
 20
23.9724240878
 30
0.0
 11
-9.44433633118
 21
26.3179155906
 31
0.0
  0
LINE
  8
0
 62
0
 10
-9.44433633118
 20
26.3179155906
 30
0.0
 11
-13.4616216792
 21
23.3991869381
 31
0.0
  0
LINE
  8
0
 62
0
 10
-13.4616216792
 20
23.3991869381
 30
0.0
 11
-11.9084763381
 21
18.6190970907
 31
0.0
  0
LINE
  8
0
 62
0
 10
-11.9084763381
 20
18.6190970907
 30
0.0
 11
-9.14084259102
 21
19.5043786107
 31
0.0
  0
LINE
  8
0
 62
0
 10
-9.14084259102
 20
19.5043786107
 30
0.0
 11
-8.24513354027
 21
16.7041455317
 31
0.0
  0
LINE
  8
0
 62
0
 10
-8.24513354027
 20
16.7041455317
 30
0.0
 11
-10.9999568678
 21
15.8229616738
 31
0.0
  0
LINE
  8
0
 62
0
 10
-10.9999568678
 20
15.8229616738
 30
0.0
 11
-9.46563777522
 21
11.1008130619
 31
0.0
  0
LINE
  8
0
 62
0
 10
-9.46563777522
 20
11.1008130619
 30
0.0
 11
-4.44059318633
 21
11.1008130619
 31
0.0
  0
LINE
  8
0
 62
0
 10
-4.44059318633
 20
11.1008130619
 30
0.0
 11
-4.45694345474
 21
13.9918081105
 31
0.0
  0
LINE
  8
0
 62
0
 10
-4.45694345474
 20
13.9918081105
 30
0.0
 11
-1.51699047251
 21
14.0084352646
 31
0.0
  0
LINE
  8
0
 62
0
 10
-1.51699047251
 20
14.0084352646
 30
0.0
 11
-1.50054616781
 21
11.1008130619
 31
0.0
  0
LINE
  8
0
 62
0
 10
-1.50054616781
 20
11.1008130619
 30
0.0
 11
3.46563777522
 21
11.1008130619
 31
0.0
  0
LINE
  8
0
 62
0
 10
3.46563777522
 20
31.1008130619
 30
0.0
 11
5.01861877129
 21
35.880397107
 31
0.0
  0
LINE
  8
0
 62
0
 10
5.01861877129
 20
35.880397107
 30
0.0
 11
2.26172970375
 21
36.7735897727
 31
0.0
  0
LINE
  8
0
 62
0
 10
2.26172970375
 20
36.7735897727
 30
0.0
 11
3.16787655225
 21
39.5704626495
 31
0.0
  0
LINE
  8
0
 62
0
 10
3.16787655225
 20
39.5704626495
 30
0.0
 11
5.92712905912
 21
38.6765042633
 31
0.0
  0
LINE
  8
0
 62
0
 10
5.92712905912
 20
38.6765042633
 30
0.0
 11
7.46162167925
 21
43.3991869381
 31
0.0
  0
LINE
  8
0
 62
0
 10
7.46162167925
 20
43.3991869381
 30
0.0
 11
3.39566444939
 21
46.3532777827
 31
0.0
  0
LINE
  8
0
 62
0
 10
3.39566444939
 20
46.3532777827
 30
0.0
 11
1.68638290749
 21
44.0086668624
 31
0.0
  0
LINE
  8
0
 62
0
 10
1.68638290749
 20
44.0086668624
 30
0.0
 11
-0.689318686189
 21
45.7406143032
 31
0.0
  0
LINE
  8
0
 62
0
 10
-0.689318686189
 20
45.7406143032
 30
0.0
 11
1.01715135205
 21
48.0813687013
 31
0.0
  0
LINE
  8
0
 62
0
 10
1.01715135205
 20
48.0813687013
 30
0.0
 11
-3.0
 21
51.0
 31
0.0
  0
LINE
  8
0
 62
0
 10
-3.0
 20
51.0
 30
0.0
 11
-7.06582636772
 21
48.0460042324
 31
0.0
  0
LINE
  8
0
 62
0
 10
-7.06582636772
 20
48.0460042324
 30
0.0
 11
-5.36172704185
 21
45.7005127295
 31
0.0
  0
LINE
  8
0
 62
0
 10
-5.36172704185
 20
45.7005127295
 30
0.0
 11
-7.74023700531
 21
43.9724240878
 31
0.0
  0
LINE
  8
0
 62
0
 10
-7.74023700531
 20
43.9724240878
 30
0.0
 11
-9.44433633118
 21
46.3179155906
 31
0.0
  0
LINE
  8
0
 62
0
 10
-9.44433633118
 20
46.3179155906
 30
0.0
 11
-13.4616216792
 21
43.3991869381
 31
0.0
  0
LINE
  8
0
 62
0
 10
-13.4616216792
 20
43.3991869381
 30
0.0
 11
-11.9084763381
 21
38.6190970907
 31
0.0
  0
LINE
  8
0
 62
0
 10
-11.9084763381
 20
38.6190970907
 30
0.0
 11
-9.14084259102
 21
39.5043786107
 31
0.0
  0
LINE
  8
0
 62
0
 10
-9.14084259102
 20
39.5043786107
 30
0.0
 11
-8.24513354027
 21
36.7041455317
 31
0.0
  0
LINE
  8
0
 62
0
 10
-8.24513354027
 20
36.7041455317
 30
0.0
 11
-10.9999568678
 21
35.8229616738
 31
0.0
  0
LINE
  8
0
 62
0
 10
-10.9999568678
 20
35.8229616738
 30
0.0
 11
-9.46563777522
 21
31.1008130619
 31
0.0
  0
LINE
  8
0
 62
0
 10
-9.46563777522
 20
31.1008130619
 30
0.0
 11
-4.44059318633
 21
31.1008130619
 31
0.0
  0
LINE
  8
0
 62
0
 10
-4.44059318633
 20
31.1008130619
 30
0.0
 11
-4.45694345474
 21
33.9918081105
 31
0.0
  0
LINE
  8
0
 62
0
 10
-4.45694345474
 20
33.9918081105
 30
0.0
 11
-1.51699047251
 21
34.0084352646
 31
0.0
  0
LINE
  8
0
 62
0
 10
-1.51699047251
 20
34.0084352646
 30
0.0
 11
-1.50054616781
 21
31.1008130619
 31
0.0
  0
LINE
  8
0
 62
0
 10
-1.50054616781
 20
31.1008130619
 30
0.0
 11
3.46563777522
 21
31.1008130619
 31
0.0
  0
LINE
  8
0
 62
0
 10
3.46563777522
 20
51.1008130619
 30
0.0
 11
5.01861877129
 21
55.880397107
 31
0.0
  0
LINE
  8
0
 62
0
 10
5.01861877129
 20
55.880397107
 30
0.0
 11
2.26172970375
 21
56.7735897727
 31
0.0
  0
LINE
  8
0
 62
0
 10
2.26172970375
 20
56.7735897727
 30
0.0
 11
3.16787655225
 21
59.5704626495
 31
0.0
  0
LINE
  8
0
 62
0
 10
3.16787655225
 20
59.5704626495
 30
0.0
 11
5.92712905912
 21
58.6765042633
 31
0.0
  0
LINE
  8
0
 62
0
 10
5.92712905912
 20
58.6765042633
 30
0.0
 11
7.46162167925
 21
63.3991869381
 31
0.0
  0
LINE
  8
0
 62
0
 10
7.46162167925
 20
63.3991869381
 30
0.0
 11
3.39566444939
 21
66.3532777827
 31
0.0
  0
LINE
  8
0
 62
0
 10
3.39566444939
 20
66.3532777827
 30
0.0
 11
1.68638290749
 21
64.0086668624
 31
0.0
  0
LINE
  8
0
 62
0
 10
1.68638290749
 20
64.0086668624
 30
0.0
 11
-0.689318686189
 21
65.7406143032
 31
0.0
  0
LINE
  8
0
 62
0
 10
-0.689318686189
 20
65.7406143032
 30
0.0
 11
1.01715135205
 21
68.0813687013
 31
0.0
  0
LINE
  8
0
 62
0
 10
1.01715135205
 20
68.0813687013
 30
0.0
 11
-3.0
 21
71.0
 31
0.0
  0
LINE
  8
0
 62
0
 10
-3.0
 20
71.0
 30
0.0
 11
-7.06582636772
 21
68.0460042324
 31
0.0
  0
LINE
  8
0
 62
0
 10
-7.06582636772
 20
68.0460042324
 30
0.0
 11
-5.36172704185
 21
65.7005127295
 31
0.0
  0
LINE
  8
0
 62
0
 10
-5.36172704185
 20
65.7005127295
 30
0.0
 11
-7.74023700531
 21
63.9724240878
 31
0.0
  0
LINE
  8
0
 62
0
 10
-7.74023700531
 20
63.9724240878
 30
0.0
 11
-9.44433633118
 21
66.3179155906
 31
0.0
  0
LINE
  8
0
 62
0
 10
-9.44433633118
 20
66.3179155906
 30
0.0
 11
-13.4616216792
 21
63.3991869381
 31
0.0
  0
LINE
  8
0
 62
0
 10
-13.4616216792
 20
63.3991869381
 30
0.0
 11
-11.9084763381
 21
58.6190970907
 31
0.0
  0
LINE
  8
0
 62
0
 10
-11.9084763381
 20
58.6190970907
 30
0.0
 11
-9.14084259102
 21
59.5043786107
 31
0.0
  0
LINE
  8
0
 62
0
 10
-9.14084259102
 20
59.5043786107
 30
0.0
 11
-8.24513354027
 21
56.7041455317
 31
0.0
  0
LINE
  8
0
 62
0
 10
-8.24513354027
 20
56.7041455317
 30
0.0
 11
-10.9999568678
 21
55.8229616738
 31
0.0
  0
LINE
  8
0
 62
0
 10
-10.9999568678
 20
55.8229616738
 30
0.0
 11
-9.46563777522
 21
51.1008130619
 31
0.0
  0
LINE
  8
0
 62
0
 10
-9.46563777522
 20
51.1008130619
 30
0.0
 11
-4.44059318633
 21
51.1008130619
 31
0.0
  0
LINE
  8
0
 62
0
 10
-4.44059318633
 20
51.1008130619
 30
0.0
 11
-4.45694345474
 21
53.9918081105
 31
0.0
  0
LINE
  8
0
 62
0
 10
-4.45694345474
 20
53.9918081105
 30
0.0
 11
-1.51699047251
 21
54.0084352646
 31
0.0
  0
LINE
  8
0
 62
0
 10
-1.51699047251
 20
54.0084352646
 30
0.0
 11
-1.50054616781
 21
51.1008130619
 31
0.0
  0
LINE
  8
0
 62
0
 10
-1.50054616781
 20
51.1008130619
 30
0.0
 11
3.46563777522
 21
51.1008130619
 31
0.0
  0
LINE
  8
0
 62
0
 10
3.46563777522
 20
71.1008130619
 30
0.0
 11
5.01861877129
 21
75.880397107
 31
0.0
  0
LINE
  8
0
 62
0
 10
5.01861877129
 20
75.880397107
 30
0.0
 11
2.26172970375
 21
76.7735897727
 31
0.0
  0
LINE
  8
0
 62
0
 10
2.26172970375
 20
76.7735897727
 30
0.0
 11
3.16787655225
 21
79.5704626495
 31
0.0
  0
LINE
  8
0
 62
0
 10
3.16787655225
 20
79.5704626495
 30
0.0
 11
5.92712905912
 21
78.6765042633
 31
0.0
  0
LINE
  8
0
 62
0
 10
5.92712905912
 20
78.6765042633
 30
0.0
 11
7.46162167925
 21
83.3991869381
 31
0.0
  0
LINE
  8
0
 62
0
 10
7.46162167925
 20
83.3991869381
 30
0.0
 11
3.39566444939
 21
86.3532777827
 31
0.0
  0
LINE
  8
0
 62
0
 10
3.39566444939
 20
86.3532777827
 30
0.0
 11
1.68638290749
 21
84.0086668624
 31
0.0
  0
LINE
  8
0
 62
0
 10
1.68638290749
 20
84.0086668624
 30
0.0
 11
-0.689318686189
 21
85.7406143032
 31
0.0
  0
LINE
  8
0
 62
0
 10
-0.689318686189
 20
85.7406143032
 30
0.0
 11
1.01715135205
 21
88.0813687013
 31
0.0
  0
LINE
  8
0
 62
0
 10
1.01715135205
 20
88.0813687013
 30
0.0
 11
-3.0
 21
91.0
 31
0.0
  0
LINE
  8
0
 62
0
 10
-3.0
 20
91.0
 30
0.0
 11
-7.06582636772
 21
88.0460042324
 31
0.0
  0
LINE
  8
0
 62
0
 10
-7.06582636772
 20
88.0460042324
 30
0.0
 11
-5.36172704185
 21
85.7005127295
 31
0.0
  0
LINE
  8
0
 62
0
 10
-5.36172704185
 20
85.7005127295
 30
0.0
 11
-7.74023700531
 21
83.9724240878
 31
0.0
  0
LINE
  8
0
 62
0
 10
-7.74023700531
 20
83.9724240878
 30
0.0
 11
-9.44433633118
 21
86.3179155906
 31
0.0
  0
LINE
  8
0
 62
0
 10
-9.44433633118
 20
86.3179155906
 30
0.0
 11
-13.4616216792
 21
83.3991869381
 31
0.0
  0
LINE
  8
0
 62
0
 10
-13.4616216792
 20
83.3991869381
 30
0.0
 11
-11.9084763381
 21
78.6190970907
 31
0.0
  0
LINE
  8
0
 62
0
 10
-11.9084763381
 20
78.6190970907
 30
0.0
 11
-9.14084259102
 21
79.5043786107
 31
0.0
  0
LINE
  8
0
 62
0
 10
-9.14084259102
 20
79.5043786107
 30
0.0
 11
-8.24513354027
 21
76.7041455317
 31
0.0
  0
LINE
  8
0
 62
0
 10
-8.24513354027
 20
76.7041455317
 30
0.0
 11
-10.9999568678
 21
75.8229616738
 31
0.0
  0
LINE
  8
0
 62
0
 10
-10.9999568678
 20
75.8229616738
 30
0.0
 11
-9.46563777522
 21
71.1008130619
 31
0.0
  0
LINE
  8
0
 62
0
 10
-9.46563777522
 20
71.1008130619
 30
0.0
 11
-4.44059318633
 21
71.1008130619
 31
0.0
  0
LINE
  8
0
 62
0
 10
-4.44059318633
 20
71.1008130619
 30
0.0
 11
-4.45694345474
 21
73.9918081105
 31
0.0
  0
LINE
  8
0
 62
0
 10
-4.45694345474
 20
73.9918081105
 30
0.0
 11
-1.51699047251
 21
74.0084352646
 31
0.0
  0
LINE
  8
0
 62
0
 10
-1.51699047251
 20
74.0084352646
 30
0.0
 11
-1.50054616781
 21
71.1008130619
 31
0.0
  0
LINE
  8
0
 62
0
 10
-1.50054616781
 20
71.1008130619
 30
0.0
 11
3.46563777522
 21
71.1008130619
 31
0.0
  0
LINE
  8
0
 62
0
 10
25.4656377752
 20
-8.89918693812
 30
0.0
 11
27.0186187713
 21
-4.11960289296
 31
0.0
  0
LINE
  8
0
 62
0
 10
27.0186187713
 20
-4.11960289296
 30
0.0
 11
24.2617297037
 21
-3.22641022734
 31
0.0
  0
LINE
  8
0
 62
0
 10
24.2617297037
 20
-3.22641022734
 30
0.0
 11
25.1678765522
 21
-0.429537350549
 31
0.0
  0
LINE
  8
0
 62
0
 10
25.1678765522
 20
-0.429537350549
 30
0.0
 11
27.9271290591
 21
-1.32349573674
 31
0.0
  0
LINE
  8
0
 62
0
 10
27.9271290591
 20
-1.32349573674
 30
0.0
 11
29.4616216792
 21
3.39918693812
 31
0.0
  0
LINE
  8
0
 62
0
 10
29.4616216792
 20
3.39918693812
 30
0.0
 11
25.3956644494
 21
6.35327778266
 31
0.0
  0
LINE
  8
0
 62
0
 10
25.3956644494
 20
6.35327778266
 30
0.0
 11
23.6863829075
 21
4.00866686237
 31
0.0
  0
LINE
  8
0
 62
0
 10
23.6863829075
 20
4.00866686237
 30
0.0
 11
21.3106813138
 21
5.7406143032
 31
0.0
  0
LINE
  8
0
 62
0
 10
21.3106813138
 20
5.7406143032
 30
0.0
 11
23.0171513521
 21
8.0813687013
 31
0.0
  0
LINE
  8
0
 62
0
 10
23.0171513521
 20
8.0813687013
 30
0.0
 11
19.0
 21
11.0
 31
0.0
  0
LINE
  8
0
 62
0
 10
19.0
 20
11.0
 30
0.0
 11
14.9341736323
 21
8.04600423237
 31
0.0
  0
LINE
  8
0
 62
0
 10
14.9341736323
 20
8.04600423237
 30
0.0
 11
16.6382729581
 21
5.70051272955
 31
0.0
  0
LINE
  8
0
 62
0
 10
16.6382729581
 20
5.70051272955
 30
0.0
 11
14.2597629947
 21
3.97242408781
 31
0.0
  0
LINE
  8
0
 62
0
 10
14.2597629947
 20
3.97242408781
 30
0.0
 11
12.5556636688
 21
6.31791559063
 31
0.0
  0
LINE
  8
0
 62
0
 10
12.5556636688
 20
6.31791559063
 30
0.0
 11
8.53837832075
 21
3.39918693812
 31
0.0
  0
LINE
  8
0
 62
0
 10
8.53837832075
 20
3.39918693812
 30
0.0
 11
10.0915236619
 21
-1.3809029093
 31
0.0
  0
LINE
  8
0
 62
0
 10
10.0915236619
 20
-1.3809029093
 30
0.0
 11
12.859157409
 21
-0.495621389338
 31
0.0
  0
LINE
  8
0
 62
0
 10
12.859157409
 20
-0.495621389338
 30
0.0
 11
13.7548664597
 21
-3.29585446828
 31
0.0
  0
LINE
  8
0
 62
0
 10
13.7548664597
 20
-3.29585446828
 30
0.0
 11
11.0000431322
 21
-4.17703832622
 31
0.0
  0
LINE
  8
0
 62
0
 10
11.0000431322
 20
-4.17703832622
 30
0.0
 11
12.5343622248
 21
-8.89918693812
 31
0.0
  0
LINE
  8
0
 62
0
 10
12.5343622248
 20
-8.89918693812
 30
0.0
 11
17.5594068137
 21
-8.89918693812
 31
0.0
  0
LINE
  8
0
 62
0
 10
17.5594068137
 20
-8.89918693812
 30
0.0
 11
17.5430565453
 21
-6.00819188954
 31
0.0
  0
LINE
  8
0
 62
0
 10
17.5430565453
 20
-6.00819188954
 30
0.0
 11
20.4830095275
 21
-5.99156473536
 31
0.0
  0
LINE
  8
0
 62
0
 10
20.4830095275
 20
-5.99156473536
 30
0.0
 11
20.4994538322
 21
-8.89918693812
 31
0.0
  0
LINE
  8
0
 62
0
 10
20.4994538322
 20
-8.89918693812
 30
0.0
 11
25.4656377752
 21
-8.89918693812
 31
0.0
  0
LINE
  8
0
 62
0
 10
25.4656377752
 20
11.1008130619
 30
0.0
 11
27.0186187713
 21
15.880397107
 31
0.0
  0
LINE
  8
0
 62
0
 10
27.0186187713
 20
15.880397107
 30
0.0
 11
24.2617297037
 21
16.7735897727
 31
0.0
  0
LINE
  8
0
 62
0
 10
24.2617297037
 20
16.7735897727
 30
0.0
 11
25.1678765522
 21
19.5704626495
 31
0.0
  0
LINE
  8
0
 62
0
 10
25.1678765522
 20
19.5704626495
 30
0.0
 11
27.9271290591
 21
18.6765042633
 31
0.0
  0
LINE
  8
0
 62
0
 10
27.9271290591
 20
18.6765042633
 30
0.0
 11
29.4616216792
 21
23.3991869381
 31
0.0
  0
LINE
  8
0
 62
0
 10
29.4616216792
 20
23.3991869381
 30
0.0
 11
25.3956644494
 21
26.3532777827
 31
0.0
  0
LINE
  8
0
 62
0
 10
25.3956644494
 20
26.3532777827
 30
0.0
 11
23.6863829075
 21
24.0086668624
 31
0.0
  0
LINE
  8
0
 62
0
 10
23.6863829075
 20
24.0086668624
 30
0.0
 11
21.3106813138
 21
25.7406143032
 31
0.0
  0
LINE
  8
0
 62
0
 10
21.3106813138
 20
25.7406143032
 30
0.0
 11
23.0171513521
 21
28.0813687013
 31
0.0
  0
LINE
  8
0
 62
0
 10
23.0171513521
 20
28.0813687013
 30
0.0
 11
19.0
 21
31.0
 31
0.0
  0
LINE
  8
0
 62
0
 10
19.0
 20
31.0
 30
0.0
 11
14.9341736323
 21
28.0460042324
 31
0.0
  0
LINE
  8
0
 62
0
 10
14.9341736323
 20
28.0460042324
 30
0.0
 11
16.6382729581
 21
25.7005127295
 31
0.0
  0
LINE
  8
0
 62
0
 10
16.6382729581
 20
25.7005127295
 30
0.0
 11
14.2597629947
 21
23.9724240878
 31
0.0
  0
LINE
  8
0
 62
0
 10
14.2597629947
 20
23.9724240878
 30
0.0
 11
12.5556636688
 21
26.3179155906
 31
0.0
  0
LINE
  8
0
 62
0
 10
12.5556636688
 20
26.3179155906
 30
0.0
 11
8.53837832075
 21
23.3991869381
 31
0.0
  0
LINE
  8
0
 62
0
 10
8.53837832075
 20
23.3991869381
 30
0.0
 11
10.0915236619
 21
18.6190970907
 31
0.0
  0
LINE
  8
0
 62
0
 10
10.0915236619
 20
18.6190970907
 30
0.0
 11
12.859157409
 21
19.5043786107
 31
0.0
  0
LINE
  8
0
 62
0
 10
12.859157409
 20
19.5043786107
 30
0.0
 11
13.7548664597
 21
16.7041455317
 31
0.0
  0
LINE
  8
0
 62
0
 10
13.7548664597
 20
16.7041455317
 30
0.0
 11
11.0000431322
 21
15.8229616738
 31
0.0
  0
LINE
  8
0
 62
0
 10
11.0000431322
 20
15.8229616738
 30
0.0
 11
12.5343622248
 21
11.1008130619
 31
0.0
  0
LINE
  8
0
 62
0
 10
12.5343622248
 20
11.1008130619
 30
0.0
 11
17.5594068137
 21
11.1008130619
 31
0.0
  0
LINE
  8
0
 62
0
 10
17.5594068137
 20
11.1008130619
 30
0.0
 11
17.5430565453
 21
13.9918081105
 31
0.0
  0
LINE
  8
0
 62
0
 10
17.5430565453
 20
13.9918081105
 30
0.0
 11
20.4830095275
 21
14.0084352646
 31
0.0
  0
LINE
  8
0
 62
0
 10
20.4830095275
 20
14.0084352646
 30
0.0
 11
20.4994538322
 21
11.1008130619
 31
0.0
  0
LINE
  8
0
 62
0
 10
20.4994538322
 20
11.1008130619
 30
0.0
 11
25.4656377752
 21
11.1008130619
 31
0.0
  0
LINE
  8
0
 62
0
 10
25.4656377752
 20
31.1008130619
 30
0.0
 11
27.0186187713
 21
35.880397107
 31
0.0
  0
LINE
  8
0
 62
0
 10
27.0186187713
 20
35.880397107
 30
0.0
 11
24.2617297037
 21
36.7735897727
 31
0.0
  0
LINE
  8
0
 62
0
 10
24.2617297037
 20
36.7735897727
 30
0.0
 11
25.1678765522
 21
39.5704626495
 31
0.0
  0
LINE
  8
0
 62
0
 10
25.1678765522
 20
39.5704626495
 30
0.0
 11
27.9271290591
 21
38.6765042633
 31
0.0
  0
LINE
  8
0
 62
0
 10
27.9271290591
 20
38.6765042633
 30
0.0
 11
29.4616216792
 21
43.3991869381
 31
0.0
  0
LINE
  8
0
 62
0
 10
29.4616216792
 20
43.3991869381
 30
0.0
 11
25.3956644494
 21
46.3532777827
 31
0.0
  0
LINE
  8
0
 62
0
 10
25.3956644494
 20
46.3532777827
 30
0.0
 11
23.6863829075
 21
44.0086668624
 31
0.0
  0
LINE
  8
0
 62
0
 10
23.6863829075
 20
44.0086668624
 30
0.0
 11
21.3106813138
 21
45.7406143032
 31
0.0
  0
LINE
  8
0
 62
0
 10
21.3106813138
 20
45.7406143032
 30
0.0
 11
23.0171513521
 21
48.0813687013
 31
0.0
  0
LINE
  8
0
 62
0
 10
23.0171513521
 20
48.0813687013
 30
0.0
 11
19.0
 21
51.0
 31
0.0
  0
LINE
  8
0
 62
0
 10
19.0
 20
51.0
 30
0.0
 11
14.9341736323
 21
48.0460042324
 31
0.0
  0
LINE
  8
0
 62
0
 10
14.9341736323
 20
48.0460042324
 30
0.0
 11
16.6382729581
 21
45.7005127295
 31
0.0
  0
LINE
  8
0
 62
0
 10
16.6382729581
 20
45.7005127295
 30
0.0
 11
14.2597629947
 21
43.9724240878
 31
0.0
  0
LINE
  8
0
 62
0
 10
14.2597629947
 20
43.9724240878
 30
0.0
 11
12.5556636688
 21
46.3179155906
 31
0.0
  0
LINE
  8
0
 62
0
 10
12.5556636688
 20
46.3179155906
 30
0.0
 11
8.53837832075
 21
43.3991869381
 31
0.0
  0
LINE
  8
0
 62
0
 10
8.53837832075
 20
43.3991869381
 30
0.0
 11
10.0915236619
 21
38.6190970907
 31
0.0
  0
LINE
  8
0
 62
0
 10
10.0915236619
 20
38.6190970907
 30
0.0
 11
12.859157409
 21
39.5043786107
 31
0.0
  0
LINE
  8
0
 62
0
 10
12.859157409
 20
39.5043786107
 30
0.0
 11
13.7548664597
 21
36.7041455317
 31
0.0
  0
LINE
  8
0
 62
0
 10
13.7548664597
 20
36.7041455317
 30
0.0
 11
11.0000431322
 21
35.8229616738
 31
0.0
  0
LINE
  8
0
 62
0
 10
11.0000431322
 20
35.8229616738
 30
0.0
 11
12.5343622248
 21
31.1008130619
 31
0.0
  0
LINE
  8
0
 62
0
 10
12.5343622248
 20
31.1008130619
 30
0.0
 11
17.5594068137
 21
31.1008130619
 31
0.0
  0
LINE
  8
0
 62
0
 10
17.5594068137
 20
31.1008130619
 30
0.0
 11
17.5430565453
 21
33.9918081105
 31
0.0
  0
LINE
  8
0
 62
0
 10
17.5430565453
 20
33.9918081105
 30
0.0
 11
20.4830095275
 21
34.0084352646
 31
0.0
  0
LINE
  8
0
 62
0
 10
20.4830095275
 20
34.0084352646
 30
0.0
 11
20.4994538322
 21
31.1008130619
 31
0.0
  0
LINE
  8
0
 62
0
 10
20.4994538322
 20
31.1008130619
 30
0.0
 11
25.4656377752
 21
31.1008130619
 31
0.0
  0
LINE
  8
0
 62
0
 10
25.4656377752
 20
51.1008130619
 30
0.0
 11
27.0186187713
 21
55.880397107
 31
0.0
  0
LINE
  8
0
 62
0
 10
27.0186187713
 20
55.880397107
 30
0.0
 11
24.2617297037
 21
56.7735897727
 31
0.0
  0
LINE
  8
0
 62
0
 10
24.2617297037
 20
56.7735897727
 30
0.0
 11
25.1678765522
 21
59.5704626495
 31
0.0
  0
LINE
  8
0
 62
0
 10
25.1678765522
 20
59.5704626495
 30
0.0
 11
27.9271290591
 21
58.6765042633
 31
0.0
  0
LINE
  8
0
 62
0
 10
27.9271290591
 20
58.6765042633
 30
0.0
 11
29.4616216792
 21
63.3991869381
 31
0.0
  0
LINE
  8
0
 62
0
 10
29.4616216792
 20
63.3991869381
 30
0.0
 11
25.3956644494
 21
66.3532777827
 31
0.0
  0
LINE
  8
0
 62
0
 10
25.3956644494
 20
66.3532777827
 30
0.0
 11
23.6863829075
 21
64.0086668624
 31
0.0
  0
LINE
  8
0
 62
0
 10
23.6863829075
 20
64.0086668624
 30
0.0
 11
21.3106813138
 21
65.7406143032
 31
0.0
  0
LINE
  8
0
 62
0
 10
21.3106813138
 20
65.7406143032
 30
0.0
 11
23.0171513521
 21
68.0813687013
 31
0.0
  0
LINE
  8
0
 62
0
 10
23.0171513521
 20
68.0813687013
 30
0.0
 11
19.0
 21
71.0
 31
0.0
  0
LINE
  8
0
 62
0
 10
19.0
 20
71.0
 30
0.0
 11
14.9341736323
 21
68.0460042324
 31
0.0
  0
LINE
  8
0
 62
0
 10
14.9341736323
 20
68.0460042324
 30
0.0
 11
16.6382729581
 21
65.7005127295
 31
0.0
  0
LINE
  8
0
 62
0
 10
16.6382729581
 20
65.7005127295
 30
0.0
 11
14.2597629947
 21
63.9724240878
 31
0.0
  0
LINE
  8
0
 62
0
 10
14.2597629947
 20
63.9724240878
 30
0.0
 11
12.5556636688
 21
66.3179155906
 31
0.0
  0
LINE
  8
0
 62
0
 10
12.5556636688
 20
66.3179155906
 30
0.0
 11
8.53837832075
 21
63.3991869381
 31
0.0
  0
LINE
  8
0
 62
0
 10
8.53837832075
 20
63.3991869381
 30
0.0
 11
10.0915236619
 21
58.6190970907
 31
0.0
  0
LINE
  8
0
 62
0
 10
10.0915236619
 20
58.6190970907
 30
0.0
 11
12.859157409
 21
59.5043786107
 31
0.0
  0
LINE
  8
0
 62
0
 10
12.859157409
 20
59.5043786107
 30
0.0
 11
13.7548664597
 21
56.7041455317
 31
0.0
  0
LINE
  8
0
 62
0
 10
13.7548664597
 20
56.7041455317
 30
0.0
 11
11.0000431322
 21
55.8229616738
 31
0.0
  0
LINE
  8
0
 62
0
 10
11.0000431322
 20
55.8229616738
 30
0.0
 11
12.5343622248
 21
51.1008130619
 31
0.0
  0
LINE
  8
0
 62
0
 10
12.5343622248
 20
51.1008130619
 30
0.0
 11
17.5594068137
 21
51.1008130619
 31
0.0
  0
LINE
  8
0
 62
0
 10
17.5594068137
 20
51.1008130619
 30
0.0
 11
17.5430565453
 21
53.9918081105
 31
0.0
  0
LINE
  8
0
 62
0
 10
17.5430565453
 20
53.9918081105
 30
0.0
 11
20.4830095275
 21
54.0084352646
 31
0.0
  0
LINE
  8
0
 62
0
 10
20.4830095275
 20
54.0084352646
 30
0.0
 11
20.4994538322
 21
51.1008130619
 31
0.0
  0
LINE
  8
0
 62
0
 10
20.4994538322
 20
51.1008130619
 30
0.0
 11
25.4656377752
 21
51.1008130619
 31
0.0
  0
LINE
  8
0
 62
0
 10
25.4656377752
 20
71.1008130619
 30
0.0
 11
27.0186187713
 21
75.880397107
 31
0.0
  0
LINE
  8
0
 62
0
 10
27.0186187713
 20
75.880397107
 30
0.0
 11
24.2617297037
 21
76.7735897727
 31
0.0
  0
LINE
  8
0
 62
0
 10
24.2617297037
 20
76.7735897727
 30
0.0
 11
25.1678765522
 21
79.5704626495
 31
0.0
  0
LINE
  8
0
 62
0
 10
25.1678765522
 20
79.5704626495
 30
0.0
 11
27.9271290591
 21
78.6765042633
 31
0.0
  0
LINE
  8
0
 62
0
 10
27.9271290591
 20
78.6765042633
 30
0.0
 11
29.4616216792
 21
83.3991869381
 31
0.0
  0
LINE
  8
0
 62
0
 10
29.4616216792
 20
83.3991869381
 30
0.0
 11
25.3956644494
 21
86.3532777827
 31
0.0
  0
LINE
  8
0
 62
0
 10
25.3956644494
 20
86.3532777827
 30
0.0
 11
23.6863829075
 21
84.0086668624
 31
0.0
  0
LINE
  8
0
 62
0
 10
23.6863829075
 20
84.0086668624
 30
0.0
 11
21.3106813138
 21
85.7406143032
 31
0.0
  0
LINE
  8
0
 62
0
 10
21.3106813138
 20
85.7406143032
 30
0.0
 11
23.0171513521
 21
88.0813687013
 31
0.0
  0
LINE
  8
0
 62
0
 10
23.0171513521
 20
88.0813687013
 30
0.0
 11
19.0
 21
91.0
 31
0.0
  0
LINE
  8
0
 62
0
 10
19.0
 20
91.0
 30
0.0
 11
14.9341736323
 21
88.0460042324
 31
0.0
  0
LINE
  8
0
 62
0
 10
14.9341736323
 20
88.0460042324
 30
0.0
 11
16.6382729581
 21
85.7005127295
 31
0.0
  0
LINE
  8
0
 62
0
 10
16.6382729581
 20
85.7005127295
 30
0.0
 11
14.2597629947
 21
83.9724240878
 31
0.0
  0
LINE
  8
0
 62
0
 10
14.2597629947
 20
83.9724240878
 30
0.0
 11
12.5556636688
 21
86.3179155906
 31
0.0
  0
LINE
  8
0
 62
0
 10
12.5556636688
 20
86.3179155906
 30
0.0
 11
8.53837832075
 21
83.3991869381
 31
0.0
  0
LINE
  8
0
 62
0
 10
8.53837832075
 20
83.3991869381
 30
0.0
 11
10.0915236619
 21
78.6190970907
 31
0.0
  0
LINE
  8
0
 62
0
 10
10.0915236619
 20
78.6190970907
 30
0.0
 11
12.859157409
 21
79.5043786107
 31
0.0
  0
LINE
  8
0
 62
0
 10
12.859157409
 20
79.5043786107
 30
0.0
 11
13.7548664597
 21
76.7041455317
 31
0.0
  0
LINE
  8
0
 62
0
 10
13.7548664597
 20
76.7041455317
 30
0.0
 11
11.0000431322
 21
75.8229616738
 31
0.0
  0
LINE
  8
0
 62
0
 10
11.0000431322
 20
75.8229616738
 30
0.0
 11
12.5343622248
 21
71.1008130619
 31
0.0
  0
LINE
  8
0
 62
0
 10
12.5343622248
 20
71.1008130619
 30
0.0
 11
17.5594068137
 21
71.1008130619
 31
0.0
  0
LINE
  8
0
 62
0
 10
17.5594068137
 20
71.1008130619
 30
0.0
 11
17.5430565453
 21
73.9918081105
 31
0.0
  0
LINE
  8
0
 62
0
 10
17.5430565453
 20
73.9918081105
 30
0.0
 11
20.4830095275
 21
74.0084352646
 31
0.0
  0
LINE
  8
0
 62
0
 10
20.4830095275
 20
74.0084352646
 30
0.0
 11
20.4994538322
 21
71.1008130619
 31
0.0
  0
LINE
  8
0
 62
0
 10
20.4994538322
 20
71.1008130619
 30
0.0
 11
25.4656377752
 21
71.1008130619
 31
0.0
  0
LINE
  8
0
 62
0
 10
47.4656377752
 20
-8.89918693812
 30
0.0
 11
49.0186187713
 21
-4.11960289296
 31
0.0
  0
LINE
  8
0
 62
0
 10
49.0186187713
 20
-4.11960289296
 30
0.0
 11
46.2617297037
 21
-3.22641022734
 31
0.0
  0
LINE
  8
0
 62
0
 10
46.2617297037
 20
-3.22641022734
 30
0.0
 11
47.1678765522
 21
-0.429537350549
 31
0.0
  0
LINE
  8
0
 62
0
 10
47.1678765522
 20
-0.429537350549
 30
0.0
 11
49.9271290591
 21
-1.32349573674
 31
0.0
  0
LINE
  8
0
 62
0
 10
49.9271290591
 20
-1.32349573674
 30
0.0
 11
51.4616216792
 21
3.39918693812
 31
0.0
  0
LINE
  8
0
 62
0
 10
51.4616216792
 20
3.39918693812
 30
0.0
 11
47.3956644494
 21
6.35327778266
 31
0.0
  0
LINE
  8
0
 62
0
 10
47.3956644494
 20
6.35327778266
 30
0.0
 11
45.6863829075
 21
4.00866686237
 31
0.0
  0
LINE
  8
0
 62
0
 10
45.6863829075
 20
4.00866686237
 30
0.0
 11
43.3106813138
 21
5.7406143032
 31
0.0
  0
LINE
  8
0
 62
0
 10
43.3106813138
 20
5.7406143032
 30
0.0
 11
45.0171513521
 21
8.0813687013
 31
0.0
  0
LINE
  8
0
 62
0
 10
45.0171513521
 20
8.0813687013
 30
0.0
 11
41.0
 21
11.0
 31
0.0
  0
LINE
  8
0
 62
0
 10
41.0
 20
11.0
 30
0.0
 11
36.9341736323
 21
8.04600423237
 31
0.0
  0
LINE
  8
0
 62
0
 10
36.9341736323
 20
8.04600423237
 30
0.0
 11
38.6382729581
 21
5.70051272955
 31
0.0
  0
LINE
  8
0
 62
0
 10
38.6382729581
 20
5.70051272955
 30
0.0
 11
36.2597629947
 21
3.97242408781
 31
0.0
  0
LINE
  8
0
 62
0
 10
36.2597629947
 20
3.97242408781
 30
0.0
 11
34.5556636688
 21
6.31791559063
 31
0.0
  0
LINE
  8
0
 62
0
 10
34.5556636688
 20
6.31791559063
 30
0.0
 11
30.5383783208
 21
3.39918693812
 31
0.0
  0
LINE
  8
0
 62
0
 10
30.5383783208
 20
3.39918693812
 30
0.0
 11
32.0915236619
 21
-1.3809029093
 31
0.0
  0
LINE
  8
0
 62
0
 10
32.0915236619
 20
-1.3809029093
 30
0.0
 11
34.859157409
 21
-0.495621389338
 31
0.0
  0
LINE
  8
0
 62
0
 10
34.859157409
 20
-0.495621389338
 30
0.0
 11
35.7548664597
 21
-3.29585446828
 31
0.0
  0
LINE
  8
0
 62
0
 10
35.7548664597
 20
-3.29585446828
 30
0.0
 11
33.0000431322
 21
-4.17703832622
 31
0.0
  0
LINE
  8
0
 62
0
 10
33.0000431322
 20
-4.17703832622
 30
0.0
 11
34.5343622248
 21
-8.89918693812
 31
0.0
  0
LINE
  8
0
 62
0
 10
34.5343622248
 20
-8.89918693812
 30
0.0
 11
39.5594068137
 21
-8.89918693812
 31
0.0
  0
LINE
  8
0
 62
0
 10
39.5594068137
 20
-8.89918693812
 30
0.0
 11
39.5430565453
 21
-6.00819188954
 31
0.0
  0
LINE
  8
0
 62
0
 10
39.5430565453
 20
-6.00819188954
 30
0.0
 11
42.4830095275
 21
-5.99156473536
 31
0.0
  0
LINE
  8
0
 62
0
 10
42.4830095275
 20
-5.99156473536
 30
0.0
 11
42.4994538322
 21
-8.89918693812
 31
0.0
  0
LINE
  8
0
 62
0
 10
42.4994538322
 20
-8.89918693812
 30
0.0
 11
47.4656377752
 21
-8.89918693812
 31
0.0
  0
LINE
  8
0
 62
0
 10
47.4656377752
 20
11.1008130619
 30
0.0
 11
49.0186187713
 21
15.880397107
 31
0.0
  0
LINE
  8
0
 62
0
 10
49.0186187713
 20
15.880397107
 30
0.0
 11
46.2617297037
 21
16.7735897727
 31
0.0
  0
LINE
  8
0
 62
0
 10
46.2617297037
 20
16.7735897727
 30
0.0
 11
47.1678765522
 21
19.5704626495
 31
0.0
  0
LINE
  8
0
 62
0
 10
47.1678765522
 20
19.5704626495
 30
0.0
 11
49.9271290591
 21
18.6765042633
 31
0.0
  0
LINE
  8
0
 62
0
 10
49.9271290591
 20
18.6765042633
 30
0.0
 11
51.4616216792
 21
23.3991869381
 31
0.0
  0
LINE
  8
0
 62
0
 10
51.4616216792
 20
23.3991869381
 30
0.0
 11
47.3956644494
 21
26.3532777827
 31
0.0
  0
LINE
  8
0
 62
0
 10
47.3956644494
 20
26.3532777827
 30
0.0
 11
45.6863829075
 21
24.0086668624
 31
0.0
  0
LINE
  8
0
 62
0
 10
45.6863829075
 20
24.0086668624
 30
0.0
 11
43.3106813138
 21
25.7406143032
 31
0.0
  0
LINE
  8
0
 62
0
 10
43.3106813138
 20
25.7406143032
 30
0.0
 11
45.0171513521
 21
28.0813687013
 31
0.0
  0
LINE
  8
0
 62
0
 10
45.0171513521
 20
28.0813687013
 30
0.0
 11
41.0
 21
31.0
 31
0.0
  0
LINE
  8
0
 62
0
 10
41.0
 20
31.0
 30
0.0
 11
36.9341736323
 21
28.0460042324
 31
0.0
  0
LINE
  8
0
 62
0
 10
36.9341736323
 20
28.0460042324
 30
0.0
 11
38.6382729581
 21
25.7005127295
 31
0.0
  0
LINE
  8
0
 62
0
 10
38.6382729581
 20
25.7005127295
 30
0.0
 11
36.2597629947
 21
23.9724240878
 31
0.0
  0
LINE
  8
0
 62
0
 10
36.2597629947
 20
23.9724240878
 30
0.0
 11
34.5556636688
 21
26.3179155906
 31
0.0
  0
LINE
  8
0
 62
0
 10
34.5556636688
 20
26.3179155906
 30
0.0
 11
30.5383783208
 21
23.3991869381
 31
0.0
  0
LINE
  8
0
 62
0
 10
30.5383783208
 20
23.3991869381
 30
0.0
 11
32.0915236619
 21
18.6190970907
 31
0.0
  0
LINE
  8
0
 62
0
 10
32.0915236619
 20
18.6190970907
 30
0.0
 11
34.859157409
 21
19.5043786107
 31
0.0
  0
LINE
  8
0
 62
0
 10
34.859157409
 20
19.5043786107
 30
0.0
 11
35.7548664597
 21
16.7041455317
 31
0.0
  0
LINE
  8
0
 62
0
 10
35.7548664597
 20
16.7041455317
 30
0.0
 11
33.0000431322
 21
15.8229616738
 31
0.0
  0
LINE
  8
0
 62
0
 10
33.0000431322
 20
15.8229616738
 30
0.0
 11
34.5343622248
 21
11.1008130619
 31
0.0
  0
LINE
  8
0
 62
0
 10
34.5343622248
 20
11.1008130619
 30
0.0
 11
39.5594068137
 21
11.1008130619
 31
0.0
  0
LINE
  8
0
 62
0
 10
39.5594068137
 20
11.1008130619
 30
0.0
 11
39.5430565453
 21
13.9918081105
 31
0.0
  0
LINE
  8
0
 62
0
 10
39.5430565453
 20
13.9918081105
 30
0.0
 11
42.4830095275
 21
14.0084352646
 31
0.0
  0
LINE
  8
0
 62
0
 10
42.4830095275
 20
14.0084352646
 30
0.0
 11
42.4994538322
 21
11.1008130619
 31
0.0
  0
LINE
  8
0
 62
0
 10
42.4994538322
 20
11.1008130619
 30
0.0
 11
47.4656377752
 21
11.1008130619
 31
0.0
  0
LINE
  8
0
 62
0
 10
47.4656377752
 20
31.1008130619
 30
0.0
 11
49.0186187713
 21
35.880397107
 31
0.0
  0
LINE
  8
0
 62
0
 10
49.0186187713
 20
35.880397107
 30
0.0
 11
46.2617297037
 21
36.7735897727
 31
0.0
  0
LINE
  8
0
 62
0
 10
46.2617297037
 20
36.7735897727
 30
0.0
 11
47.1678765522
 21
39.5704626495
 31
0.0
  0
LINE
  8
0
 62
0
 10
47.1678765522
 20
39.5704626495
 30
0.0
 11
49.9271290591
 21
38.6765042633
 31
0.0
  0
LINE
  8
0
 62
0
 10
49.9271290591
 20
38.6765042633
 30
0.0
 11
51.4616216792
 21
43.3991869381
 31
0.0
  0
LINE
  8
0
 62
0
 10
51.4616216792
 20
43.3991869381
 30
0.0
 11
47.3956644494
 21
46.3532777827
 31
0.0
  0
LINE
  8
0
 62
0
 10
47.3956644494
 20
46.3532777827
 30
0.0
 11
45.6863829075
 21
44.0086668624
 31
0.0
  0
LINE
  8
0
 62
0
 10
45.6863829075
 20
44.0086668624
 30
0.0
 11
43.3106813138
 21
45.7406143032
 31
0.0
  0
LINE
  8
0
 62
0
 10
43.3106813138
 20
45.7406143032
 30
0.0
 11
45.0171513521
 21
48.0813687013
 31
0.0
  0
LINE
  8
0
 62
0
 10
45.0171513521
 20
48.0813687013
 30
0.0
 11
41.0
 21
51.0
 31
0.0
  0
LINE
  8
0
 62
0
 10
41.0
 20
51.0
 30
0.0
 11
36.9341736323
 21
48.0460042324
 31
0.0
  0
LINE
  8
0
 62
0
 10
36.9341736323
 20
48.0460042324
 30
0.0
 11
38.6382729581
 21
45.7005127295
 31
0.0
  0
LINE
  8
0
 62
0
 10
38.6382729581
 20
45.7005127295
 30
0.0
 11
36.2597629947
 21
43.9724240878
 31
0.0
  0
LINE
  8
0
 62
0
 10
36.2597629947
 20
43.9724240878
 30
0.0
 11
34.5556636688
 21
46.3179155906
 31
0.0
  0
LINE
  8
0
 62
0
 10
34.5556636688
 20
46.3179155906
 30
0.0
 11
30.5383783208
 21
43.3991869381
 31
0.0
  0
LINE
  8
0
 62
0
 10
30.5383783208
 20
43.3991869381
 30
0.0
 11
32.0915236619
 21
38.6190970907
 31
0.0
  0
LINE
  8
0
 62
0
 10
32.0915236619
 20
38.6190970907
 30
0.0
 11
34.859157409
 21
39.5043786107
 31
0.0
  0
LINE
  8
0
 62
0
 10
34.859157409
 20
39.5043786107
 30
0.0
 11
35.7548664597
 21
36.7041455317
 31
0.0
  0
LINE
  8
0
 62
0
 10
35.7548664597
 20
36.7041455317
 30
0.0
 11
33.0000431322
 21
35.8229616738
 31
0.0
  0
LINE
  8
0
 62
0
 10
33.0000431322
 20
35.8229616738
 30
0.0
 11
34.5343622248
 21
31.1008130619
 31
0.0
  0
LINE
  8
0
 62
0
 10
34.5343622248
 20
31.1008130619
 30
0.0
 11
39.5594068137
 21
31.1008130619
 31
0.0
  0
LINE
  8
0
 62
0
 10
39.5594068137
 20
31.1008130619
 30
0.0
 11
39.5430565453
 21
33.9918081105
 31
0.0
  0
LINE
  8
0
 62
0
 10
39.5430565453
 20
33.9918081105
 30
0.0
 11
42.4830095275
 21
34.0084352646
 31
0.0
  0
LINE
  8
0
 62
0
 10
42.4830095275
 20
34.0084352646
 30
0.0
 11
42.4994538322
 21
31.1008130619
 31
0.0
  0
LINE
  8
0
 62
0
 10
42.4994538322
 20
31.1008130619
 30
0.0
 11
47.4656377752
 21
31.1008130619
 31
0.0
  0
LINE
  8
0
 62
0
 10
47.4656377752
 20
51.1008130619
 30
0.0
 11
49.0186187713
 21
55.880397107
 31
0.0
  0
LINE
  8
0
 62
0
 10
49.0186187713
 20
55.880397107
 30
0.0
 11
46.2617297037
 21
56.7735897727
 31
0.0
  0
LINE
  8
0
 62
0
 10
46.2617297037
 20
56.7735897727
 30
0.0
 11
47.1678765522
 21
59.5704626495
 31
0.0
  0
LINE
  8
0
 62
0
 10
47.1678765522
 20
59.5704626495
 30
0.0
 11
49.9271290591
 21
58.6765042633
 31
0.0
  0
LINE
  8
0
 62
0
 10
49.9271290591
 20
58.6765042633
 30
0.0
 11
51.4616216792
 21
63.3991869381
 31
0.0
  0
LINE
  8
0
 62
0
 10
51.4616216792
 20
63.3991869381
 30
0.0
 11
47.3956644494
 21
66.3532777827
 31
0.0
  0
LINE
  8
0
 62
0
 10
47.3956644494
 20
66.3532777827
 30
0.0
 11
45.6863829075
 21
64.0086668624
 31
0.0
  0
LINE
  8
0
 62
0
 10
45.6863829075
 20
64.0086668624
 30
0.0
 11
43.3106813138
 21
65.7406143032
 31
0.0
  0
LINE
  8
0
 62
0
 10
43.3106813138
 20
65.7406143032
 30
0.0
 11
45.0171513521
 21
68.0813687013
 31
0.0
  0
LINE
  8
0
 62
0
 10
45.0171513521
 20
68.0813687013
 30
0.0
 11
41.0
 21
71.0
 31
0.0
  0
LINE
  8
0
 62
0
 10
41.0
 20
71.0
 30
0.0
 11
36.9341736323
 21
68.0460042324
 31
0.0
  0
LINE
  8
0
 62
0
 10
36.9341736323
 20
68.0460042324
 30
0.0
 11
38.6382729581
 21
65.7005127295
 31
0.0
  0
LINE
  8
0
 62
0
 10
38.6382729581
 20
65.7005127295
 30
0.0
 11
36.2597629947
 21
63.9724240878
 31
0.0
  0
LINE
  8
0
 62
0
 10
36.2597629947
 20
63.9724240878
 30
0.0
 11
34.5556636688
 21
66.3179155906
 31
0.0
  0
LINE
  8
0
 62
0
 10
34.5556636688
 20
66.3179155906
 30
0.0
 11
30.5383783208
 21
63.3991869381
 31
0.0
  0
LINE
  8
0
 62
0
 10
30.5383783208
 20
63.3991869381
 30
0.0
 11
32.0915236619
 21
58.6190970907
 31
0.0
  0
LINE
  8
0
 62
0
 10
32.0915236619
 20
58.6190970907
 30
0.0
 11
34.859157409
 21
59.5043786107
 31
0.0
  0
LINE
  8
0
 62
0
 10
34.859157409
 20
59.5043786107
 30
0.0
 11
35.7548664597
 21
56.7041455317
 31
0.0
  0
LINE
  8
0
 62
0
 10
35.7548664597
 20
56.7041455317
 30
0.0
 11
33.0000431322
 21
55.8229616738
 31
0.0
  0
LINE
  8
0
 62
0
 10
33.0000431322
 20
55.8229616738
 30
0.0
 11
34.5343622248
 21
51.1008130619
 31
0.0
  0
LINE
  8
0
 62
0
 10
34.5343622248
 20
51.1008130619
 30
0.0
 11
39.5594068137
 21
51.1008130619
 31
0.0
  0
LINE
  8
0
 62
0
 10
39.5594068137
 20
51.1008130619
 30
0.0
 11
39.5430565453
 21
53.9918081105
 31
0.0
  0
LINE
  8
0
 62
0
 10
39.5430565453
 20
53.9918081105
 30
0.0
 11
42.4830095275
 21
54.0084352646
 31
0.0
  0
LINE
  8
0
 62
0
 10
42.4830095275
 20
54.0084352646
 30
0.0
 11
42.4994538322
 21
51.1008130619
 31
0.0
  0
LINE
  8
0
 62
0
 10
42.4994538322
 20
51.1008130619
 30
0.0
 11
47.4656377752
 21
51.1008130619
 31
0.0
  0
LINE
  8
0
 62
0
 10
47.4656377752
 20
71.1008130619
 30
0.0
 11
49.0186187713
 21
75.880397107
 31
0.0
  0
LINE
  8
0
 62
0
 10
49.0186187713
 20
75.880397107
 30
0.0
 11
46.2617297037
 21
76.7735897727
 31
0.0
  0
LINE
  8
0
 62
0
 10
46.2617297037
 20
76.7735897727
 30
0.0
 11
47.1678765522
 21
79.5704626495
 31
0.0
  0
LINE
  8
0
 62
0
 10
47.1678765522
 20
79.5704626495
 30
0.0
 11
49.9271290591
 21
78.6765042633
 31
0.0
  0
LINE
  8
0
 62
0
 10
49.9271290591
 20
78.6765042633
 30
0.0
 11
51.4616216792
 21
83.3991869381
 31
0.0
  0
LINE
  8
0
 62
0
 10
51.4616216792
 20
83.3991869381
 30
0.0
 11
47.3956644494
 21
86.3532777827
 31
0.0
  0
LINE
  8
0
 62
0
 10
47.3956644494
 20
86.3532777827
 30
0.0
 11
45.6863829075
 21
84.0086668624
 31
0.0
  0
LINE
  8
0
 62
0
 10
45.6863829075
 20
84.0086668624
 30
0.0
 11
43.3106813138
 21
85.7406143032
 31
0.0
  0
LINE
  8
0
 62
0
 10
43.3106813138
 20
85.7406143032
 30
0.0
 11
45.0171513521
 21
88.0813687013
 31
0.0
  0
LINE
  8
0
 62
0
 10
45.0171513521
 20
88.0813687013
 30
0.0
 11
41.0
 21
91.0
 31
0.0
  0
LINE
  8
0
 62
0
 10
41.0
 20
91.0
 30
0.0
 11
36.9341736323
 21
88.0460042324
 31
0.0
  0
LINE
  8
0
 62
0
 10
36.9341736323
 20
88.0460042324
 30
0.0
 11
38.6382729581
 21
85.7005127295
 31
0.0
  0
LINE
  8
0
 62
0
 10
38.6382729581
 20
85.7005127295
 30
0.0
 11
36.2597629947
 21
83.9724240878
 31
0.0
  0
LINE
  8
0
 62
0
 10
36.2597629947
 20
83.9724240878
 30
0.0
 11
34.5556636688
 21
86.3179155906
 31
0.0
  0
LINE
  8
0
 62
0
 10
34.5556636688
 20
86.3179155906
 30
0.0
 11
30.5383783208
 21
83.3991869381
 31
0.0
  0
LINE
  8
0
 62
0
 10
30.5383783208
 20
83.3991869381
 30
0.0
 11
32.0915236619
 21
78.6190970907
 31
0.0
  0
LINE
  8
0
 62
0
 10
32.0915236619
 20
78.6190970907
 30
0.0
 11
34.859157409
 21
79.5043786107
 31
0.0
  0
LINE
  8
0
 62
0
 10
34.859157409
 20
79.5043786107
 30
0.0
 11
35.7548664597
 21
76.7041455317
 31
0.0
  0
LINE
  8
0
 62
0
 10
35.7548664597
 20
76.7041455317
 30
0.0
 11
33.0000431322
 21
75.8229616738
 31
0.0
  0
LINE
  8
0
 62
0
 10
33.0000431322
 20
75.8229616738
 30
0.0
 11
34.5343622248
 21
71.1008130619
 31
0.0
  0
LINE
  8
0
 62
0
 10
34.5343622248
 20
71.1008130619
 30
0.0
 11
39.5594068137
 21
71.1008130619
 31
0.0
  0
LINE
  8
0
 62
0
 10
39.5594068137
 20
71.1008130619
 30
0.0
 11
39.5430565453
 21
73.9918081105
 31
0.0
  0
LINE
  8
0
 62
0
 10
39.5430565453
 20
73.9918081105
 30
0.0
 11
42.4830095275
 21
74.0084352646
 31
0.0
  0
LINE
  8
0
 62
0
 10
42.4830095275
 20
74.0084352646
 30
0.0
 11
42.4994538322
 21
71.1008130619
 31
0.0
  0
LINE
  8
0
 62
0
 10
42.4994538322
 20
71.1008130619
 30
0.0
 11
47.4656377752
 21
71.1008130619
 31
0.0
  0
LINE
  8
0
 62
0
 10
69.4656377752
 20
-8.89918693812
 30
0.0
 11
71.0186187713
 21
-4.11960289296
 31
0.0
  0
LINE
  8
0
 62
0
 10
71.0186187713
 20
-4.11960289296
 30
0.0
 11
68.2617297037
 21
-3.22641022734
 31
0.0
  0
LINE
  8
0
 62
0
 10
68.2617297037
 20
-3.22641022734
 30
0.0
 11
69.1678765522
 21
-0.429537350549
 31
0.0
  0
LINE
  8
0
 62
0
 10
69.1678765522
 20
-0.429537350549
 30
0.0
 11
71.9271290591
 21
-1.32349573674
 31
0.0
  0
LINE
  8
0
 62
0
 10
71.9271290591
 20
-1.32349573674
 30
0.0
 11
73.4616216792
 21
3.39918693812
 31
0.0
  0
LINE
  8
0
 62
0
 10
73.4616216792
 20
3.39918693812
 30
0.0
 11
69.3956644494
 21
6.35327778266
 31
0.0
  0
LINE
  8
0
 62
0
 10
69.3956644494
 20
6.35327778266
 30
0.0
 11
67.6863829075
 21
4.00866686237
 31
0.0
  0
LINE
  8
0
 62
0
 10
67.6863829075
 20
4.00866686237
 30
0.0
 11
65.3106813138
 21
5.7406143032
 31
0.0
  0
LINE
  8
0
 62
0
 10
65.3106813138
 20
5.7406143032
 30
0.0
 11
67.0171513521
 21
8.0813687013
 31
0.0
  0
LINE
  8
0
 62
0
 10
67.0171513521
 20
8.0813687013
 30
0.0
 11
63.0
 21
11.0
 31
0.0
  0
LINE
  8
0
 62
0
 10
63.0
 20
11.0
 30
0.0
 11
58.9341736323
 21
8.04600423237
 31
0.0
  0
LINE
  8
0
 62
0
 10
58.9341736323
 20
8.04600423237
 30
0.0
 11
60.6382729581
 21
5.70051272955
 31
0.0
  0
LINE
  8
0
 62
0
 10
60.6382729581
 20
5.70051272955
 30
0.0
 11
58.2597629947
 21
3.97242408781
 31
0.0
  0
LINE
  8
0
 62
0
 10
58.2597629947
 20
3.97242408781
 30
0.0
 11
56.5556636688
 21
6.31791559063
 31
0.0
  0
LINE
  8
0
 62
0
 10
56.5556636688
 20
6.31791559063
 30
0.0
 11
52.5383783208
 21
3.39918693812
 31
0.0
  0
LINE
  8
0
 62
0
 10
52.5383783208
 20
3.39918693812
 30
0.0
 11
54.0915236619
 21
-1.3809029093
 31
0.0
  0
LINE
  8
0
 62
0
 10
54.0915236619
 20
-1.3809029093
 30
0.0
 11
56.859157409
 21
-0.495621389338
 31
0.0
  0
LINE
  8
0
 62
0
 10
56.859157409
 20
-0.495621389338
 30
0.0
 11
57.7548664597
 21
-3.29585446828
 31
0.0
  0
LINE
  8
0
 62
0
 10
57.7548664597
 20
-3.29585446828
 30
0.0
 11
55.0000431322
 21
-4.17703832622
 31
0.0
  0
LINE
  8
0
 62
0
 10
55.0000431322
 20
-4.17703832622
 30
0.0
 11
56.5343622248
 21
-8.89918693812
 31
0.0
  0
LINE
  8
0
 62
0
 10
56.5343622248
 20
-8.89918693812
 30
0.0
 11
61.5594068137
 21
-8.89918693812
 31
0.0
  0
LINE
  8
0
 62
0
 10
61.5594068137
 20
-8.89918693812
 30
0.0
 11
61.5430565453
 21
-6.00819188954
 31
0.0
  0
LINE
  8
0
 62
0
 10
61.5430565453
 20
-6.00819188954
 30
0.0
 11
64.4830095275
 21
-5.99156473536
 31
0.0
  0
LINE
  8
0
 62
0
 10
64.4830095275
 20
-5.99156473536
 30
0.0
 11
64.4994538322
 21
-8.89918693812
 31
0.0
  0
LINE
  8
0
 62
0
 10
64.4994538322
 20
-8.89918693812
 30
0.0
 11
69.4656377752
 21
-8.89918693812
 31
0.0
  0
LINE
  8
0
 62
0
 10
69.4656377752
 20
11.1008130619
 30
0.0
 11
71.0186187713
 21
15.880397107
 31
0.0
  0
LINE
  8
0
 62
0
 10
71.0186187713
 20
15.880397107
 30
0.0
 11
68.2617297037
 21
16.7735897727
 31
0.0
  0
LINE
  8
0
 62
0
 10
68.2617297037
 20
16.7735897727
 30
0.0
 11
69.1678765522
 21
19.5704626495
 31
0.0
  0
LINE
  8
0
 62
0
 10
69.1678765522
 20
19.5704626495
 30
0.0
 11
71.9271290591
 21
18.6765042633
 31
0.0
  0
LINE
  8
0
 62
0
 10
71.9271290591
 20
18.6765042633
 30
0.0
 11
73.4616216792
 21
23.3991869381
 31
0.0
  0
LINE
  8
0
 62
0
 10
73.4616216792
 20
23.3991869381
 30
0.0
 11
69.3956644494
 21
26.3532777827
 31
0.0
  0
LINE
  8
0
 62
0
 10
69.3956644494
 20
26.3532777827
 30
0.0
 11
67.6863829075
 21
24.0086668624
 31
0.0
  0
LINE
  8
0
 62
0
 10
67.6863829075
 20
24.0086668624
 30
0.0
 11
65.3106813138
 21
25.7406143032
 31
0.0
  0
LINE
  8
0
 62
0
 10
65.3106813138
 20
25.7406143032
 30
0.0
 11
67.0171513521
 21
28.0813687013
 31
0.0
  0
LINE
  8
0
 62
0
 10
67.0171513521
 20
28.0813687013
 30
0.0
 11
63.0
 21
31.0
 31
0.0
  0
LINE
  8
0
 62
0
 10
63.0
 20
31.0
 30
0.0
 11
58.9341736323
 21
28.0460042324
 31
0.0
  0
LINE
  8
0
 62
0
 10
58.9341736323
 20
28.0460042324
 30
0.0
 11
60.6382729581
 21
25.7005127295
 31
0.0
  0
LINE
  8
0
 62
0
 10
60.6382729581
 20
25.7005127295
 30
0.0
 11
58.2597629947
 21
23.9724240878
 31
0.0
  0
LINE
  8
0
 62
0
 10
58.2597629947
 20
23.9724240878
 30
0.0
 11
56.5556636688
 21
26.3179155906
 31
0.0
  0
LINE
  8
0
 62
0
 10
56.5556636688
 20
26.3179155906
 30
0.0
 11
52.5383783208
 21
23.3991869381
 31
0.0
  0
LINE
  8
0
 62
0
 10
52.5383783208
 20
23.3991869381
 30
0.0
 11
54.0915236619
 21
18.6190970907
 31
0.0
  0
LINE
  8
0
 62
0
 10
54.0915236619
 20
18.6190970907
 30
0.0
 11
56.859157409
 21
19.5043786107
 31
0.0
  0
LINE
  8
0
 62
0
 10
56.859157409
 20
19.5043786107
 30
0.0
 11
57.7548664597
 21
16.7041455317
 31
0.0
  0
LINE
  8
0
 62
0
 10
57.7548664597
 20
16.7041455317
 30
0.0
 11
55.0000431322
 21
15.8229616738
 31
0.0
  0
LINE
  8
0
 62
0
 10
55.0000431322
 20
15.8229616738
 30
0.0
 11
56.5343622248
 21
11.1008130619
 31
0.0
  0
LINE
  8
0
 62
0
 10
56.5343622248
 20
11.1008130619
 30
0.0
 11
61.5594068137
 21
11.1008130619
 31
0.0
  0
LINE
  8
0
 62
0
 10
61.5594068137
 20
11.1008130619
 30
0.0
 11
61.5430565453
 21
13.9918081105
 31
0.0
  0
LINE
  8
0
 62
0
 10
61.5430565453
 20
13.9918081105
 30
0.0
 11
64.4830095275
 21
14.0084352646
 31
0.0
  0
LINE
  8
0
 62
0
 10
64.4830095275
 20
14.0084352646
 30
0.0
 11
64.4994538322
 21
11.1008130619
 31
0.0
  0
LINE
  8
0
 62
0
 10
64.4994538322
 20
11.1008130619
 30
0.0
 11
69.4656377752
 21
11.1008130619
 31
0.0
  0
LINE
  8
0
 62
0
 10
69.4656377752
 20
31.1008130619
 30
0.0
 11
71.0186187713
 21
35.880397107
 31
0.0
  0
LINE
  8
0
 62
0
 10
71.0186187713
 20
35.880397107
 30
0.0
 11
68.2617297037
 21
36.7735897727
 31
0.0
  0
LINE
  8
0
 62
0
 10
68.2617297037
 20
36.7735897727
 30
0.0
 11
69.1678765522
 21
39.5704626495
 31
0.0
  0
LINE
  8
0
 62
0
 10
69.1678765522
 20
39.5704626495
 30
0.0
 11
71.9271290591
 21
38.6765042633
 31
0.0
  0
LINE
  8
0
 62
0
 10
71.9271290591
 20
38.6765042633
 30
0.0
 11
73.4616216792
 21
43.3991869381
 31
0.0
  0
LINE
  8
0
 62
0
 10
73.4616216792
 20
43.3991869381
 30
0.0
 11
69.3956644494
 21
46.3532777827
 31
0.0
  0
LINE
  8
0
 62
0
 10
69.3956644494
 20
46.3532777827
 30
0.0
 11
67.6863829075
 21
44.0086668624
 31
0.0
  0
LINE
  8
0
 62
0
 10
67.6863829075
 20
44.0086668624
 30
0.0
 11
65.3106813138
 21
45.7406143032
 31
0.0
  0
LINE
  8
0
 62
0
 10
65.3106813138
 20
45.7406143032
 30
0.0
 11
67.0171513521
 21
48.0813687013
 31
0.0
  0
LINE
  8
0
 62
0
 10
67.0171513521
 20
48.0813687013
 30
0.0
 11
63.0
 21
51.0
 31
0.0
  0
LINE
  8
0
 62
0
 10
63.0
 20
51.0
 30
0.0
 11
58.9341736323
 21
48.0460042324
 31
0.0
  0
LINE
  8
0
 62
0
 10
58.9341736323
 20
48.0460042324
 30
0.0
 11
60.6382729581
 21
45.7005127295
 31
0.0
  0
LINE
  8
0
 62
0
 10
60.6382729581
 20
45.7005127295
 30
0.0
 11
58.2597629947
 21
43.9724240878
 31
0.0
  0
LINE
  8
0
 62
0
 10
58.2597629947
 20
43.9724240878
 30
0.0
 11
56.5556636688
 21
46.3179155906
 31
0.0
  0
LINE
  8
0
 62
0
 10
56.5556636688
 20
46.3179155906
 30
0.0
 11
52.5383783208
 21
43.3991869381
 31
0.0
  0
LINE
  8
0
 62
0
 10
52.5383783208
 20
43.3991869381
 30
0.0
 11
54.0915236619
 21
38.6190970907
 31
0.0
  0
LINE
  8
0
 62
0
 10
54.0915236619
 20
38.6190970907
 30
0.0
 11
56.859157409
 21
39.5043786107
 31
0.0
  0
LINE
  8
0
 62
0
 10
56.859157409
 20
39.5043786107
 30
0.0
 11
57.7548664597
 21
36.7041455317
 31
0.0
  0
LINE
  8
0
 62
0
 10
57.7548664597
 20
36.7041455317
 30
0.0
 11
55.0000431322
 21
35.8229616738
 31
0.0
  0
LINE
  8
0
 62
0
 10
55.0000431322
 20
35.8229616738
 30
0.0
 11
56.5343622248
 21
31.1008130619
 31
0.0
  0
LINE
  8
0
 62
0
 10
56.5343622248
 20
31.1008130619
 30
0.0
 11
61.5594068137
 21
31.1008130619
 31
0.0
  0
LINE
  8
0
 62
0
 10
61.5594068137
 20
31.1008130619
 30
0.0
 11
61.5430565453
 21
33.9918081105
 31
0.0
  0
LINE
  8
0
 62
0
 10
61.5430565453
 20
33.9918081105
 30
0.0
 11
64.4830095275
 21
34.0084352646
 31
0.0
  0
LINE
  8
0
 62
0
 10
64.4830095275
 20
34.0084352646
 30
0.0
 11
64.4994538322
 21
31.1008130619
 31
0.0
  0
LINE
  8
0
 62
0
 10
64.4994538322
 20
31.1008130619
 30
0.0
 11
69.4656377752
 21
31.1008130619
 31
0.0
  0
LINE
  8
0
 62
0
 10
69.4656377752
 20
51.1008130619
 30
0.0
 11
71.0186187713
 21
55.880397107
 31
0.0
  0
LINE
  8
0
 62
0
 10
71.0186187713
 20
55.880397107
 30
0.0
 11
68.2617297037
 21
56.7735897727
 31
0.0
  0
LINE
  8
0
 62
0
 10
68.2617297037
 20
56.7735897727
 30
0.0
 11
69.1678765522
 21
59.5704626495
 31
0.0
  0
LINE
  8
0
 62
0
 10
69.1678765522
 20
59.5704626495
 30
0.0
 11
71.9271290591
 21
58.6765042633
 31
0.0
  0
LINE
  8
0
 62
0
 10
71.9271290591
 20
58.6765042633
 30
0.0
 11
73.4616216792
 21
63.3991869381
 31
0.0
  0
LINE
  8
0
 62
0
 10
73.4616216792
 20
63.3991869381
 30
0.0
 11
69.3956644494
 21
66.3532777827
 31
0.0
  0
LINE
  8
0
 62
0
 10
69.3956644494
 20
66.3532777827
 30
0.0
 11
67.6863829075
 21
64.0086668624
 31
0.0
  0
LINE
  8
0
 62
0
 10
67.6863829075
 20
64.0086668624
 30
0.0
 11
65.3106813138
 21
65.7406143032
 31
0.0
  0
LINE
  8
0
 62
0
 10
65.3106813138
 20
65.7406143032
 30
0.0
 11
67.0171513521
 21
68.0813687013
 31
0.0
  0
LINE
  8
0
 62
0
 10
67.0171513521
 20
68.0813687013
 30
0.0
 11
63.0
 21
71.0
 31
0.0
  0
LINE
  8
0
 62
0
 10
63.0
 20
71.0
 30
0.0
 11
58.9341736323
 21
68.0460042324
 31
0.0
  0
LINE
  8
0
 62
0
 10
58.9341736323
 20
68.0460042324
 30
0.0
 11
60.6382729581
 21
65.7005127295
 31
0.0
  0
LINE
  8
0
 62
0
 10
60.6382729581
 20
65.7005127295
 30
0.0
 11
58.2597629947
 21
63.9724240878
 31
0.0
  0
LINE
  8
0
 62
0
 10
58.2597629947
 20
63.9724240878
 30
0.0
 11
56.5556636688
 21
66.3179155906
 31
0.0
  0
LINE
  8
0
 62
0
 10
56.5556636688
 20
66.3179155906
 30
0.0
 11
52.5383783208
 21
63.3991869381
 31
0.0
  0
LINE
  8
0
 62
0
 10
52.5383783208
 20
63.3991869381
 30
0.0
 11
54.0915236619
 21
58.6190970907
 31
0.0
  0
LINE
  8
0
 62
0
 10
54.0915236619
 20
58.6190970907
 30
0.0
 11
56.859157409
 21
59.5043786107
 31
0.0
  0
LINE
  8
0
 62
0
 10
56.859157409
 20
59.5043786107
 30
0.0
 11
57.7548664597
 21
56.7041455317
 31
0.0
  0
LINE
  8
0
 62
0
 10
57.7548664597
 20
56.7041455317
 30
0.0
 11
55.0000431322
 21
55.8229616738
 31
0.0
  0
LINE
  8
0
 62
0
 10
55.0000431322
 20
55.8229616738
 30
0.0
 11
56.5343622248
 21
51.1008130619
 31
0.0
  0
LINE
  8
0
 62
0
 10
56.5343622248
 20
51.1008130619
 30
0.0
 11
61.5594068137
 21
51.1008130619
 31
0.0
  0
LINE
  8
0
 62
0
 10
61.5594068137
 20
51.1008130619
 30
0.0
 11
61.5430565453
 21
53.9918081105
 31
0.0
  0
LINE
  8
0
 62
0
 10
61.5430565453
 20
53.9918081105
 30
0.0
 11
64.4830095275
 21
54.0084352646
 31
0.0
  0
LINE
  8
0
 62
0
 10
64.4830095275
 20
54.0084352646
 30
0.0
 11
64.4994538322
 21
51.1008130619
 31
0.0
  0
LINE
  8
0
 62
0
 10
64.4994538322
 20
51.1008130619
 30
0.0
 11
69.4656377752
 21
51.1008130619
 31
0.0
  0
LINE
  8
0
 62
0
 10
69.4656377752
 20
71.1008130619
 30
0.0
 11
71.0186187713
 21
75.880397107
 31
0.0
  0
LINE
  8
0
 62
0
 10
71.0186187713
 20
75.880397107
 30
0.0
 11
68.2617297037
 21
76.7735897727
 31
0.0
  0
LINE
  8
0
 62
0
 10
68.2617297037
 20
76.7735897727
 30
0.0
 11
69.1678765522
 21
79.5704626495
 31
0.0
  0
LINE
  8
0
 62
0
 10
69.1678765522
 20
79.5704626495
 30
0.0
 11
71.9271290591
 21
78.6765042633
 31
0.0
  0
LINE
  8
0
 62
0
 10
71.9271290591
 20
78.6765042633
 30
0.0
 11
73.4616216792
 21
83.3991869381
 31
0.0
  0
LINE
  8
0
 62
0
 10
73.4616216792
 20
83.3991869381
 30
0.0
 11
69.3956644494
 21
86.3532777827
 31
0.0
  0
LINE
  8
0
 62
0
 10
69.3956644494
 20
86.3532777827
 30
0.0
 11
67.6863829075
 21
84.0086668624
 31
0.0
  0
LINE
  8
0
 62
0
 10
67.6863829075
 20
84.0086668624
 30
0.0
 11
65.3106813138
 21
85.7406143032
 31
0.0
  0
LINE
  8
0
 62
0
 10
65.3106813138
 20
85.7406143032
 30
0.0
 11
67.0171513521
 21
88.0813687013
 31
0.0
  0
LINE
  8
0
 62
0
 10
67.0171513521
 20
88.0813687013
 30
0.0
 11
63.0
 21
91.0
 31
0.0
  0
LINE
  8
0
 62
0
 10
63.0
 20
91.0
 30
0.0
 11
58.9341736323
 21
88.0460042324
 31
0.0
  0
LINE
  8
0
 62
0
 10
58.9341736323
 20
88.0460042324
 30
0.0
 11
60.6382729581
 21
85.7005127295
 31
0.0
  0
LINE
  8
0
 62
0
 10
60.6382729581
 20
85.7005127295
 30
0.0
 11
58.2597629947
 21
83.9724240878
 31
0.0
  0
LINE
  8
0
 62
0
 10
58.2597629947
 20
83.9724240878
 30
0.0
 11
56.5556636688
 21
86.3179155906
 31
0.0
  0
LINE
  8
0
 62
0
 10
56.5556636688
 20
86.3179155906
 30
0.0
 11
52.5383783208
 21
83.3991869381
 31
0.0
  0
LINE
  8
0
 62
0
 10
52.5383783208
 20
83.3991869381
 30
0.0
 11
54.0915236619
 21
78.6190970907
 31
0.0
  0
LINE
  8
0
 62
0
 10
54.0915236619
 20
78.6190970907
 30
0.0
 11
56.859157409
 21
79.5043786107
 31
0.0
  0
LINE
  8
0
 62
0
 10
56.859157409
 20
79.5043786107
 30
0.0
 11
57.7548664597
 21
76.7041455317
 31
0.0
  0
LINE
  8
0
 62
0
 10
57.7548664597
 20
76.7041455317
 30
0.0
 11
55.0000431322
 21
75.8229616738
 31
0.0
  0
LINE
  8
0
 62
0
 10
55.0000431322
 20
75.8229616738
 30
0.0
 11
56.5343622248
 21
71.1008130619
 31
0.0
  0
LINE
  8
0
 62
0
 10
56.5343622248
 20
71.1008130619
 30
0.0
 11
61.5594068137
 21
71.1008130619
 31
0.0
  0
LINE
  8
0
 62
0
 10
61.5594068137
 20
71.1008130619
 30
0.0
 11
61.5430565453
 21
73.9918081105
 31
0.0
  0
LINE
  8
0
 62
0
 10
61.5430565453
 20
73.9918081105
 30
0.0
 11
64.4830095275
 21
74.0084352646
 31
0.0
  0
LINE
  8
0
 62
0
 10
64.4830095275
 20
74.0084352646
 30
0.0
 11
64.4994538322
 21
71.1008130619
 31
0.0
  0
LINE
  8
0
 62
0
 10
64.4994538322
 20
71.1008130619
 30
0.0
 11
69.4656377752
 21
71.1008130619
 31
0.0
  0
LINE
  8
0
 62
0
 10
91.4656377752
 20
-8.89918693812
 30
0.0
 11
93.0186187713
 21
-4.11960289296
 31
0.0
  0
LINE
  8
0
 62
0
 10
93.0186187713
 20
-4.11960289296
 30
0.0
 11
90.2617297037
 21
-3.22641022734
 31
0.0
  0
LINE
  8
0
 62
0
 10
90.2617297037
 20
-3.22641022734
 30
0.0
 11
91.1678765522
 21
-0.429537350549
 31
0.0
  0
LINE
  8
0
 62
0
 10
91.1678765522
 20
-0.429537350549
 30
0.0
 11
93.9271290591
 21
-1.32349573674
 31
0.0
  0
LINE
  8
0
 62
0
 10
93.9271290591
 20
-1.32349573674
 30
0.0
 11
95.4616216792
 21
3.39918693812
 31
0.0
  0
LINE
  8
0
 62
0
 10
95.4616216792
 20
3.39918693812
 30
0.0
 11
91.3956644494
 21
6.35327778266
 31
0.0
  0
LINE
  8
0
 62
0
 10
91.3956644494
 20
6.35327778266
 30
0.0
 11
89.6863829075
 21
4.00866686237
 31
0.0
  0
LINE
  8
0
 62
0
 10
89.6863829075
 20
4.00866686237
 30
0.0
 11
87.3106813138
 21
5.7406143032
 31
0.0
  0
LINE
  8
0
 62
0
 10
87.3106813138
 20
5.7406143032
 30
0.0
 11
89.0171513521
 21
8.0813687013
 31
0.0
  0
LINE
  8
0
 62
0
 10
89.0171513521
 20
8.0813687013
 30
0.0
 11
85.0
 21
11.0
 31
0.0
  0
LINE
  8
0
 62
0
 10
85.0
 20
11.0
 30
0.0
 11
80.9341736323
 21
8.04600423237
 31
0.0
  0
LINE
  8
0
 62
0
 10
80.9341736323
 20
8.04600423237
 30
0.0
 11
82.6382729581
 21
5.70051272955
 31
0.0
  0
LINE
  8
0
 62
0
 10
82.6382729581
 20
5.70051272955
 30
0.0
 11
80.2597629947
 21
3.97242408781
 31
0.0
  0
LINE
  8
0
 62
0
 10
80.2597629947
 20
3.97242408781
 30
0.0
 11
78.5556636688
 21
6.31791559063
 31
0.0
  0
LINE
  8
0
 62
0
 10
78.5556636688
 20
6.31791559063
 30
0.0
 11
74.5383783208
 21
3.39918693812
 31
0.0
  0
LINE
  8
0
 62
0
 10
74.5383783208
 20
3.39918693812
 30
0.0
 11
76.0915236619
 21
-1.3809029093
 31
0.0
  0
LINE
  8
0
 62
0
 10
76.0915236619
 20
-1.3809029093
 30
0.0
 11
78.859157409
 21
-0.495621389338
 31
0.0
  0
LINE
  8
0
 62
0
 10
78.859157409
 20
-0.495621389338
 30
0.0
 11
79.7548664597
 21
-3.29585446828
 31
0.0
  0
LINE
  8
0
 62
0
 10
79.7548664597
 20
-3.29585446828
 30
0.0
 11
77.0000431322
 21
-4.17703832622
 31
0.0
  0
LINE
  8
0
 62
0
 10
77.0000431322
 20
-4.17703832622
 30
0.0
 11
78.5343622248
 21
-8.89918693812
 31
0.0
  0
LINE
  8
0
 62
0
 10
78.5343622248
 20
-8.89918693812
 30
0.0
 11
83.5594068137
 21
-8.89918693812
 31
0.0
  0
LINE
  8
0
 62
0
 10
83.5594068137
 20
-8.89918693812
 30
0.0
 11
83.5430565453
 21
-6.00819188954
 31
0.0
  0
LINE
  8
0
 62
0
 10
83.5430565453
 20
-6.00819188954
 30
0.0
 11
86.4830095275
 21
-5.99156473536
 31
0.0
  0
LINE
  8
0
 62
0
 10
86.4830095275
 20
-5.99156473536
 30
0.0
 11
86.4994538322
 21
-8.89918693812
 31
0.0
  0
LINE
  8
0
 62
0
 10
86.4994538322
 20
-8.89918693812
 30
0.0
 11
91.4656377752
 21
-8.89918693812
 31
0.0
  0
LINE
  8
0
 62
0
 10
91.4656377752
 20
11.1008130619
 30
0.0
 11
93.0186187713
 21
15.880397107
 31
0.0
  0
LINE
  8
0
 62
0
 10
93.0186187713
 20
15.880397107
 30
0.0
 11
90.2617297037
 21
16.7735897727
 31
0.0
  0
LINE
  8
0
 62
0
 10
90.2617297037
 20
16.7735897727
 30
0.0
 11
91.1678765522
 21
19.5704626495
 31
0.0
  0
LINE
  8
0
 62
0
 10
91.1678765522
 20
19.5704626495
 30
0.0
 11
93.9271290591
 21
18.6765042633
 31
0.0
  0
LINE
  8
0
 62
0
 10
93.9271290591
 20
18.6765042633
 30
0.0
 11
95.4616216792
 21
23.3991869381
 31
0.0
  0
LINE
  8
0
 62
0
 10
95.4616216792
 20
23.3991869381
 30
0.0
 11
91.3956644494
 21
26.3532777827
 31
0.0
  0
LINE
  8
0
 62
0
 10
91.3956644494
 20
26.3532777827
 30
0.0
 11
89.6863829075
 21
24.0086668624
 31
0.0
  0
LINE
  8
0
 62
0
 10
89.6863829075
 20
24.0086668624
 30
0.0
 11
87.3106813138
 21
25.7406143032
 31
0.0
  0
LINE
  8
0
 62
0
 10
87.3106813138
 20
25.7406143032
 30
0.0
 11
89.0171513521
 21
28.0813687013
 31
0.0
  0
LINE
  8
0
 62
0
 10
89.0171513521
 20
28.0813687013
 30
0.0
 11
85.0
 21
31.0
 31
0.0
  0
LINE
  8
0
 62
0
 10
85.0
 20
31.0
 30
0.0
 11
80.9341736323
 21
28.0460042324
 31
0.0
  0
LINE
  8
0
 62
0
 10
80.9341736323
 20
28.0460042324
 30
0.0
 11
82.6382729581
 21
25.7005127295
 31
0.0
  0
LINE
  8
0
 62
0
 10
82.6382729581
 20
25.7005127295
 30
0.0
 11
80.2597629947
 21
23.9724240878
 31
0.0
  0
LINE
  8
0
 62
0
 10
80.2597629947
 20
23.9724240878
 30
0.0
 11
78.5556636688
 21
26.3179155906
 31
0.0
  0
LINE
  8
0
 62
0
 10
78.5556636688
 20
26.3179155906
 30
0.0
 11
74.5383783208
 21
23.3991869381
 31
0.0
  0
LINE
  8
0
 62
0
 10
74.5383783208
 20
23.3991869381
 30
0.0
 11
76.0915236619
 21
18.6190970907
 31
0.0
  0
LINE
  8
0
 62
0
 10
76.0915236619
 20
18.6190970907
 30
0.0
 11
78.859157409
 21
19.5043786107
 31
0.0
  0
LINE
  8
0
 62
0
 10
78.859157409
 20
19.5043786107
 30
0.0
 11
79.7548664597
 21
16.7041455317
 31
0.0
  0
LINE
  8
0
 62
0
 10
79.7548664597
 20
16.7041455317
 30
0.0
 11
77.0000431322
 21
15.8229616738
 31
0.0
  0
LINE
  8
0
 62
0
 10
77.0000431322
 20
15.8229616738
 30
0.0
 11
78.5343622248
 21
11.1008130619
 31
0.0
  0
LINE
  8
0
 62
0
 10
78.5343622248
 20
11.1008130619
 30
0.0
 11
83.5594068137
 21
11.1008130619
 31
0.0
  0
LINE
  8
0
 62
0
 10
83.5594068137
 20
11.1008130619
 30
0.0
 11
83.5430565453
 21
13.9918081105
 31
0.0
  0
LINE
  8
0
 62
0
 10
83.5430565453
 20
13.9918081105
 30
0.0
 11
86.4830095275
 21
14.0084352646
 31
0.0
  0
LINE
  8
0
 62
0
 10
86.4830095275
 20
14.0084352646
 30
0.0
 11
86.4994538322
 21
11.1008130619
 31
0.0
  0
LINE
  8
0
 62
0
 10
86.4994538322
 20
11.1008130619
 30
0.0
 11
91.4656377752
 21
11.1008130619
 31
0.0
  0
LINE
  8
0
 62
0
 10
91.4656377752
 20
31.1008130619
 30
0.0
 11
93.0186187713
 21
35.880397107
 31
0.0
  0
LINE
  8
0
 62
0
 10
93.0186187713
 20
35.880397107
 30
0.0
 11
90.2617297037
 21
36.7735897727
 31
0.0
  0
LINE
  8
0
 62
0
 10
90.2617297037
 20
36.7735897727
 30
0.0
 11
91.1678765522
 21
39.5704626495
 31
0.0
  0
LINE
  8
0
 62
0
 10
91.1678765522
 20
39.5704626495
 30
0.0
 11
93.9271290591
 21
38.6765042633
 31
0.0
  0
LINE
  8
0
 62
0
 10
93.9271290591
 20
38.6765042633
 30
0.0
 11
95.4616216792
 21
43.3991869381
 31
0.0
  0
LINE
  8
0
 62
0
 10
95.4616216792
 20
43.3991869381
 30
0.0
 11
91.3956644494
 21
46.3532777827
 31
0.0
  0
LINE
  8
0
 62
0
 10
91.3956644494
 20
46.3532777827
 30
0.0
 11
89.6863829075
 21
44.0086668624
 31
0.0
  0
LINE
  8
0
 62
0
 10
89.6863829075
 20
44.0086668624
 30
0.0
 11
87.3106813138
 21
45.7406143032
 31
0.0
  0
LINE
  8
0
 62
0
 10
87.3106813138
 20
45.7406143032
 30
0.0
 11
89.0171513521
 21
48.0813687013
 31
0.0
  0
LINE
  8
0
 62
0
 10
89.0171513521
 20
48.0813687013
 30
0.0
 11
85.0
 21
51.0
 31
0.0
  0
LINE
  8
0
 62
0
 10
85.0
 20
51.0
 30
0.0
 11
80.9341736323
 21
48.0460042324
 31
0.0
  0
LINE
  8
0
 62
0
 10
80.9341736323
 20
48.0460042324
 30
0.0
 11
82.6382729581
 21
45.7005127295
 31
0.0
  0
LINE
  8
0
 62
0
 10
82.6382729581
 20
45.7005127295
 30
0.0
 11
80.2597629947
 21
43.9724240878
 31
0.0
  0
LINE
  8
0
 62
0
 10
80.2597629947
 20
43.9724240878
 30
0.0
 11
78.5556636688
 21
46.3179155906
 31
0.0
  0
LINE
  8
0
 62
0
 10
78.5556636688
 20
46.3179155906
 30
0.0
 11
74.5383783208
 21
43.3991869381
 31
0.0
  0
LINE
  8
0
 62
0
 10
74.5383783208
 20
43.3991869381
 30
0.0
 11
76.0915236619
 21
38.6190970907
 31
0.0
  0
LINE
  8
0
 62
0
 10
76.0915236619
 20
38.6190970907
 30
0.0
 11
78.859157409
 21
39.5043786107
 31
0.0
  0
LINE
  8
0
 62
0
 10
78.859157409
 20
39.5043786107
 30
0.0
 11
79.7548664597
 21
36.7041455317
 31
0.0
  0
LINE
  8
0
 62
0
 10
79.7548664597
 20
36.7041455317
 30
0.0
 11
77.0000431322
 21
35.8229616738
 31
0.0
  0
LINE
  8
0
 62
0
 10
77.0000431322
 20
35.8229616738
 30
0.0
 11
78.5343622248
 21
31.1008130619
 31
0.0
  0
LINE
  8
0
 62
0
 10
78.5343622248
 20
31.1008130619
 30
0.0
 11
83.5594068137
 21
31.1008130619
 31
0.0
  0
LINE
  8
0
 62
0
 10
83.5594068137
 20
31.1008130619
 30
0.0
 11
83.5430565453
 21
33.9918081105
 31
0.0
  0
LINE
  8
0
 62
0
 10
83.5430565453
 20
33.9918081105
 30
0.0
 11
86.4830095275
 21
34.0084352646
 31
0.0
  0
LINE
  8
0
 62
0
 10
86.4830095275
 20
34.0084352646
 30
0.0
 11
86.4994538322
 21
31.1008130619
 31
0.0
  0
LINE
  8
0
 62
0
 10
86.4994538322
 20
31.1008130619
 30
0.0
 11
91.4656377752
 21
31.1008130619
 31
0.0
  0
LINE
  8
0
 62
0
 10
91.4656377752
 20
51.1008130619
 30
0.0
 11
93.0186187713
 21
55.880397107
 31
0.0
  0
LINE
  8
0
 62
0
 10
93.0186187713
 20
55.880397107
 30
0.0
 11
90.2617297037
 21
56.7735897727
 31
0.0
  0
LINE
  8
0
 62
0
 10
90.2617297037
 20
56.7735897727
 30
0.0
 11
91.1678765522
 21
59.5704626495
 31
0.0
  0
LINE
  8
0
 62
0
 10
91.1678765522
 20
59.5704626495
 30
0.0
 11
93.9271290591
 21
58.6765042633
 31
0.0
  0
LINE
  8
0
 62
0
 10
93.9271290591
 20
58.6765042633
 30
0.0
 11
95.4616216792
 21
63.3991869381
 31
0.0
  0
LINE
  8
0
 62
0
 10
95.4616216792
 20
63.3991869381
 30
0.0
 11
91.3956644494
 21
66.3532777827
 31
0.0
  0
LINE
  8
0
 62
0
 10
91.3956644494
 20
66.3532777827
 30
0.0
 11
89.6863829075
 21
64.0086668624
 31
0.0
  0
LINE
  8
0
 62
0
 10
89.6863829075
 20
64.0086668624
 30
0.0
 11
87.3106813138
 21
65.7406143032
 31
0.0
  0
LINE
  8
0
 62
0
 10
87.3106813138
 20
65.7406143032
 30
0.0
 11
89.0171513521
 21
68.0813687013
 31
0.0
  0
LINE
  8
0
 62
0
 10
89.0171513521
 20
68.0813687013
 30
0.0
 11
85.0
 21
71.0
 31
0.0
  0
LINE
  8
0
 62
0
 10
85.0
 20
71.0
 30
0.0
 11
80.9341736323
 21
68.0460042324
 31
0.0
  0
LINE
  8
0
 62
0
 10
80.9341736323
 20
68.0460042324
 30
0.0
 11
82.6382729581
 21
65.7005127295
 31
0.0
  0
LINE
  8
0
 62
0
 10
82.6382729581
 20
65.7005127295
 30
0.0
 11
80.2597629947
 21
63.9724240878
 31
0.0
  0
LINE
  8
0
 62
0
 10
80.2597629947
 20
63.9724240878
 30
0.0
 11
78.5556636688
 21
66.3179155906
 31
0.0
  0
LINE
  8
0
 62
0
 10
78.5556636688
 20
66.3179155906
 30
0.0
 11
74.5383783208
 21
63.3991869381
 31
0.0
  0
LINE
  8
0
 62
0
 10
74.5383783208
 20
63.3991869381
 30
0.0
 11
76.0915236619
 21
58.6190970907
 31
0.0
  0
LINE
  8
0
 62
0
 10
76.0915236619
 20
58.6190970907
 30
0.0
 11
78.859157409
 21
59.5043786107
 31
0.0
  0
LINE
  8
0
 62
0
 10
78.859157409
 20
59.5043786107
 30
0.0
 11
79.7548664597
 21
56.7041455317
 31
0.0
  0
LINE
  8
0
 62
0
 10
79.7548664597
 20
56.7041455317
 30
0.0
 11
77.0000431322
 21
55.8229616738
 31
0.0
  0
LINE
  8
0
 62
0
 10
77.0000431322
 20
55.8229616738
 30
0.0
 11
78.5343622248
 21
51.1008130619
 31
0.0
  0
LINE
  8
0
 62
0
 10
78.5343622248
 20
51.1008130619
 30
0.0
 11
83.5594068137
 21
51.1008130619
 31
0.0
  0
LINE
  8
0
 62
0
 10
83.5594068137
 20
51.1008130619
 30
0.0
 11
83.5430565453
 21
53.9918081105
 31
0.0
  0
LINE
  8
0
 62
0
 10
83.5430565453
 20
53.9918081105
 30
0.0
 11
86.4830095275
 21
54.0084352646
 31
0.0
  0
LINE
  8
0
 62
0
 10
86.4830095275
 20
54.0084352646
 30
0.0
 11
86.4994538322
 21
51.1008130619
 31
0.0
  0
LINE
  8
0
 62
0
 10
86.4994538322
 20
51.1008130619
 30
0.0
 11
91.4656377752
 21
51.1008130619
 31
0.0
  0
LINE
  8
0
 62
0
 10
91.4656377752
 20
71.1008130619
 30
0.0
 11
93.0186187713
 21
75.880397107
 31
0.0
  0
LINE
  8
0
 62
0
 10
93.0186187713
 20
75.880397107
 30
0.0
 11
90.2617297037
 21
76.7735897727
 31
0.0
  0
LINE
  8
0
 62
0
 10
90.2617297037
 20
76.7735897727
 30
0.0
 11
91.1678765522
 21
79.5704626495
 31
0.0
  0
LINE
  8
0
 62
0
 10
91.1678765522
 20
79.5704626495
 30
0.0
 11
93.9271290591
 21
78.6765042633
 31
0.0
  0
LINE
  8
0
 62
0
 10
93.9271290591
 20
78.6765042633
 30
0.0
 11
95.4616216792
 21
83.3991869381
 31
0.0
  0
LINE
  8
0
 62
0
 10
95.4616216792
 20
83.3991869381
 30
0.0
 11
91.3956644494
 21
86.3532777827
 31
0.0
  0
LINE
  8
0
 62
0
 10
91.3956644494
 20
86.3532777827
 30
0.0
 11
89.6863829075
 21
84.0086668624
 31
0.0
  0
LINE
  8
0
 62
0
 10
89.6863829075
 20
84.0086668624
 30
0.0
 11
87.3106813138
 21
85.7406143032
 31
0.0
  0
LINE
  8
0
 62
0
 10
87.3106813138
 20
85.7406143032
 30
0.0
 11
89.0171513521
 21
88.0813687013
 31
0.0
  0
LINE
  8
0
 62
0
 10
89.0171513521
 20
88.0813687013
 30
0.0
 11
85.0
 21
91.0
 31
0.0
  0
LINE
  8
0
 62
0
 10
85.0
 20
91.0
 30
0.0
 11
80.9341736323
 21
88.0460042324
 31
0.0
  0
LINE
  8
0
 62
0
 10
80.9341736323
 20
88.0460042324
 30
0.0
 11
82.6382729581
 21
85.7005127295
 31
0.0
  0
LINE
  8
0
 62
0
 10
82.6382729581
 20
85.7005127295
 30
0.0
 11
80.2597629947
 21
83.9724240878
 31
0.0
  0
LINE
  8
0
 62
0
 10
80.2597629947
 20
83.9724240878
 30
0.0
 11
78.5556636688
 21
86.3179155906
 31
0.0
  0
LINE
  8
0
 62
0
 10
78.5556636688
 20
86.3179155906
 30
0.0
 11
74.5383783208
 21
83.3991869381
 31
0.0
  0
LINE
  8
0
 62
0
 10
74.5383783208
 20
83.3991869381
 30
0.0
 11
76.0915236619
 21
78.6190970907
 31
0.0
  0
LINE
  8
0
 62
0
 10
76.0915236619
 20
78.6190970907
 30
0.0
 11
78.859157409
 21
79.5043786107
 31
0.0
  0
LINE
  8
0
 62
0
 10
78.859157409
 20
79.5043786107
 30
0.0
 11
79.7548664597
 21
76.7041455317
 31
0.0
  0
LINE
  8
0
 62
0
 10
79.7548664597
 20
76.7041455317
 30
0.0
 11
77.0000431322
 21
75.8229616738
 31
0.0
  0
LINE
  8
0
 62
0
 10
77.0000431322
 20
75.8229616738
 30
0.0
 11
78.5343622248
 21
71.1008130619
 31
0.0
  0
LINE
  8
0
 62
0
 10
78.5343622248
 20
71.1008130619
 30
0.0
 11
83.5594068137
 21
71.1008130619
 31
0.0
  0
LINE
  8
0
 62
0
 10
83.5594068137
 20
71.1008130619
 30
0.0
 11
83.5430565453
 21
73.9918081105
 31
0.0
  0
LINE
  8
0
 62
0
 10
83.5430565453
 20
73.9918081105
 30
0.0
 11
86.4830095275
 21
74.0084352646
 31
0.0
  0
LINE
  8
0
 62
0
 10
86.4830095275
 20
74.0084352646
 30
0.0
 11
86.4994538322
 21
71.1008130619
 31
0.0
  0
LINE
  8
0
 62
0
 10
86.4994538322
 20
71.1008130619
 30
0.0
 11
91.4656377752
 21
71.1008130619
 31
0.0
  0
LINE
  8
0
 62
0
 10
113.465637775
 20
-8.89918693812
 30
0.0
 11
115.018618771
 21
-4.11960289296
 31
0.0
  0
LINE
  8
0
 62
0
 10
115.018618771
 20
-4.11960289296
 30
0.0
 11
112.261729704
 21
-3.22641022734
 31
0.0
  0
LINE
  8
0
 62
0
 10
112.261729704
 20
-3.22641022734
 30
0.0
 11
113.167876552
 21
-0.429537350549
 31
0.0
  0
LINE
  8
0
 62
0
 10
113.167876552
 20
-0.429537350549
 30
0.0
 11
115.927129059
 21
-1.32349573674
 31
0.0
  0
LINE
  8
0
 62
0
 10
115.927129059
 20
-1.32349573674
 30
0.0
 11
117.461621679
 21
3.39918693812
 31
0.0
  0
LINE
  8
0
 62
0
 10
117.461621679
 20
3.39918693812
 30
0.0
 11
113.395664449
 21
6.35327778266
 31
0.0
  0
LINE
  8
0
 62
0
 10
113.395664449
 20
6.35327778266
 30
0.0
 11
111.686382907
 21
4.00866686237
 31
0.0
  0
LINE
  8
0
 62
0
 10
111.686382907
 20
4.00866686237
 30
0.0
 11
109.310681314
 21
5.7406143032
 31
0.0
  0
LINE
  8
0
 62
0
 10
109.310681314
 20
5.7406143032
 30
0.0
 11
111.017151352
 21
8.0813687013
 31
0.0
  0
LINE
  8
0
 62
0
 10
111.017151352
 20
8.0813687013
 30
0.0
 11
107.0
 21
11.0
 31
0.0
  0
LINE
  8
0
 62
0
 10
107.0
 20
11.0
 30
0.0
 11
102.934173632
 21
8.04600423237
 31
0.0
  0
LINE
  8
0
 62
0
 10
102.934173632
 20
8.04600423237
 30
0.0
 11
104.638272958
 21
5.70051272955
 31
0.0
  0
LINE
  8
0
 62
0
 10
104.638272958
 20
5.70051272955
 30
0.0
 11
102.259762995
 21
3.97242408781
 31
0.0
  0
LINE
  8
0
 62
0
 10
102.259762995
 20
3.97242408781
 30
0.0
 11
100.555663669
 21
6.31791559063
 31
0.0
  0
LINE
  8
0
 62
0
 10
100.555663669
 20
6.31791559063
 30
0.0
 11
96.5383783208
 21
3.39918693812
 31
0.0
  0
LINE
  8
0
 62
0
 10
96.5383783208
 20
3.39918693812
 30
0.0
 11
98.0915236619
 21
-1.3809029093
 31
0.0
  0
LINE
  8
0
 62
0
 10
98.0915236619
 20
-1.3809029093
 30
0.0
 11
100.859157409
 21
-0.495621389338
 31
0.0
  0
LINE
  8
0
 62
0
 10
100.859157409
 20
-0.495621389338
 30
0.0
 11
101.75486646
 21
-3.29585446828
 31
0.0
  0
LINE
  8
0
 62
0
 10
101.75486646
 20
-3.29585446828
 30
0.0
 11
99.0000431322
 21
-4.17703832622
 31
0.0
  0
LINE
  8
0
 62
0
 10
99.0000431322
 20
-4.17703832622
 30
0.0
 11
100.534362225
 21
-8.89918693812
 31
0.0
  0
LINE
  8
0
 62
0
 10
100.534362225
 20
-8.89918693812
 30
0.0
 11
105.559406814
 21
-8.89918693812
 31
0.0
  0
LINE
  8
0
 62
0
 10
105.559406814
 20
-8.89918693812
 30
0.0
 11
105.543056545
 21
-6.00819188954
 31
0.0
  0
LINE
  8
0
 62
0
 10
105.543056545
 20
-6.00819188954
 30
0.0
 11
108.483009527
 21
-5.99156473536
 31
0.0
  0
LINE
  8
0
 62
0
 10
108.483009527
 20
-5.99156473536
 30
0.0
 11
108.499453832
 21
-8.89918693812
 31
0.0
  0
LINE
  8
0
 62
0
 10
108.499453832
 20
-8.89918693812
 30
0.0
 11
113.465637775
 21
-8.89918693812
 31
0.0
  0
LINE
  8
0
 62
0
 10
113.465637775
 20
11.1008130619
 30
0.0
 11
115.018618771
 21
15.880397107
 31
0.0
  0
LINE
  8
0
 62
0
 10
115.018618771
 20
15.880397107
 30
0.0
 11
112.261729704
 21
16.7735897727
 31
0.0
  0
LINE
  8
0
 62
0
 10
112.261729704
 20
16.7735897727
 30
0.0
 11
113.167876552
 21
19.5704626495
 31
0.0
  0
LINE
  8
0
 62
0
 10
113.167876552
 20
19.5704626495
 30
0.0
 11
115.927129059
 21
18.6765042633
 31
0.0
  0
LINE
  8
0
 62
0
 10
115.927129059
 20
18.6765042633
 30
0.0
 11
117.461621679
 21
23.3991869381
 31
0.0
  0
LINE
  8
0
 62
0
 10
117.461621679
 20
23.3991869381
 30
0.0
 11
113.395664449
 21
26.3532777827
 31
0.0
  0
LINE
  8
0
 62
0
 10
113.395664449
 20
26.3532777827
 30
0.0
 11
111.686382907
 21
24.0086668624
 31
0.0
  0
LINE
  8
0
 62
0
 10
111.686382907
 20
24.0086668624
 30
0.0
 11
109.310681314
 21
25.7406143032
 31
0.0
  0
LINE
  8
0
 62
0
 10
109.310681314
 20
25.7406143032
 30
0.0
 11
111.017151352
 21
28.0813687013
 31
0.0
  0
LINE
  8
0
 62
0
 10
111.017151352
 20
28.0813687013
 30
0.0
 11
107.0
 21
31.0
 31
0.0
  0
LINE
  8
0
 62
0
 10
107.0
 20
31.0
 30
0.0
 11
102.934173632
 21
28.0460042324
 31
0.0
  0
LINE
  8
0
 62
0
 10
102.934173632
 20
28.0460042324
 30
0.0
 11
104.638272958
 21
25.7005127295
 31
0.0
  0
LINE
  8
0
 62
0
 10
104.638272958
 20
25.7005127295
 30
0.0
 11
102.259762995
 21
23.9724240878
 31
0.0
  0
LINE
  8
0
 62
0
 10
102.259762995
 20
23.9724240878
 30
0.0
 11
100.555663669
 21
26.3179155906
 31
0.0
  0
LINE
  8
0
 62
0
 10
100.555663669
 20
26.3179155906
 30
0.0
 11
96.5383783208
 21
23.3991869381
 31
0.0
  0
LINE
  8
0
 62
0
 10
96.5383783208
 20
23.3991869381
 30
0.0
 11
98.0915236619
 21
18.6190970907
 31
0.0
  0
LINE
  8
0
 62
0
 10
98.0915236619
 20
18.6190970907
 30
0.0
 11
100.859157409
 21
19.5043786107
 31
0.0
  0
LINE
  8
0
 62
0
 10
100.859157409
 20
19.5043786107
 30
0.0
 11
101.75486646
 21
16.7041455317
 31
0.0
  0
LINE
  8
0
 62
0
 10
101.75486646
 20
16.7041455317
 30
0.0
 11
99.0000431322
 21
15.8229616738
 31
0.0
  0
LINE
  8
0
 62
0
 10
99.0000431322
 20
15.8229616738
 30
0.0
 11
100.534362225
 21
11.1008130619
 31
0.0
  0
LINE
  8
0
 62
0
 10
100.534362225
 20
11.1008130619
 30
0.0
 11
105.559406814
 21
11.1008130619
 31
0.0
  0
LINE
  8
0
 62
0
 10
105.559406814
 20
11.1008130619
 30
0.0
 11
105.543056545
 21
13.9918081105
 31
0.0
  0
LINE
  8
0
 62
0
 10
105.543056545
 20
13.9918081105
 30
0.0
 11
108.483009527
 21
14.0084352646
 31
0.0
  0
LINE
  8
0
 62
0
 10
108.483009527
 20
14.0084352646
 30
0.0
 11
108.499453832
 21
11.1008130619
 31
0.0
  0
LINE
  8
0
 62
0
 10
108.499453832
 20
11.1008130619
 30
0.0
 11
113.465637775
 21
11.1008130619
 31
0.0
  0
LINE
  8
0
 62
0
 10
113.465637775
 20
31.1008130619
 30
0.0
 11
115.018618771
 21
35.880397107
 31
0.0
  0
LINE
  8
0
 62
0
 10
115.018618771
 20
35.880397107
 30
0.0
 11
112.261729704
 21
36.7735897727
 31
0.0
  0
LINE
  8
0
 62
0
 10
112.261729704
 20
36.7735897727
 30
0.0
 11
113.167876552
 21
39.5704626495
 31
0.0
  0
LINE
  8
0
 62
0
 10
113.167876552
 20
39.5704626495
 30
0.0
 11
115.927129059
 21
38.6765042633
 31
0.0
  0
LINE
  8
0
 62
0
 10
115.927129059
 20
38.6765042633
 30
0.0
 11
117.461621679
 21
43.3991869381
 31
0.0
  0
LINE
  8
0
 62
0
 10
117.461621679
 20
43.3991869381
 30
0.0
 11
113.395664449
 21
46.3532777827
 31
0.0
  0
LINE
  8
0
 62
0
 10
113.395664449
 20
46.3532777827
 30
0.0
 11
111.686382907
 21
44.0086668624
 31
0.0
  0
LINE
  8
0
 62
0
 10
111.686382907
 20
44.0086668624
 30
0.0
 11
109.310681314
 21
45.7406143032
 31
0.0
  0
LINE
  8
0
 62
0
 10
109.310681314
 20
45.7406143032
 30
0.0
 11
111.017151352
 21
48.0813687013
 31
0.0
  0
LINE
  8
0
 62
0
 10
111.017151352
 20
48.0813687013
 30
0.0
 11
107.0
 21
51.0
 31
0.0
  0
LINE
  8
0
 62
0
 10
107.0
 20
51.0
 30
0.0
 11
102.934173632
 21
48.0460042324
 31
0.0
  0
LINE
  8
0
 62
0
 10
102.934173632
 20
48.0460042324
 30
0.0
 11
104.638272958
 21
45.7005127295
 31
0.0
  0
LINE
  8
0
 62
0
 10
104.638272958
 20
45.7005127295
 30
0.0
 11
102.259762995
 21
43.9724240878
 31
0.0
  0
LINE
  8
0
 62
0
 10
102.259762995
 20
43.9724240878
 30
0.0
 11
100.555663669
 21
46.3179155906
 31
0.0
  0
LINE
  8
0
 62
0
 10
100.555663669
 20
46.3179155906
 30
0.0
 11
96.5383783208
 21
43.3991869381
 31
0.0
  0
LINE
  8
0
 62
0
 10
96.5383783208
 20
43.3991869381
 30
0.0
 11
98.0915236619
 21
38.6190970907
 31
0.0
  0
LINE
  8
0
 62
0
 10
98.0915236619
 20
38.6190970907
 30
0.0
 11
100.859157409
 21
39.5043786107
 31
0.0
  0
LINE
  8
0
 62
0
 10
100.859157409
 20
39.5043786107
 30
0.0
 11
101.75486646
 21
36.7041455317
 31
0.0
  0
LINE
  8
0
 62
0
 10
101.75486646
 20
36.7041455317
 30
0.0
 11
99.0000431322
 21
35.8229616738
 31
0.0
  0
LINE
  8
0
 62
0
 10
99.0000431322
 20
35.8229616738
 30
0.0
 11
100.534362225
 21
31.1008130619
 31
0.0
  0
LINE
  8
0
 62
0
 10
100.534362225
 20
31.1008130619
 30
0.0
 11
105.559406814
 21
31.1008130619
 31
0.0
  0
LINE
  8
0
 62
0
 10
105.559406814
 20
31.1008130619
 30
0.0
 11
105.543056545
 21
33.9918081105
 31
0.0
  0
LINE
  8
0
 62
0
 10
105.543056545
 20
33.9918081105
 30
0.0
 11
108.483009527
 21
34.0084352646
 31
0.0
  0
LINE
  8
0
 62
0
 10
108.483009527
 20
34.0084352646
 30
0.0
 11
108.499453832
 21
31.1008130619
 31
0.0
  0
LINE
  8
0
 62
0
 10
108.499453832
 20
31.1008130619
 30
0.0
 11
113.465637775
 21
31.1008130619
 31
0.0
  0
LINE
  8
0
 62
0
 10
113.465637775
 20
51.1008130619
 30
0.0
 11
115.018618771
 21
55.880397107
 31
0.0
  0
LINE
  8
0
 62
0
 10
115.018618771
 20
55.880397107
 30
0.0
 11
112.261729704
 21
56.7735897727
 31
0.0
  0
LINE
  8
0
 62
0
 10
112.261729704
 20
56.7735897727
 30
0.0
 11
113.167876552
 21
59.5704626495
 31
0.0
  0
LINE
  8
0
 62
0
 10
113.167876552
 20
59.5704626495
 30
0.0
 11
115.927129059
 21
58.6765042633
 31
0.0
  0
LINE
  8
0
 62
0
 10
115.927129059
 20
58.6765042633
 30
0.0
 11
117.461621679
 21
63.3991869381
 31
0.0
  0
LINE
  8
0
 62
0
 10
117.461621679
 20
63.3991869381
 30
0.0
 11
113.395664449
 21
66.3532777827
 31
0.0
  0
LINE
  8
0
 62
0
 10
113.395664449
 20
66.3532777827
 30
0.0
 11
111.686382907
 21
64.0086668624
 31
0.0
  0
LINE
  8
0
 62
0
 10
111.686382907
 20
64.0086668624
 30
0.0
 11
109.310681314
 21
65.7406143032
 31
0.0
  0
LINE
  8
0
 62
0
 10
109.310681314
 20
65.7406143032
 30
0.0
 11
111.017151352
 21
68.0813687013
 31
0.0
  0
LINE
  8
0
 62
0
 10
111.017151352
 20
68.0813687013
 30
0.0
 11
107.0
 21
71.0
 31
0.0
  0
LINE
  8
0
 62
0
 10
107.0
 20
71.0
 30
0.0
 11
102.934173632
 21
68.0460042324
 31
0.0
  0
LINE
  8
0
 62
0
 10
102.934173632
 20
68.0460042324
 30
0.0
 11
104.638272958
 21
65.7005127295
 31
0.0
  0
LINE
  8
0
 62
0
 10
104.638272958
 20
65.7005127295
 30
0.0
 11
102.259762995
 21
63.9724240878
 31
0.0
  0
LINE
  8
0
 62
0
 10
102.259762995
 20
63.9724240878
 30
0.0
 11
100.555663669
 21
66.3179155906
 31
0.0
  0
LINE
  8
0
 62
0
 10
100.555663669
 20
66.3179155906
 30
0.0
 11
96.5383783208
 21
63.3991869381
 31
0.0
  0
LINE
  8
0
 62
0
 10
96.5383783208
 20
63.3991869381
 30
0.0
 11
98.0915236619
 21
58.6190970907
 31
0.0
  0
LINE
  8
0
 62
0
 10
98.0915236619
 20
58.6190970907
 30
0.0
 11
100.859157409
 21
59.5043786107
 31
0.0
  0
LINE
  8
0
 62
0
 10
100.859157409
 20
59.5043786107
 30
0.0
 11
101.75486646
 21
56.7041455317
 31
0.0
  0
LINE
  8
0
 62
0
 10
101.75486646
 20
56.7041455317
 30
0.0
 11
99.0000431322
 21
55.8229616738
 31
0.0
  0
LINE
  8
0
 62
0
 10
99.0000431322
 20
55.8229616738
 30
0.0
 11
100.534362225
 21
51.1008130619
 31
0.0
  0
LINE
  8
0
 62
0
 10
100.534362225
 20
51.1008130619
 30
0.0
 11
105.559406814
 21
51.1008130619
 31
0.0
  0
LINE
  8
0
 62
0
 10
105.559406814
 20
51.1008130619
 30
0.0
 11
105.543056545
 21
53.9918081105
 31
0.0
  0
LINE
  8
0
 62
0
 10
105.543056545
 20
53.9918081105
 30
0.0
 11
108.483009527
 21
54.0084352646
 31
0.0
  0
LINE
  8
0
 62
0
 10
108.483009527
 20
54.0084352646
 30
0.0
 11
108.499453832
 21
51.1008130619
 31
0.0
  0
LINE
  8
0
 62
0
 10
108.499453832
 20
51.1008130619
 30
0.0
 11
113.465637775
 21
51.1008130619
 31
0.0
  0
LINE
  8
0
 62
0
 10
113.465637775
 20
71.1008130619
 30
0.0
 11
115.018618771
 21
75.880397107
 31
0.0
  0
LINE
  8
0
 62
0
 10
115.018618771
 20
75.880397107
 30
0.0
 11
112.261729704
 21
76.7735897727
 31
0.0
  0
LINE
  8
0
 62
0
 10
112.261729704
 20
76.7735897727
 30
0.0
 11
113.167876552
 21
79.5704626495
 31
0.0
  0
LINE
  8
0
 62
0
 10
113.167876552
 20
79.5704626495
 30
0.0
 11
115.927129059
 21
78.6765042633
 31
0.0
  0
LINE
  8
0
 62
0
 10
115.927129059
 20
78.6765042633
 30
0.0
 11
117.461621679
 21
83.3991869381
 31
0.0
  0
LINE
  8
0
 62
0
 10
117.461621679
 20
83.3991869381
 30
0.0
 11
113.395664449
 21
86.3532777827
 31
0.0
  0
LINE
  8
0
 62
0
 10
113.395664449
 20
86.3532777827
 30
0.0
 11
111.686382907
 21
84.0086668624
 31
0.0
  0
LINE
  8
0
 62
0
 10
111.686382907
 20
84.0086668624
 30
0.0
 11
109.310681314
 21
85.7406143032
 31
0.0
  0
LINE
  8
0
 62
0
 10
109.310681314
 20
85.7406143032
 30
0.0
 11
111.017151352
 21
88.0813687013
 31
0.0
  0
LINE
  8
0
 62
0
 10
111.017151352
 20
88.0813687013
 30
0.0
 11
107.0
 21
91.0
 31
0.0
  0
LINE
  8
0
 62
0
 10
107.0
 20
91.0
 30
0.0
 11
102.934173632
 21
88.0460042324
 31
0.0
  0
LINE
  8
0
 62
0
 10
102.934173632
 20
88.0460042324
 30
0.0
 11
104.638272958
 21
85.7005127295
 31
0.0
  0
LINE
  8
0
 62
0
 10
104.638272958
 20
85.7005127295
 30
0.0
 11
102.259762995
 21
83.9724240878
 31
0.0
  0
LINE
  8
0
 62
0
 10
102.259762995
 20
83.9724240878
 30
0.0
 11
100.555663669
 21
86.3179155906
 31
0.0
  0
LINE
  8
0
 62
0
 10
100.555663669
 20
86.3179155906
 30
0.0
 11
96.5383783208
 21
83.3991869381
 31
0.0
  0
LINE
  8
0
 62
0
 10
96.5383783208
 20
83.3991869381
 30
0.0
 11
98.0915236619
 21
78.6190970907
 31
0.0
  0
LINE
  8
0
 62
0
 10
98.0915236619
 20
78.6190970907
 30
0.0
 11
100.859157409
 21
79.5043786107
 31
0.0
  0
LINE
  8
0
 62
0
 10
100.859157409
 20
79.5043786107
 30
0.0
 11
101.75486646
 21
76.7041455317
 31
0.0
  0
LINE
  8
0
 62
0
 10
101.75486646
 20
76.7041455317
 30
0.0
 11
99.0000431322
 21
75.8229616738
 31
0.0
  0
LINE
  8
0
 62
0
 10
99.0000431322
 20
75.8229616738
 30
0.0
 11
100.534362225
 21
71.1008130619
 31
0.0
  0
LINE
  8
0
 62
0
 10
100.534362225
 20
71.1008130619
 30
0.0
 11
105.559406814
 21
71.1008130619
 31
0.0
  0
LINE
  8
0
 62
0
 10
105.559406814
 20
71.1008130619
 30
0.0
 11
105.543056545
 21
73.9918081105
 31
0.0
  0
LINE
  8
0
 62
0
 10
105.543056545
 20
73.9918081105
 30
0.0
 11
108.483009527
 21
74.0084352646
 31
0.0
  0
LINE
  8
0
 62
0
 10
108.483009527
 20
74.0084352646
 30
0.0
 11
108.499453832
 21
71.1008130619
 31
0.0
  0
LINE
  8
0
 62
0
 10
108.499453832
 20
71.1008130619
 30
0.0
 11
113.465637775
 21
71.1008130619
 31
0.0
  0
LINE
  8
0
 62
0
 10
135.465637775
 20
-8.89918693812
 30
0.0
 11
137.018618771
 21
-4.11960289296
 31
0.0
  0
LINE
  8
0
 62
0
 10
137.018618771
 20
-4.11960289296
 30
0.0
 11
134.261729704
 21
-3.22641022734
 31
0.0
  0
LINE
  8
0
 62
0
 10
134.261729704
 20
-3.22641022734
 30
0.0
 11
135.167876552
 21
-0.429537350549
 31
0.0
  0
LINE
  8
0
 62
0
 10
135.167876552
 20
-0.429537350549
 30
0.0
 11
137.927129059
 21
-1.32349573674
 31
0.0
  0
LINE
  8
0
 62
0
 10
137.927129059
 20
-1.32349573674
 30
0.0
 11
139.461621679
 21
3.39918693812
 31
0.0
  0
LINE
  8
0
 62
0
 10
139.461621679
 20
3.39918693812
 30
0.0
 11
135.395664449
 21
6.35327778266
 31
0.0
  0
LINE
  8
0
 62
0
 10
135.395664449
 20
6.35327778266
 30
0.0
 11
133.686382907
 21
4.00866686237
 31
0.0
  0
LINE
  8
0
 62
0
 10
133.686382907
 20
4.00866686237
 30
0.0
 11
131.310681314
 21
5.7406143032
 31
0.0
  0
LINE
  8
0
 62
0
 10
131.310681314
 20
5.7406143032
 30
0.0
 11
133.017151352
 21
8.0813687013
 31
0.0
  0
LINE
  8
0
 62
0
 10
133.017151352
 20
8.0813687013
 30
0.0
 11
129.0
 21
11.0
 31
0.0
  0
LINE
  8
0
 62
0
 10
129.0
 20
11.0
 30
0.0
 11
124.934173632
 21
8.04600423237
 31
0.0
  0
LINE
  8
0
 62
0
 10
124.934173632
 20
8.04600423237
 30
0.0
 11
126.638272958
 21
5.70051272955
 31
0.0
  0
LINE
  8
0
 62
0
 10
126.638272958
 20
5.70051272955
 30
0.0
 11
124.259762995
 21
3.97242408781
 31
0.0
  0
LINE
  8
0
 62
0
 10
124.259762995
 20
3.97242408781
 30
0.0
 11
122.555663669
 21
6.31791559063
 31
0.0
  0
LINE
  8
0
 62
0
 10
122.555663669
 20
6.31791559063
 30
0.0
 11
118.538378321
 21
3.39918693812
 31
0.0
  0
LINE
  8
0
 62
0
 10
118.538378321
 20
3.39918693812
 30
0.0
 11
120.091523662
 21
-1.3809029093
 31
0.0
  0
LINE
  8
0
 62
0
 10
120.091523662
 20
-1.3809029093
 30
0.0
 11
122.859157409
 21
-0.495621389338
 31
0.0
  0
LINE
  8
0
 62
0
 10
122.859157409
 20
-0.495621389338
 30
0.0
 11
123.75486646
 21
-3.29585446828
 31
0.0
  0
LINE
  8
0
 62
0
 10
123.75486646
 20
-3.29585446828
 30
0.0
 11
121.000043132
 21
-4.17703832622
 31
0.0
  0
LINE
  8
0
 62
0
 10
121.000043132
 20
-4.17703832622
 30
0.0
 11
122.534362225
 21
-8.89918693812
 31
0.0
  0
LINE
  8
0
 62
0
 10
122.534362225
 20
-8.89918693812
 30
0.0
 11
127.559406814
 21
-8.89918693812
 31
0.0
  0
LINE
  8
0
 62
0
 10
127.559406814
 20
-8.89918693812
 30
0.0
 11
127.543056545
 21
-6.00819188954
 31
0.0
  0
LINE
  8
0
 62
0
 10
127.543056545
 20
-6.00819188954
 30
0.0
 11
130.483009527
 21
-5.99156473536
 31
0.0
  0
LINE
  8
0
 62
0
 10
130.483009527
 20
-5.99156473536
 30
0.0
 11
130.499453832
 21
-8.89918693812
 31
0.0
  0
LINE
  8
0
 62
0
 10
130.499453832
 20
-8.89918693812
 30
0.0
 11
135.465637775
 21
-8.89918693812
 31
0.0
  0
LINE
  8
0
 62
0
 10
135.465637775
 20
11.1008130619
 30
0.0
 11
137.018618771
 21
15.880397107
 31
0.0
  0
LINE
  8
0
 62
0
 10
137.018618771
 20
15.880397107
 30
0.0
 11
134.261729704
 21
16.7735897727
 31
0.0
  0
LINE
  8
0
 62
0
 10
134.261729704
 20
16.7735897727
 30
0.0
 11
135.167876552
 21
19.5704626495
 31
0.0
  0
LINE
  8
0
 62
0
 10
135.167876552
 20
19.5704626495
 30
0.0
 11
137.927129059
 21
18.6765042633
 31
0.0
  0
LINE
  8
0
 62
0
 10
137.927129059
 20
18.6765042633
 30
0.0
 11
139.461621679
 21
23.3991869381
 31
0.0
  0
LINE
  8
0
 62
0
 10
139.461621679
 20
23.3991869381
 30
0.0
 11
135.395664449
 21
26.3532777827
 31
0.0
  0
LINE
  8
0
 62
0
 10
135.395664449
 20
26.3532777827
 30
0.0
 11
133.686382907
 21
24.0086668624
 31
0.0
  0
LINE
  8
0
 62
0
 10
133.686382907
 20
24.0086668624
 30
0.0
 11
131.310681314
 21
25.7406143032
 31
0.0
  0
LINE
  8
0
 62
0
 10
131.310681314
 20
25.7406143032
 30
0.0
 11
133.017151352
 21
28.0813687013
 31
0.0
  0
LINE
  8
0
 62
0
 10
133.017151352
 20
28.0813687013
 30
0.0
 11
129.0
 21
31.0
 31
0.0
  0
LINE
  8
0
 62
0
 10
129.0
 20
31.0
 30
0.0
 11
124.934173632
 21
28.0460042324
 31
0.0
  0
LINE
  8
0
 62
0
 10
124.934173632
 20
28.0460042324
 30
0.0
 11
126.638272958
 21
25.7005127295
 31
0.0
  0
LINE
  8
0
 62
0
 10
126.638272958
 20
25.7005127295
 30
0.0
 11
124.259762995
 21
23.9724240878
 31
0.0
  0
LINE
  8
0
 62
0
 10
124.259762995
 20
23.9724240878
 30
0.0
 11
122.555663669
 21
26.3179155906
 31
0.0
  0
LINE
  8
0
 62
0
 10
122.555663669
 20
26.3179155906
 30
0.0
 11
118.538378321
 21
23.3991869381
 31
0.0
  0
LINE
  8
0
 62
0
 10
118.538378321
 20
23.3991869381
 30
0.0
 11
120.091523662
 21
18.6190970907
 31
0.0
  0
LINE
  8
0
 62
0
 10
120.091523662
 20
18.6190970907
 30
0.0
 11
122.859157409
 21
19.5043786107
 31
0.0
  0
LINE
  8
0
 62
0
 10
122.859157409
 20
19.5043786107
 30
0.0
 11
123.75486646
 21
16.7041455317
 31
0.0
  0
LINE
  8
0
 62
0
 10
123.75486646
 20
16.7041455317
 30
0.0
 11
121.000043132
 21
15.8229616738
 31
0.0
  0
LINE
  8
0
 62
0
 10
121.000043132
 20
15.8229616738
 30
0.0
 11
122.534362225
 21
11.1008130619
 31
0.0
  0
LINE
  8
0
 62
0
 10
122.534362225
 20
11.1008130619
 30
0.0
 11
127.559406814
 21
11.1008130619
 31
0.0
  0
LINE
  8
0
 62
0
 10
127.559406814
 20
11.1008130619
 30
0.0
 11
127.543056545
 21
13.9918081105
 31
0.0
  0
LINE
  8
0
 62
0
 10
127.543056545
 20
13.9918081105
 30
0.0
 11
130.483009527
 21
14.0084352646
 31
0.0
  0
LINE
  8
0
 62
0
 10
130.483009527
 20
14.0084352646
 30
0.0
 11
130.499453832
 21
11.1008130619
 31
0.0
  0
LINE
  8
0
 62
0
 10
130.499453832
 20
11.1008130619
 30
0.0
 11
135.465637775
 21
11.1008130619
 31
0.0
  0
LINE
  8
0
 62
0
 10
135.465637775
 20
31.1008130619
 30
0.0
 11
137.018618771
 21
35.880397107
 31
0.0
  0
LINE
  8
0
 62
0
 10
137.018618771
 20
35.880397107
 30
0.0
 11
134.261729704
 21
36.7735897727
 31
0.0
  0
LINE
  8
0
 62
0
 10
134.261729704
 20
36.7735897727
 30
0.0
 11
135.167876552
 21
39.5704626495
 31
0.0
  0
LINE
  8
0
 62
0
 10
135.167876552
 20
39.5704626495
 30
0.0
 11
137.927129059
 21
38.6765042633
 31
0.0
  0
LINE
  8
0
 62
0
 10
137.927129059
 20
38.6765042633
 30
0.0
 11
139.461621679
 21
43.3991869381
 31
0.0
  0
LINE
  8
0
 62
0
 10
139.461621679
 20
43.3991869381
 30
0.0
 11
135.395664449
 21
46.3532777827
 31
0.0
  0
LINE
  8
0
 62
0
 10
135.395664449
 20
46.3532777827
 30
0.0
 11
133.686382907
 21
44.0086668624
 31
0.0
  0
LINE
  8
0
 62
0
 10
133.686382907
 20
44.0086668624
 30
0.0
 11
131.310681314
 21
45.7406143032
 31
0.0
  0
LINE
  8
0
 62
0
 10
131.310681314
 20
45.7406143032
 30
0.0
 11
133.017151352
 21
48.0813687013
 31
0.0
  0
LINE
  8
0
 62
0
 10
133.017151352
 20
48.0813687013
 30
0.0
 11
129.0
 21
51.0
 31
0.0
  0
LINE
  8
0
 62
0
 10
129.0
 20
51.0
 30
0.0
 11
124.934173632
 21
48.0460042324
 31
0.0
  0
LINE
  8
0
 62
0
 10
124.934173632
 20
48.0460042324
 30
0.0
 11
126.638272958
 21
45.7005127295
 31
0.0
  0
LINE
  8
0
 62
0
 10
126.638272958
 20
45.7005127295
 30
0.0
 11
124.259762995
 21
43.9724240878
 31
0.0
  0
LINE
  8
0
 62
0
 10
124.259762995
 20
43.9724240878
 30
0.0
 11
122.555663669
 21
46.3179155906
 31
0.0
  0
LINE
  8
0
 62
0
 10
122.555663669
 20
46.3179155906
 30
0.0
 11
118.538378321
 21
43.3991869381
 31
0.0
  0
LINE
  8
0
 62
0
 10
118.538378321
 20
43.3991869381
 30
0.0
 11
120.091523662
 21
38.6190970907
 31
0.0
  0
LINE
  8
0
 62
0
 10
120.091523662
 20
38.6190970907
 30
0.0
 11
122.859157409
 21
39.5043786107
 31
0.0
  0
LINE
  8
0
 62
0
 10
122.859157409
 20
39.5043786107
 30
0.0
 11
123.75486646
 21
36.7041455317
 31
0.0
  0
LINE
  8
0
 62
0
 10
123.75486646
 20
36.7041455317
 30
0.0
 11
121.000043132
 21
35.8229616738
 31
0.0
  0
LINE
  8
0
 62
0
 10
121.000043132
 20
35.8229616738
 30
0.0
 11
122.534362225
 21
31.1008130619
 31
0.0
  0
LINE
  8
0
 62
0
 10
122.534362225
 20
31.1008130619
 30
0.0
 11
127.559406814
 21
31.1008130619
 31
0.0
  0
LINE
  8
0
 62
0
 10
127.559406814
 20
31.1008130619
 30
0.0
 11
127.543056545
 21
33.9918081105
 31
0.0
  0
LINE
  8
0
 62
0
 10
127.543056545
 20
33.9918081105
 30
0.0
 11
130.483009527
 21
34.0084352646
 31
0.0
  0
LINE
  8
0
 62
0
 10
130.483009527
 20
34.0084352646
 30
0.0
 11
130.499453832
 21
31.1008130619
 31
0.0
  0
LINE
  8
0
 62
0
 10
130.499453832
 20
31.1008130619
 30
0.0
 11
135.465637775
 21
31.1008130619
 31
0.0
  0
LINE
  8
0
 62
0
 10
135.465637775
 20
51.1008130619
 30
0.0
 11
137.018618771
 21
55.880397107
 31
0.0
  0
LINE
  8
0
 62
0
 10
137.018618771
 20
55.880397107
 30
0.0
 11
134.261729704
 21
56.7735897727
 31
0.0
  0
LINE
  8
0
 62
0
 10
134.261729704
 20
56.7735897727
 30
0.0
 11
135.167876552
 21
59.5704626495
 31
0.0
  0
LINE
  8
0
 62
0
 10
135.167876552
 20
59.5704626495
 30
0.0
 11
137.927129059
 21
58.6765042633
 31
0.0
  0
LINE
  8
0
 62
0
 10
137.927129059
 20
58.6765042633
 30
0.0
 11
139.461621679
 21
63.3991869381
 31
0.0
  0
LINE
  8
0
 62
0
 10
139.461621679
 20
63.3991869381
 30
0.0
 11
135.395664449
 21
66.3532777827
 31
0.0
  0
LINE
  8
0
 62
0
 10
135.395664449
 20
66.3532777827
 30
0.0
 11
133.686382907
 21
64.0086668624
 31
0.0
  0
LINE
  8
0
 62
0
 10
133.686382907
 20
64.0086668624
 30
0.0
 11
131.310681314
 21
65.7406143032
 31
0.0
  0
LINE
  8
0
 62
0
 10
131.310681314
 20
65.7406143032
 30
0.0
 11
133.017151352
 21
68.0813687013
 31
0.0
  0
LINE
  8
0
 62
0
 10
133.017151352
 20
68.0813687013
 30
0.0
 11
129.0
 21
71.0
 31
0.0
  0
LINE
  8
0
 62
0
 10
129.0
 20
71.0
 30
0.0
 11
124.934173632
 21
68.0460042324
 31
0.0
  0
LINE
  8
0
 62
0
 10
124.934173632
 20
68.0460042324
 30
0.0
 11
126.638272958
 21
65.7005127295
 31
0.0
  0
LINE
  8
0
 62
0
 10
126.638272958
 20
65.7005127295
 30
0.0
 11
124.259762995
 21
63.9724240878
 31
0.0
  0
LINE
  8
0
 62
0
 10
124.259762995
 20
63.9724240878
 30
0.0
 11
122.555663669
 21
66.3179155906
 31
0.0
  0
LINE
  8
0
 62
0
 10
122.555663669
 20
66.3179155906
 30
0.0
 11
118.538378321
 21
63.3991869381
 31
0.0
  0
LINE
  8
0
 62
0
 10
118.538378321
 20
63.3991869381
 30
0.0
 11
120.091523662
 21
58.6190970907
 31
0.0
  0
LINE
  8
0
 62
0
 10
120.091523662
 20
58.6190970907
 30
0.0
 11
122.859157409
 21
59.5043786107
 31
0.0
  0
LINE
  8
0
 62
0
 10
122.859157409
 20
59.5043786107
 30
0.0
 11
123.75486646
 21
56.7041455317
 31
0.0
  0
LINE
  8
0
 62
0
 10
123.75486646
 20
56.7041455317
 30
0.0
 11
121.000043132
 21
55.8229616738
 31
0.0
  0
LINE
  8
0
 62
0
 10
121.000043132
 20
55.8229616738
 30
0.0
 11
122.534362225
 21
51.1008130619
 31
0.0
  0
LINE
  8
0
 62
0
 10
122.534362225
 20
51.1008130619
 30
0.0
 11
127.559406814
 21
51.1008130619
 31
0.0
  0
LINE
  8
0
 62
0
 10
127.559406814
 20
51.1008130619
 30
0.0
 11
127.543056545
 21
53.9918081105
 31
0.0
  0
LINE
  8
0
 62
0
 10
127.543056545
 20
53.9918081105
 30
0.0
 11
130.483009527
 21
54.0084352646
 31
0.0
  0
LINE
  8
0
 62
0
 10
130.483009527
 20
54.0084352646
 30
0.0
 11
130.499453832
 21
51.1008130619
 31
0.0
  0
LINE
  8
0
 62
0
 10
130.499453832
 20
51.1008130619
 30
0.0
 11
135.465637775
 21
51.1008130619
 31
0.0
  0
LINE
  8
0
 62
0
 10
135.465637775
 20
71.1008130619
 30
0.0
 11
137.018618771
 21
75.880397107
 31
0.0
  0
LINE
  8
0
 62
0
 10
137.018618771
 20
75.880397107
 30
0.0
 11
134.261729704
 21
76.7735897727
 31
0.0
  0
LINE
  8
0
 62
0
 10
134.261729704
 20
76.7735897727
 30
0.0
 11
135.167876552
 21
79.5704626495
 31
0.0
  0
LINE
  8
0
 62
0
 10
135.167876552
 20
79.5704626495
 30
0.0
 11
137.927129059
 21
78.6765042633
 31
0.0
  0
LINE
  8
0
 62
0
 10
137.927129059
 20
78.6765042633
 30
0.0
 11
139.461621679
 21
83.3991869381
 31
0.0
  0
LINE
  8
0
 62
0
 10
139.461621679
 20
83.3991869381
 30
0.0
 11
135.395664449
 21
86.3532777827
 31
0.0
  0
LINE
  8
0
 62
0
 10
135.395664449
 20
86.3532777827
 30
0.0
 11
133.686382907
 21
84.0086668624
 31
0.0
  0
LINE
  8
0
 62
0
 10
133.686382907
 20
84.0086668624
 30
0.0
 11
131.310681314
 21
85.7406143032
 31
0.0
  0
LINE
  8
0
 62
0
 10
131.310681314
 20
85.7406143032
 30
0.0
 11
133.017151352
 21
88.0813687013
 31
0.0
  0
LINE
  8
0
 62
0
 10
133.017151352
 20
88.0813687013
 30
0.0
 11
129.0
 21
91.0
 31
0.0
  0
LINE
  8
0
 62
0
 10
129.0
 20
91.0
 30
0.0
 11
124.934173632
 21
88.0460042324
 31
0.0
  0
LINE
  8
0
 62
0
 10
124.934173632
 20
88.0460042324
 30
0.0
 11
126.638272958
 21
85.7005127295
 31
0.0
  0
LINE
  8
0
 62
0
 10
126.638272958
 20
85.7005127295
 30
0.0
 11
124.259762995
 21
83.9724240878
 31
0.0
  0
LINE
  8
0
 62
0
 10
124.259762995
 20
83.9724240878
 30
0.0
 11
122.555663669
 21
86.3179155906
 31
0.0
  0
LINE
  8
0
 62
0
 10
122.555663669
 20
86.3179155906
 30
0.0
 11
118.538378321
 21
83.3991869381
 31
0.0
  0
LINE
  8
0
 62
0
 10
118.538378321
 20
83.3991869381
 30
0.0
 11
120.091523662
 21
78.6190970907
 31
0.0
  0
LINE
  8
0
 62
0
 10
120.091523662
 20
78.6190970907
 30
0.0
 11
122.859157409
 21
79.5043786107
 31
0.0
  0
LINE
  8
0
 62
0
 10
122.859157409
 20
79.5043786107
 30
0.0
 11
123.75486646
 21
76.7041455317
 31
0.0
  0
LINE
  8
0
 62
0
 10
123.75486646
 20
76.7041455317
 30
0.0
 11
121.000043132
 21
75.8229616738
 31
0.0
  0
LINE
  8
0
 62
0
 10
121.000043132
 20
75.8229616738
 30
0.0
 11
122.534362225
 21
71.1008130619
 31
0.0
  0
LINE
  8
0
 62
0
 10
122.534362225
 20
71.1008130619
 30
0.0
 11
127.559406814
 21
71.1008130619
 31
0.0
  0
LINE
  8
0
 62
0
 10
127.559406814
 20
71.1008130619
 30
0.0
 11
127.543056545
 21
73.9918081105
 31
0.0
  0
LINE
  8
0
 62
0
 10
127.543056545
 20
73.9918081105
 30
0.0
 11
130.483009527
 21
74.0084352646
 31
0.0
  0
LINE
  8
0
 62
0
 10
130.483009527
 20
74.0084352646
 30
0.0
 11
130.499453832
 21
71.1008130619
 31
0.0
  0
LINE
  8
0
 62
0
 10
130.499453832
 20
71.1008130619
 30
0.0
 11
135.465637775
 21
71.1008130619
 31
0.0
  0
LINE
  8
0
 62
0
 10
157.465637775
 20
-8.89918693812
 30
0.0
 11
159.018618771
 21
-4.11960289296
 31
0.0
  0
LINE
  8
0
 62
0
 10
159.018618771
 20
-4.11960289296
 30
0.0
 11
156.261729704
 21
-3.22641022734
 31
0.0
  0
LINE
  8
0
 62
0
 10
156.261729704
 20
-3.22641022734
 30
0.0
 11
157.167876552
 21
-0.429537350549
 31
0.0
  0
LINE
  8
0
 62
0
 10
157.167876552
 20
-0.429537350549
 30
0.0
 11
159.927129059
 21
-1.32349573674
 31
0.0
  0
LINE
  8
0
 62
0
 10
159.927129059
 20
-1.32349573674
 30
0.0
 11
161.461621679
 21
3.39918693812
 31
0.0
  0
LINE
  8
0
 62
0
 10
161.461621679
 20
3.39918693812
 30
0.0
 11
157.395664449
 21
6.35327778266
 31
0.0
  0
LINE
  8
0
 62
0
 10
157.395664449
 20
6.35327778266
 30
0.0
 11
155.686382907
 21
4.00866686237
 31
0.0
  0
LINE
  8
0
 62
0
 10
155.686382907
 20
4.00866686237
 30
0.0
 11
153.310681314
 21
5.7406143032
 31
0.0
  0
LINE
  8
0
 62
0
 10
153.310681314
 20
5.7406143032
 30
0.0
 11
155.017151352
 21
8.0813687013
 31
0.0
  0
LINE
  8
0
 62
0
 10
155.017151352
 20
8.0813687013
 30
0.0
 11
151.0
 21
11.0
 31
0.0
  0
LINE
  8
0
 62
0
 10
151.0
 20
11.0
 30
0.0
 11
146.934173632
 21
8.04600423237
 31
0.0
  0
LINE
  8
0
 62
0
 10
146.934173632
 20
8.04600423237
 30
0.0
 11
148.638272958
 21
5.70051272955
 31
0.0
  0
LINE
  8
0
 62
0
 10
148.638272958
 20
5.70051272955
 30
0.0
 11
146.259762995
 21
3.97242408781
 31
0.0
  0
LINE
  8
0
 62
0
 10
146.259762995
 20
3.97242408781
 30
0.0
 11
144.555663669
 21
6.31791559063
 31
0.0
  0
LINE
  8
0
 62
0
 10
144.555663669
 20
6.31791559063
 30
0.0
 11
140.538378321
 21
3.39918693812
 31
0.0
  0
LINE
  8
0
 62
0
 10
140.538378321
 20
3.39918693812
 30
0.0
 11
142.091523662
 21
-1.3809029093
 31
0.0
  0
LINE
  8
0
 62
0
 10
142.091523662
 20
-1.3809029093
 30
0.0
 11
144.859157409
 21
-0.495621389338
 31
0.0
  0
LINE
  8
0
 62
0
 10
144.859157409
 20
-0.495621389338
 30
0.0
 11
145.75486646
 21
-3.29585446828
 31
0.0
  0
LINE
  8
0
 62
0
 10
145.75486646
 20
-3.29585446828
 30
0.0
 11
143.000043132
 21
-4.17703832622
 31
0.0
  0
LINE
  8
0
 62
0
 10
143.000043132
 20
-4.17703832622
 30
0.0
 11
144.534362225
 21
-8.89918693812
 31
0.0
  0
LINE
  8
0
 62
0
 10
144.534362225
 20
-8.89918693812
 30
0.0
 11
149.559406814
 21
-8.89918693812
 31
0.0
  0
LINE
  8
0
 62
0
 10
149.559406814
 20
-8.89918693812
 30
0.0
 11
149.543056545
 21
-6.00819188954
 31
0.0
  0
LINE
  8
0
 62
0
 10
149.543056545
 20
-6.00819188954
 30
0.0
 11
152.483009527
 21
-5.99156473536
 31
0.0
  0
LINE
  8
0
 62
0
 10
152.483009527
 20
-5.99156473536
 30
0.0
 11
152.499453832
 21
-8.89918693812
 31
0.0
  0
LINE
  8
0
 62
0
 10
152.499453832
 20
-8.89918693812
 30
0.0
 11
157.465637775
 21
-8.89918693812
 31
0.0
  0
LINE
  8
0
 62
0
 10
157.465637775
 20
11.1008130619
 30
0.0
 11
159.018618771
 21
15.880397107
 31
0.0
  0
LINE
  8
0
 62
0
 10
159.018618771
 20
15.880397107
 30
0.0
 11
156.261729704
 21
16.7735897727
 31
0.0
  0
LINE
  8
0
 62
0
 10
156.261729704
 20
16.7735897727
 30
0.0
 11
157.167876552
 21
19.5704626495
 31
0.0
  0
LINE
  8
0
 62
0
 10
157.167876552
 20
19.5704626495
 30
0.0
 11
159.927129059
 21
18.6765042633
 31
0.0
  0
LINE
  8
0
 62
0
 10
159.927129059
 20
18.6765042633
 30
0.0
 11
161.461621679
 21
23.3991869381
 31
0.0
  0
LINE
  8
0
 62
0
 10
161.461621679
 20
23.3991869381
 30
0.0
 11
157.395664449
 21
26.3532777827
 31
0.0
  0
LINE
  8
0
 62
0
 10
157.395664449
 20
26.3532777827
 30
0.0
 11
155.686382907
 21
24.0086668624
 31
0.0
  0
LINE
  8
0
 62
0
 10
155.686382907
 20
24.0086668624
 30
0.0
 11
153.310681314
 21
25.7406143032
 31
0.0
  0
LINE
  8
0
 62
0
 10
153.310681314
 20
25.7406143032
 30
0.0
 11
155.017151352
 21
28.0813687013
 31
0.0
  0
LINE
  8
0
 62
0
 10
155.017151352
 20
28.0813687013
 30
0.0
 11
151.0
 21
31.0
 31
0.0
  0
LINE
  8
0
 62
0
 10
151.0
 20
31.0
 30
0.0
 11
146.934173632
 21
28.0460042324
 31
0.0
  0
LINE
  8
0
 62
0
 10
146.934173632
 20
28.0460042324
 30
0.0
 11
148.638272958
 21
25.7005127295
 31
0.0
  0
LINE
  8
0
 62
0
 10
148.638272958
 20
25.7005127295
 30
0.0
 11
146.259762995
 21
23.9724240878
 31
0.0
  0
LINE
  8
0
 62
0
 10
146.259762995
 20
23.9724240878
 30
0.0
 11
144.555663669
 21
26.3179155906
 31
0.0
  0
LINE
  8
0
 62
0
 10
144.555663669
 20
26.3179155906
 30
0.0
 11
140.538378321
 21
23.3991869381
 31
0.0
  0
LINE
  8
0
 62
0
 10
140.538378321
 20
23.3991869381
 30
0.0
 11
142.091523662
 21
18.6190970907
 31
0.0
  0
LINE
  8
0
 62
0
 10
142.091523662
 20
18.6190970907
 30
0.0
 11
144.859157409
 21
19.5043786107
 31
0.0
  0
LINE
  8
0
 62
0
 10
144.859157409
 20
19.5043786107
 30
0.0
 11
145.75486646
 21
16.7041455317
 31
0.0
  0
LINE
  8
0
 62
0
 10
145.75486646
 20
16.7041455317
 30
0.0
 11
143.000043132
 21
15.8229616738
 31
0.0
  0
LINE
  8
0
 62
0
 10
143.000043132
 20
15.8229616738
 30
0.0
 11
144.534362225
 21
11.1008130619
 31
0.0
  0
LINE
  8
0
 62
0
 10
144.534362225
 20
11.1008130619
 30
0.0
 11
149.559406814
 21
11.1008130619
 31
0.0
  0
LINE
  8
0
 62
0
 10
149.559406814
 20
11.1008130619
 30
0.0
 11
149.543056545
 21
13.9918081105
 31
0.0
  0
LINE
  8
0
 62
0
 10
149.543056545
 20
13.9918081105
 30
0.0
 11
152.483009527
 21
14.0084352646
 31
0.0
  0
LINE
  8
0
 62
0
 10
152.483009527
 20
14.0084352646
 30
0.0
 11
152.499453832
 21
11.1008130619
 31
0.0
  0
LINE
  8
0
 62
0
 10
152.499453832
 20
11.1008130619
 30
0.0
 11
157.465637775
 21
11.1008130619
 31
0.0
  0
LINE
  8
0
 62
0
 10
157.465637775
 20
31.1008130619
 30
0.0
 11
159.018618771
 21
35.880397107
 31
0.0
  0
LINE
  8
0
 62
0
 10
159.018618771
 20
35.880397107
 30
0.0
 11
156.261729704
 21
36.7735897727
 31
0.0
  0
LINE
  8
0
 62
0
 10
156.261729704
 20
36.7735897727
 30
0.0
 11
157.167876552
 21
39.5704626495
 31
0.0
  0
LINE
  8
0
 62
0
 10
157.167876552
 20
39.5704626495
 30
0.0
 11
159.927129059
 21
38.6765042633
 31
0.0
  0
LINE
  8
0
 62
0
 10
159.927129059
 20
38.6765042633
 30
0.0
 11
161.461621679
 21
43.3991869381
 31
0.0
  0
LINE
  8
0
 62
0
 10
161.461621679
 20
43.3991869381
 30
0.0
 11
157.395664449
 21
46.3532777827
 31
0.0
  0
LINE
  8
0
 62
0
 10
157.395664449
 20
46.3532777827
 30
0.0
 11
155.686382907
 21
44.0086668624
 31
0.0
  0
LINE
  8
0
 62
0
 10
155.686382907
 20
44.0086668624
 30
0.0
 11
153.310681314
 21
45.7406143032
 31
0.0
  0
LINE
  8
0
 62
0
 10
153.310681314
 20
45.7406143032
 30
0.0
 11
155.017151352
 21
48.0813687013
 31
0.0
  0
LINE
  8
0
 62
0
 10
155.017151352
 20
48.0813687013
 30
0.0
 11
151.0
 21
51.0
 31
0.0
  0
LINE
  8
0
 62
0
 10
151.0
 20
51.0
 30
0.0
 11
146.934173632
 21
48.0460042324
 31
0.0
  0
LINE
  8
0
 62
0
 10
146.934173632
 20
48.0460042324
 30
0.0
 11
148.638272958
 21
45.7005127295
 31
0.0
  0
LINE
  8
0
 62
0
 10
148.638272958
 20
45.7005127295
 30
0.0
 11
146.259762995
 21
43.9724240878
 31
0.0
  0
LINE
  8
0
 62
0
 10
146.259762995
 20
43.9724240878
 30
0.0
 11
144.555663669
 21
46.3179155906
 31
0.0
  0
LINE
  8
0
 62
0
 10
144.555663669
 20
46.3179155906
 30
0.0
 11
140.538378321
 21
43.3991869381
 31
0.0
  0
LINE
  8
0
 62
0
 10
140.538378321
 20
43.3991869381
 30
0.0
 11
142.091523662
 21
38.6190970907
 31
0.0
  0
LINE
  8
0
 62
0
 10
142.091523662
 20
38.6190970907
 30
0.0
 11
144.859157409
 21
39.5043786107
 31
0.0
  0
LINE
  8
0
 62
0
 10
144.859157409
 20
39.5043786107
 30
0.0
 11
145.75486646
 21
36.7041455317
 31
0.0
  0
LINE
  8
0
 62
0
 10
145.75486646
 20
36.7041455317
 30
0.0
 11
143.000043132
 21
35.8229616738
 31
0.0
  0
LINE
  8
0
 62
0
 10
143.000043132
 20
35.8229616738
 30
0.0
 11
144.534362225
 21
31.1008130619
 31
0.0
  0
LINE
  8
0
 62
0
 10
144.534362225
 20
31.1008130619
 30
0.0
 11
149.559406814
 21
31.1008130619
 31
0.0
  0
LINE
  8
0
 62
0
 10
149.559406814
 20
31.1008130619
 30
0.0
 11
149.543056545
 21
33.9918081105
 31
0.0
  0
LINE
  8
0
 62
0
 10
149.543056545
 20
33.9918081105
 30
0.0
 11
152.483009527
 21
34.0084352646
 31
0.0
  0
LINE
  8
0
 62
0
 10
152.483009527
 20
34.0084352646
 30
0.0
 11
152.499453832
 21
31.1008130619
 31
0.0
  0
LINE
  8
0
 62
0
 10
152.499453832
 20
31.1008130619
 30
0.0
 11
157.465637775
 21
31.1008130619
 31
0.0
  0
LINE
  8
0
 62
0
 10
157.465637775
 20
51.1008130619
 30
0.0
 11
159.018618771
 21
55.880397107
 31
0.0
  0
LINE
  8
0
 62
0
 10
159.018618771
 20
55.880397107
 30
0.0
 11
156.261729704
 21
56.7735897727
 31
0.0
  0
LINE
  8
0
 62
0
 10
156.261729704
 20
56.7735897727
 30
0.0
 11
157.167876552
 21
59.5704626495
 31
0.0
  0
LINE
  8
0
 62
0
 10
157.167876552
 20
59.5704626495
 30
0.0
 11
159.927129059
 21
58.6765042633
 31
0.0
  0
LINE
  8
0
 62
0
 10
159.927129059
 20
58.6765042633
 30
0.0
 11
161.461621679
 21
63.3991869381
 31
0.0
  0
LINE
  8
0
 62
0
 10
161.461621679
 20
63.3991869381
 30
0.0
 11
157.395664449
 21
66.3532777827
 31
0.0
  0
LINE
  8
0
 62
0
 10
157.395664449
 20
66.3532777827
 30
0.0
 11
155.686382907
 21
64.0086668624
 31
0.0
  0
LINE
  8
0
 62
0
 10
155.686382907
 20
64.0086668624
 30
0.0
 11
153.310681314
 21
65.7406143032
 31
0.0
  0
LINE
  8
0
 62
0
 10
153.310681314
 20
65.7406143032
 30
0.0
 11
155.017151352
 21
68.0813687013
 31
0.0
  0
LINE
  8
0
 62
0
 10
155.017151352
 20
68.0813687013
 30
0.0
 11
151.0
 21
71.0
 31
0.0
  0
LINE
  8
0
 62
0
 10
151.0
 20
71.0
 30
0.0
 11
146.934173632
 21
68.0460042324
 31
0.0
  0
LINE
  8
0
 62
0
 10
146.934173632
 20
68.0460042324
 30
0.0
 11
148.638272958
 21
65.7005127295
 31
0.0
  0
LINE
  8
0
 62
0
 10
148.638272958
 20
65.7005127295
 30
0.0
 11
146.259762995
 21
63.9724240878
 31
0.0
  0
LINE
  8
0
 62
0
 10
146.259762995
 20
63.9724240878
 30
0.0
 11
144.555663669
 21
66.3179155906
 31
0.0
  0
LINE
  8
0
 62
0
 10
144.555663669
 20
66.3179155906
 30
0.0
 11
140.538378321
 21
63.3991869381
 31
0.0
  0
LINE
  8
0
 62
0
 10
140.538378321
 20
63.3991869381
 30
0.0
 11
142.091523662
 21
58.6190970907
 31
0.0
  0
LINE
  8
0
 62
0
 10
142.091523662
 20
58.6190970907
 30
0.0
 11
144.859157409
 21
59.5043786107
 31
0.0
  0
LINE
  8
0
 62
0
 10
144.859157409
 20
59.5043786107
 30
0.0
 11
145.75486646
 21
56.7041455317
 31
0.0
  0
LINE
  8
0
 62
0
 10
145.75486646
 20
56.7041455317
 30
0.0
 11
143.000043132
 21
55.8229616738
 31
0.0
  0
LINE
  8
0
 62
0
 10
143.000043132
 20
55.8229616738
 30
0.0
 11
144.534362225
 21
51.1008130619
 31
0.0
  0
LINE
  8
0
 62
0
 10
144.534362225
 20
51.1008130619
 30
0.0
 11
149.559406814
 21
51.1008130619
 31
0.0
  0
LINE
  8
0
 62
0
 10
149.559406814
 20
51.1008130619
 30
0.0
 11
149.543056545
 21
53.9918081105
 31
0.0
  0
LINE
  8
0
 62
0
 10
149.543056545
 20
53.9918081105
 30
0.0
 11
152.483009527
 21
54.0084352646
 31
0.0
  0
LINE
  8
0
 62
0
 10
152.483009527
 20
54.0084352646
 30
0.0
 11
152.499453832
 21
51.1008130619
 31
0.0
  0
LINE
  8
0
 62
0
 10
152.499453832
 20
51.1008130619
 30
0.0
 11
157.465637775
 21
51.1008130619
 31
0.0
  0
LINE
  8
0
 62
0
 10
157.465637775
 20
71.1008130619
 30
0.0
 11
159.018618771
 21
75.880397107
 31
0.0
  0
LINE
  8
0
 62
0
 10
159.018618771
 20
75.880397107
 30
0.0
 11
156.261729704
 21
76.7735897727
 31
0.0
  0
LINE
  8
0
 62
0
 10
156.261729704
 20
76.7735897727
 30
0.0
 11
157.167876552
 21
79.5704626495
 31
0.0
  0
LINE
  8
0
 62
0
 10
157.167876552
 20
79.5704626495
 30
0.0
 11
159.927129059
 21
78.6765042633
 31
0.0
  0
LINE
  8
0
 62
0
 10
159.927129059
 20
78.6765042633
 30
0.0
 11
161.461621679
 21
83.3991869381
 31
0.0
  0
LINE
  8
0
 62
0
 10
161.461621679
 20
83.3991869381
 30
0.0
 11
157.395664449
 21
86.3532777827
 31
0.0
  0
LINE
  8
0
 62
0
 10
157.395664449
 20
86.3532777827
 30
0.0
 11
155.686382907
 21
84.0086668624
 31
0.0
  0
LINE
  8
0
 62
0
 10
155.686382907
 20
84.0086668624
 30
0.0
 11
153.310681314
 21
85.7406143032
 31
0.0
  0
LINE
  8
0
 62
0
 10
153.310681314
 20
85.7406143032
 30
0.0
 11
155.017151352
 21
88.0813687013
 31
0.0
  0
LINE
  8
0
 62
0
 10
155.017151352
 20
88.0813687013
 30
0.0
 11
151.0
 21
91.0
 31
0.0
  0
LINE
  8
0
 62
0
 10
151.0
 20
91.0
 30
0.0
 11
146.934173632
 21
88.0460042324
 31
0.0
  0
LINE
  8
0
 62
0
 10
146.934173632
 20
88.0460042324
 30
0.0
 11
148.638272958
 21
85.7005127295
 31
0.0
  0
LINE
  8
0
 62
0
 10
148.638272958
 20
85.7005127295
 30
0.0
 11
146.259762995
 21
83.9724240878
 31
0.0
  0
LINE
  8
0
 62
0
 10
146.259762995
 20
83.9724240878
 30
0.0
 11
144.555663669
 21
86.3179155906
 31
0.0
  0
LINE
  8
0
 62
0
 10
144.555663669
 20
86.3179155906
 30
0.0
 11
140.538378321
 21
83.3991869381
 31
0.0
  0
LINE
  8
0
 62
0
 10
140.538378321
 20
83.3991869381
 30
0.0
 11
142.091523662
 21
78.6190970907
 31
0.0
  0
LINE
  8
0
 62
0
 10
142.091523662
 20
78.6190970907
 30
0.0
 11
144.859157409
 21
79.5043786107
 31
0.0
  0
LINE
  8
0
 62
0
 10
144.859157409
 20
79.5043786107
 30
0.0
 11
145.75486646
 21
76.7041455317
 31
0.0
  0
LINE
  8
0
 62
0
 10
145.75486646
 20
76.7041455317
 30
0.0
 11
143.000043132
 21
75.8229616738
 31
0.0
  0
LINE
  8
0
 62
0
 10
143.000043132
 20
75.8229616738
 30
0.0
 11
144.534362225
 21
71.1008130619
 31
0.0
  0
LINE
  8
0
 62
0
 10
144.534362225
 20
71.1008130619
 30
0.0
 11
149.559406814
 21
71.1008130619
 31
0.0
  0
LINE
  8
0
 62
0
 10
149.559406814
 20
71.1008130619
 30
0.0
 11
149.543056545
 21
73.9918081105
 31
0.0
  0
LINE
  8
0
 62
0
 10
149.543056545
 20
73.9918081105
 30
0.0
 11
152.483009527
 21
74.0084352646
 31
0.0
  0
LINE
  8
0
 62
0
 10
152.483009527
 20
74.0084352646
 30
0.0
 11
152.499453832
 21
71.1008130619
 31
0.0
  0
LINE
  8
0
 62
0
 10
152.499453832
 20
71.1008130619
 30
0.0
 11
157.465637775
 21
71.1008130619
 31
0.0
  0
ENDBLK
  0
ENDSEC
  0
SECTION
  2
ENTITIES
  0
INSERT
  2
ARRAY
  8
0
 62
0
 10
0.0
 20
0.0
 30
0.0
  0
ENDSEC
  0
EOF
