0
SECTION
2
HEADER
9
$INSUNITS
70
4
9
$ACADVER
1
AC1014
9
$HANDSEED
5
FFFF
0
ENDSEC
0
SECTION
2
TABLES
0
TABLE
2
VPORT
5
8
100
AcDbSymbolTable
0
ENDTAB
0
TABLE
2
LTYPE
5
5
100
AcDbSymbolTable
0
LTYPE
5
14
100
AcDbSymbolTableRecord
100
AcDbLinetypeTableRecord
2
BYBLOCK
70
0
0
LTYPE
5
15
100
AcDbSymbolTableRecord
100
AcDbLinetypeTableRecord
2
BYLAYER
70
0
0
ENDTAB
0
TABLE
2
LAYER
5
2
100
AcDbSymbolTable
70
2
0
LAYER
5
50
100
AcDbSymbolTableRecord
100
AcDbLayerTableRecord
2
0
70
0
6
CONTINUOUS
0
ENDTAB
0
TABLE
2
STYLE
5
3
100
AcDbSymbolTable
70
1
0
STYLE
5
11
100
AcDbSymbolTableRecord
100
AcDbTextStyleTableRecord
2
STANDARD
70
0
0
ENDTAB
0
TABLE
2
VIEW
5
6
100
AcDbSymbolTable
70
0
0
ENDTAB
0
TABLE
2
UCS
5
7
100
AcDbSymbolTable
70
0
0
ENDTAB
0
TABLE
2
APPID
5
9
100
AcDbSymbolTable
70
2
0
APPID
5
12
100
AcDbSymbolTableRecord
100
AcDbRegAppTableRecord
2
ACAD
70
0
0
ENDTAB
0
TABLE
2
DIMSTYLE
5
A
100
AcDbSymbolTable
70
1
0
ENDTAB
0
TABLE
2
BLOCK_RECORD
5
1
100
AcDbSymbolTable
70
1
0
BLOCK_RECORD
5
1F
100
AcDbSymbolTableRecord
100
AcDbBlockTableRecord
2
*MODEL_SPACE
0
BLOCK_RECORD
5
1B
100
AcDbSymbolTableRecord
100
AcDbBlockTableRecord
2
*PAPER_SPACE
0
ENDTAB
0
ENDSEC
0
SECTION
2
BLOCKS
0
BLOCK
5
20
100
AcDbEntity
100
AcDbBlockBegin
2
*MODEL_SPACE
0
ENDBLK
5
21
100
AcDbEntity
100
AcDbBlockEnd
0
BLOCK
5
1C
100
AcDbEntity
100
AcDbBlockBegin
2
*PAPER_SPACE
0
ENDBLK
5
1D
100
AcDbEntity
100
AcDbBlockEnd
0
ENDSEC
0
SECTION
2
ENTITIES
0
LWPOLYLINE
5
100
100
AcDbEntity
8
0
100
AcDbPolyline
90
6
70
1
43
0.0
10
356.09439366743891
20
169.56783418893153
10
-19.98504682950156
20
9.34800550080503
42
0.66094107317361805
10
-19.985046829501627
20
-27.451618461366039
10
356.09439366742652
20
-187.6714471494887
42
0.53774283103461462
10
383.93320219046723
20
-169.27163516839525
10
383.93320219046723
20
151.16802220784632
42
0.53774283103461507
0
CIRCLE
5
101
100
AcDbEntity
8
0
100
AcDbCircle
10
-12.066797809532794
20
-9.0518064802802005
30
0
40
5
0
CIRCLE
5
102
100
AcDbEntity
8
0
100
AcDbCircle
10
53.93320219046722
20
-9.0518064802792448
30
0
40
5
0
LWPOLYLINE
5
103
100
AcDbEntity
8
0
100
AcDbPolyline
90
8
70
1
43
0.0
10
327.8032496033868
20
-91.598680787530228
10
327.8032496033868
20
73.495067828068969
42
0.53774283103860199
10
313.88384534175862
20
82.694973818563227
10
310.84354747257242
20
81.399726189139372
42
0.30060759161475442
10
307.8032496033868
20
76.799773193892406
10
307.80324960338669
20
-94.903386150986236
42
0.300607591623751
10
310.8435474727242
20
-99.503339146297947
10
313.88384534434635
20
-100.79858677664092
42
0.5377428310280733
0
LWPOLYLINE
5
104
100
AcDbEntity
8
0
100
AcDbPolyline
90
4
70
1
43
0.0
10
316.58592369244963
20
141.86650051790974
10
270.58639373973443
20
122.26947921034045
10
272.15415544434154
20
118.5895168141181
10
318.15368539705895
20
138.18653812167906
0
LWPOLYLINE
5
105
100
AcDbEntity
8
0
100
AcDbPolyline
90
6
70
1
43
0.0
10
147.80324960338677
20
-22.478871693167015
10
147.80324960338677
20
4.3752587322464258
42
0.53774283103461484
10
140.84354747262964
20
8.9752117275177827
10
120.12391837903354
20
0.14809951029329804
42
0.66094107316807249
10
120.12391837889156
20
-18.251712470776159
10
140.84354747255875
20
-27.078824688408169
42
0.53774283103958398
0
LWPOLYLINE
5
106
100
AcDbEntity
8
0
100
AcDbPolyline
90
8
70
1
43
0.0
10
157.80324960338677
20
-30.999402803040628
10
157.80324960338677
20
12.895789845375985
42
-0.30060759161814637
10
160.84354747262964
20
17.495742840647349
10
170.84354747262961
20
21.756008397212121
42
-0.53774283103461273
10
177.80324960338677
20
17.156055401940741
10
177.80324960338675
20
-35.259668361175962
42
-0.5377428310774528
10
170.8435474720182
20
-39.859621356186807
10
160.84354747201814
20
-35.599355798051484
42
-0.3006075915819072
0
LWPOLYLINE
5
107
100
AcDbEntity
8
0
100
AcDbPolyline
90
8
70
1
43
0.0
10
187.80324960338692
20
-43.780199476045368
10
187.8032496033868
20
25.676586515070355
42
-0.30060759161814565
10
190.84354747262967
20
30.276539510341706
10
200.84354747262967
20
34.536805066906496
42
-0.53774283103461296
10
207.80324960338686
20
29.936852071635116
10
207.80324960338686
20
-48.040465031804814
42
-0.53774283101264631
10
200.84354747294321
20
-52.640418027209776
10
190.8435474729433
20
-48.380152471450288
42
-0.30060759163671985
0
LWPOLYLINE
5
108
100
AcDbEntity
8
0
100
AcDbPolyline
90
8
70
1
43
0.0
10
217.80324960338672
20
-56.56099614600619
10
217.8032496033868
20
38.457383184764701
42
-0.30060759161814676
10
220.84354747262967
20
43.057336180036032
10
230.84354747262964
20
47.317601736600857
42
-0.53774283103461762
10
237.8032496033868
20
42.717648741329512
10
237.8032496033868
20
-60.821261701184561
42
-0.53774283099679676
10
230.84354747316945
20
-65.421214696685865
10
220.84354747316934
20
-61.160949141507487
42
-0.30060759165013157
0
LWPOLYLINE
5
109
100
AcDbEntity
8
0
100
AcDbPolyline
90
8
70
1
43
0.0
10
247.80324960338672
20
-69.341792812971761
10
247.8032496033868
20
51.238179854459048
42
-0.30060759161814532
10
250.84354747262967
20
55.838132849730393
10
260.84354747262972
20
60.098398406295239
42
-0.53774283103461507
10
267.80324960338692
20
55.49844541102388
10
267.8032496033868
20
-73.602058369335168
42
-0.53774283102912523
10
260.84354747270805
20
-78.202011364639887
10
250.84354747270797
20
-73.941745808276522
42
-0.3006075916227951
0
LWPOLYLINE
5
110
100
AcDbEntity
8
0
100
AcDbPolyline
90
8
70
1
43
0.0
10
277.80324960338663
20
-82.122589484662072
10
277.80324960338692
20
64.018976524153402
42
-0.30060759161814415
10
280.84354747262972
20
68.618929519424768
10
290.84354747262967
20
72.879195075989514
42
-0.53774283103461562
10
297.8032496033868
20
68.279242080718177
10
297.80324960338663
20
-86.382855039424584
42
-0.53774283098544884
10
290.84354747333117
20
-90.982808034994846
10
280.84354747333117
20
-86.722542480232363
42
-0.30060759165971856
0
LWPOLYLINE
5
111
100
AcDbEntity
8
0
100
AcDbPolyline
90
4
70
1
43
0.0
10
369.93320219046723
20
115.94819351971928
10
373.93320219046723
20
115.94819351971933
10
373.93320219046723
20
65.948193519719311
10
369.93320219046723
20
65.948193519719311
0
LWPOLYLINE
5
112
100
AcDbEntity
8
0
100
AcDbPolyline
90
4
70
1
43
0.0
10
132.58780388158306
20
63.478415287652112
10
86.588273928869512
20
43.881393980075586
10
88.156035633463361
20
40.201431583887342
10
134.15556558618468
20
59.798452891440519
0
LINE
5
113
100
AcDbEntity
8
0
100
AcDbLine
10
-32.146238306473066
20
-9.0518064802804918
30
0
11
383.93320219046723
21
-9.0518064802744629
31
0
0
LWPOLYLINE
5
114
100
AcDbEntity
8
0
100
AcDbPolyline
90
4
70
1
43
0.0
10
373.93320219046723
20
-84.051806480280675
10
369.93320219046723
20
-84.051806480280675
10
369.93320219046723
20
-134.05180648028067
10
373.93320219046723
20
-134.05180648028067
0
ENDSEC
0
SECTION
2
OBJECTS
0
DICTIONARY
5
C
100
AcDbDictionary
3
ACAD_GROUP
350
D
3
ACAD_MLINESTYLE
350
17
0
DICTIONARY
5
D
100
AcDbDictionary
0
DICTIONARY
5
1A
330
C
100
AcDbDictionary
0
DICTIONARY
5
17
100
AcDbDictionary
0
ENDSEC
0
EOF
