  0
SECTION
  2
HEADER
  9
$ACADVER
  1
AC1009
  9
$DWGCODEPAGE
  3
mac-roman
  9
$INSBASE
 10
0.0
 20
0.0
 30
0.0
  9
$EXTMIN
 10
-75.1207106781187
 20
-201.7207106781188
 30
0.0
  9
$EXTMAX
 10
325.1
 20
177.7207106781186
 30
0.0
  9
$LIMMIN
 10
0.0
 20
0.0
  9
$LIMMAX
 10
12.0
 20
9.0
  9
$ORTHOMODE
 70
     0
  9
$REGENMODE
 70
     1
  9
$FILLMODE
 70
     1
  9
$QTEXTMODE
 70
     0
  9
$MIRRTEXT
 70
     1
  9
$DRAGMODE
 70
     2
  9
$LTSCALE
 40
1.0
  9
$OSMODE
 70
    37
  9
$ATTMODE
 70
     1
  9
$TEXTSIZE
 40
0.2
  9
$TRACEWID
 40
0.05
  9
$TEXTSTYLE
  7
STANDARD
  9
$CLAYER
  8
LAYER_01
  9
$CELTYPE
  6
BYLAYER
  9
$CECOLOR
 62
   256
  9
$DIMSCALE
 40
1.0
  9
$DIMASZ
 40
0.18
  9
$DIMEXO
 40
0.0625
  9
$DIMDLI
 40
0.38
  9
$DIMRND
 40
0.0
  9
$DIMDLE
 40
0.0
  9
$DIMEXE
 40
0.18
  9
$DIMTP
 40
0.0
  9
$DIMTM
 40
0.0
  9
$DIMTXT
 40
0.18
  9
$DIMCEN
 40
0.09
  9
$DIMTSZ
 40
0.0
  9
$DIMTOL
 70
     0
  9
$DIMLIM
 70
     0
  9
$DIMTIH
 70
     1
  9
$DIMTOH
 70
     1
  9
$DIMSE1
 70
     0
  9
$DIMSE2
 70
     0
  9
$DIMTAD
 70
     0
  9
$DIMZIN
 70
     0
  9
$DIMBLK
  1

  9
$DIMASO
 70
     1
  9
$DIMSHO
 70
     1
  9
$DIMPOST
  1

  9
$DIMAPOST
  1

  9
$DIMALT
 70
     0
  9
$DIMALTD
 70
     2
  9
$DIMALTF
 40
25.4
  9
$DIMLFAC
 40
1.0
  9
$DIMTOFL
 70
     0
  9
$DIMTVP
 40
0.0
  9
$DIMTIX
 70
     0
  9
$DIMSOXD
 70
     0
  9
$DIMSAH
 70
     0
  9
$DIMBLK1
  1

  9
$DIMBLK2
  1

  9
$DIMSTYLE
  2
STANDARD
  9
$DIMCLRD
 70
     0
  9
$DIMCLRE
 70
     0
  9
$DIMCLRT
 70
     0
  9
$DIMTFAC
 40
1.0
  9
$DIMGAP
 40
0.09
  9
$LUNITS
 70
     2
  9
$LUPREC
 70
     3
  9
$SKETCHINC
 40
0.1
  9
$FILLETRAD
 40
0.5
  9
$AUNITS
 70
     0
  9
$AUPREC
 70
     0
  9
$MENU
  1
.
  9
$ELEVATION
 40
0.0
  9
$PELEVATION
 40
0.0
  9
$THICKNESS
 40
0.0
  9
$LIMCHECK
 70
     0
  9
$CHAMFERA
 40
0.0
  9
$CHAMFERB
 40
0.0
  9
$SKPOLY
 70
     0
  9
$TDCREATE
 40
2457929.143252315
  9
$TDUPDATE
 40
2457929.143263889
  9
$TDINDWG
 40
0.0000000116
  9
$TDUSRTIMER
 40
0.0000000116
  9
$USRTIMER
 70
     1
  9
$ANGBASE
 50
0.0
  9
$ANGDIR
 70
     0
  9
$PDMODE
 70
     0
  9
$PDSIZE
 40
0.0
  9
$PLINEWID
 40
0.0
  9
$COORDS
 70
     1
  9
$SPLFRAME
 70
     0
  9
$SPLINETYPE
 70
     6
  9
$SPLINESEGS
 70
     8
  9
$ATTDIA
 70
     0
  9
$ATTREQ
 70
     1
  9
$HANDLING
 70
     1
  9
$HANDSEED
  5
3EB
  9
$SURFTAB1
 70
     6
  9
$SURFTAB2
 70
     6
  9
$SURFTYPE
 70
     6
  9
$SURFU
 70
     6
  9
$SURFV
 70
     6
  9
$UCSNAME
  2

  9
$UCSORG
 10
0.0
 20
0.0
 30
0.0
  9
$UCSXDIR
 10
1.0
 20
0.0
 30
0.0
  9
$UCSYDIR
 10
0.0
 20
1.0
 30
0.0
  9
$PUCSNAME
  2

  9
$PUCSORG
 10
0.0
 20
0.0
 30
0.0
  9
$PUCSXDIR
 10
1.0
 20
0.0
 30
0.0
  9
$PUCSYDIR
 10
0.0
 20
1.0
 30
0.0
  9
$USERI1
 70
     0
  9
$USERI2
 70
     0
  9
$USERI3
 70
     0
  9
$USERI4
 70
     0
  9
$USERI5
 70
     0
  9
$USERR1
 40
0.0
  9
$USERR2
 40
0.0
  9
$USERR3
 40
0.0
  9
$USERR4
 40
0.0
  9
$USERR5
 40
0.0
  9
$WORLDVIEW
 70
     1
  9
$SHADEDGE
 70
     3
  9
$SHADEDIF
 70
    70
  9
$TILEMODE
 70
     1
  9
$MAXACTVP
 70
    64
  9
$PLIMCHECK
 70
     0
  9
$PEXTMIN
 10
1.000000000000000E+20
 20
1.000000000000000E+20
 30
1.000000000000000E+20
  9
$PEXTMAX
 10
-1.000000000000000E+20
 20
-1.000000000000000E+20
 30
-1.000000000000000E+20
  9
$PLIMMIN
 10
0.0
 20
0.0
  9
$PLIMMAX
 10
12.0
 20
9.0
  9
$UNITMODE
 70
     0
  9
$VISRETAIN
 70
     1
  9
$PLINEGEN
 70
     0
  9
$PSLTSCALE
 70
     1
  0
ENDSEC
  0
SECTION
  2
TABLES
  0
TABLE
  2
VPORT
 70
     1
  0
VPORT
  2
*ACTIVE
 70
     0
 10
0.0
 20
0.0
 11
1.0
 21
1.0
 12
124.9896446609407
 22
-12.00000000000006
 13
0.0
 23
0.0
 14
0.5
 24
0.5
 15
0.5
 25
0.5
 16
0.0
 26
0.0
 36
1.0
 17
0.0
 27
0.0
 37
0.0
 40
387.0302497833622
 41
1.0547628386158
 42
50.0
 43
0.0
 44
0.0
 50
0.0
 51
0.0
 71
     0
 72
   100
 73
     1
 74
     3
 75
     0
 76
     0
 77
     0
 78
     0
  0
ENDTAB
  0
TABLE
  2
LTYPE
 70
     1
  0
LTYPE
  2
CONTINUOUS
 70
     0
  3
Solid line
 72
    65
 73
     0
 40
0.0
  0
ENDTAB
  0
TABLE
  2
LAYER
 70
     2
  0
LAYER
  2
0
 70
     0
 62
     7
  6
CONTINUOUS
  0
LAYER
  2
LAYER_01
 70
     0
 62
     7
  6
CONTINUOUS
  0
ENDTAB
  0
TABLE
  2
STYLE
 70
     1
  0
STYLE
  2
STANDARD
 70
     0
 40
0.0
 41
1.0
 50
0.0
 71
     0
 42
0.2
  3
txt
  4

  0
ENDTAB
  0
TABLE
  2
VIEW
 70
     0
  0
ENDTAB
  0
TABLE
  2
UCS
 70
     0
  0
ENDTAB
  0
TABLE
  2
APPID
 70
     1
  0
APPID
  2
ACAD
 70
     0
  0
ENDTAB
  0
TABLE
  2
DIMSTYLE
 70
     1
  0
DIMSTYLE
  2
STANDARD
 70
     0
  3

  4

  5

  6

  7

 40
1.0
 41
0.18
 42
0.0625
 43
0.38
 44
0.18
 45
0.0
 46
0.0
 47
0.0
 48
0.0
140
0.18
141
0.09
142
0.0
143
25.4
144
1.0
145
0.0
146
1.0
147
0.09
 71
     0
 72
     0
 73
     1
 74
     1
 75
     0
 76
     0
 77
     0
 78
     0
170
     0
171
     2
172
     0
173
     0
174
     0
175
     0
176
     0
177
     0
178
     0
  0
ENDTAB
  0
ENDSEC
  0
SECTION
  2
BLOCKS
  0
BLOCK
  8
0
  2
$MODEL_SPACE
 70
     0
 10
0.0
 20
0.0
 30
0.0
  3
$MODEL_SPACE
  1

  0
ENDBLK
  5
21
  8
0
  0
BLOCK
 67
     1
  8
0
  2
$PAPER_SPACE
 70
     0
 10
0.0
 20
0.0
 30
0.0
  3
$PAPER_SPACE
  1

  0
ENDBLK
  5
1D
 67
     1
  8
0
  0
ENDSEC
  0
SECTION
  2
ENTITIES
  0
CIRCLE
  5
6F
  8
LAYER_01
 10
319.0
 20
41.00000000000006
 30
0.0
 40
1.899999999999977
  0
CIRCLE
  5
70
  8
LAYER_01
 10
319.0
 20
79.00000000000006
 30
0.0
 40
1.899999999999977
  0
CIRCLE
  5
71
  8
LAYER_01
 10
281.0
 20
41.0
 30
0.0
 40
1.899999999999977
  0
CIRCLE
  5
72
  8
LAYER_01
 10
280.9999999999999
 20
79.0
 30
0.0
 40
1.900000000000034
  0
CIRCLE
  5
73
  8
LAYER_01
 10
299.9999999999999
 20
59.99999999999994
 30
0.0
 40
21.40000000000003
  0
POLYLINE
  5
74
  8
LAYER_01
 66
     1
 10
0.0
 20
0.0
 30
0.0
 70
     1
  0
VERTEX
  5
75
  8
LAYER_01
 10
274.9
 20
37.0
 30
0.0
 42
0.4142135623730971
  0
VERTEX
  5
76
  8
LAYER_01
 10
277.0
 20
34.89999999999998
 30
0.0
  0
VERTEX
  5
77
  8
LAYER_01
 10
323.0
 20
34.90000000000001
 30
0.0
 42
0.4142135623730642
  0
VERTEX
  5
78
  8
LAYER_01
 10
325.1
 20
37.0
 30
0.0
  0
VERTEX
  5
79
  8
LAYER_01
 10
325.1
 20
83.0
 30
0.0
 42
0.4142135623730577
  0
VERTEX
  5
7A
  8
LAYER_01
 10
323.0
 20
85.1
 30
0.0
  0
VERTEX
  5
7B
  8
LAYER_01
 10
277.0
 20
85.1
 30
0.0
 42
0.4142135623730894
  0
VERTEX
  5
7C
  8
LAYER_01
 10
274.9
 20
83.0
 30
0.0
  0
SEQEND
  5
7D
  8
LAYER_01
  0
CIRCLE
  5
7E
  8
LAYER_01
 10
319.0
 20
91.19999999999999
 30
0.0
 40
1.899999999999977
  0
CIRCLE
  5
7F
  8
LAYER_01
 10
319.0
 20
129.2
 30
0.0
 40
1.899999999999977
  0
CIRCLE
  5
80
  8
LAYER_01
 10
281.0
 20
91.19999999999999
 30
0.0
 40
1.899999999999977
  0
CIRCLE
  5
81
  8
LAYER_01
 10
280.9999999999999
 20
129.2
 30
0.0
 40
1.900000000000034
  0
CIRCLE
  5
82
  8
LAYER_01
 10
300.0
 20
110.1999999999999
 30
0.0
 40
21.39999999999998
  0
POLYLINE
  5
83
  8
LAYER_01
 66
     1
 10
0.0
 20
0.0
 30
0.0
 70
     1
  0
VERTEX
  5
84
  8
LAYER_01
 10
274.9
 20
87.19999999999999
 30
0.0
 42
0.4142135623730928
  0
VERTEX
  5
85
  8
LAYER_01
 10
277.0
 20
85.1
 30
0.0
  0
VERTEX
  5
86
  8
LAYER_01
 10
323.0
 20
85.09999999999997
 30
0.0
 42
0.4142135623730452
  0
VERTEX
  5
87
  8
LAYER_01
 10
325.1
 20
87.19999999999999
 30
0.0
  0
VERTEX
  5
88
  8
LAYER_01
 10
325.1
 20
133.2
 30
0.0
 42
0.4142135623730542
  0
VERTEX
  5
89
  8
LAYER_01
 10
323.0
 20
135.3
 30
0.0
  0
VERTEX
  5
8A
  8
LAYER_01
 10
277.0
 20
135.3
 30
0.0
 42
0.4142135623730921
  0
VERTEX
  5
8B
  8
LAYER_01
 10
274.9
 20
133.2
 30
0.0
  0
SEQEND
  5
8C
  8
LAYER_01
  0
POLYLINE
  5
8D
  8
LAYER_01
 66
     1
 10
0.0
 20
0.0
 30
0.0
 70
     1
  0
VERTEX
  5
8E
  8
LAYER_01
 10
-73.0
 20
-201.7
 30
0.0
  0
VERTEX
  5
8F
  8
LAYER_01
 10
72.99999999999996
 20
-201.7
 30
0.0
 42
1.000000000000853
  0
VERTEX
  5
90
  8
LAYER_01
 10
73.09999999999998
 20
-201.6000000000001
 30
0.0
  0
VERTEX
  5
91
  8
LAYER_01
 10
73.1
 20
-192.0333333333334
 30
0.0
  0
VERTEX
  5
92
  8
LAYER_01
 10
75.00000000000001
 20
-192.0333333333334
 30
0.0
 42
0.9999999999998579
  0
VERTEX
  5
93
  8
LAYER_01
 10
75.10000000000001
 20
-191.9333333333333
 30
0.0
  0
VERTEX
  5
94
  8
LAYER_01
 10
75.1
 20
-182.2666666666667
 30
0.0
 42
1.000000000000284
  0
VERTEX
  5
95
  8
LAYER_01
 10
75.0
 20
-182.1666666666667
 30
0.0
  0
VERTEX
  5
96
  8
LAYER_01
 10
73.1
 20
-182.1666666666667
 30
0.0
  0
VERTEX
  5
97
  8
LAYER_01
 10
73.09999999999998
 20
-172.6
 30
0.0
 42
1.000000000000284
  0
VERTEX
  5
98
  8
LAYER_01
 10
73.00000000000001
 20
-172.5
 30
0.0
  0
VERTEX
  5
99
  8
LAYER_01
 10
-74.99999999999997
 20
-172.5
 30
0.0
 42
1.000000000000284
  0
VERTEX
  5
9A
  8
LAYER_01
 10
-75.1
 20
-172.6
 30
0.0
  0
VERTEX
  5
9B
  8
LAYER_01
 10
-75.10000000000005
 20
-182.2666666666666
 30
0.0
 42
0.9999999999994317
  0
VERTEX
  5
9C
  8
LAYER_01
 10
-75.00000000000001
 20
-182.3666666666667
 30
0.0
  0
VERTEX
  5
9D
  8
LAYER_01
 10
-73.1
 20
-182.3666666666667
 30
0.0
  0
VERTEX
  5
9E
  8
LAYER_01
 10
-73.1
 20
-191.8333333333333
 30
0.0
  0
VERTEX
  5
9F
  8
LAYER_01
 10
-75.00000000000001
 20
-191.8333333333334
 30
0.0
 42
1.000000000000142
  0
VERTEX
  5
A0
  8
LAYER_01
 10
-75.1
 20
-191.9333333333333
 30
0.0
  0
VERTEX
  5
A1
  8
LAYER_01
 10
-75.1
 20
-201.6
 30
0.0
 42
0.9999999999999999
  0
VERTEX
  5
A2
  8
LAYER_01
 10
-75.0
 20
-201.7
 30
0.0
  0
SEQEND
  5
A3
  8
LAYER_01
  0
POLYLINE
  5
A4
  8
LAYER_01
 66
     1
 10
0.0
 20
0.0
 30
0.0
 70
     1
  0
VERTEX
  5
A5
  8
LAYER_01
 10
46.55454545454548
 20
-199.5
 30
0.0
  0
VERTEX
  5
A6
  8
LAYER_01
 10
46.55454545454548
 20
-197.7
 30
0.0
  0
VERTEX
  5
A7
  8
LAYER_01
 10
59.62727272727275
 20
-197.7
 30
0.0
  0
VERTEX
  5
A8
  8
LAYER_01
 10
59.62727272727275
 20
-199.5
 30
0.0
  0
SEQEND
  5
A9
  8
LAYER_01
  0
POLYLINE
  5
AA
  8
LAYER_01
 66
     1
 10
0.0
 20
0.0
 30
0.0
 70
     1
  0
VERTEX
  5
AB
  8
LAYER_01
 10
20.00909090909092
 20
-199.5
 30
0.0
  0
VERTEX
  5
AC
  8
LAYER_01
 10
20.00909090909092
 20
-197.7
 30
0.0
  0
VERTEX
  5
AD
  8
LAYER_01
 10
33.0818181818182
 20
-197.7
 30
0.0
  0
VERTEX
  5
AE
  8
LAYER_01
 10
33.0818181818182
 20
-199.5
 30
0.0
  0
SEQEND
  5
AF
  8
LAYER_01
  0
POLYLINE
  5
B0
  8
LAYER_01
 66
     1
 10
0.0
 20
0.0
 30
0.0
 70
     1
  0
VERTEX
  5
B1
  8
LAYER_01
 10
-6.536363636363619
 20
-199.5
 30
0.0
  0
VERTEX
  5
B2
  8
LAYER_01
 10
-6.536363636363618
 20
-197.7
 30
0.0
  0
VERTEX
  5
B3
  8
LAYER_01
 10
6.536363636363641
 20
-197.7
 30
0.0
  0
VERTEX
  5
B4
  8
LAYER_01
 10
6.536363636363641
 20
-199.5
 30
0.0
  0
SEQEND
  5
B5
  8
LAYER_01
  0
POLYLINE
  5
B6
  8
LAYER_01
 66
     1
 10
0.0
 20
0.0
 30
0.0
 70
     1
  0
VERTEX
  5
B7
  8
LAYER_01
 10
-33.08181818181819
 20
-199.5
 30
0.0
  0
VERTEX
  5
B8
  8
LAYER_01
 10
-33.08181818181819
 20
-197.7
 30
0.0
  0
VERTEX
  5
B9
  8
LAYER_01
 10
-20.0090909090909
 20
-197.7
 30
0.0
  0
VERTEX
  5
BA
  8
LAYER_01
 10
-20.00909090909091
 20
-199.5
 30
0.0
  0
SEQEND
  5
BB
  8
LAYER_01
  0
POLYLINE
  5
BC
  8
LAYER_01
 66
     1
 10
0.0
 20
0.0
 30
0.0
 70
     1
  0
VERTEX
  5
BD
  8
LAYER_01
 10
-59.62727272727272
 20
-199.5
 30
0.0
  0
VERTEX
  5
BE
  8
LAYER_01
 10
-59.62727272727272
 20
-197.7
 30
0.0
  0
VERTEX
  5
BF
  8
LAYER_01
 10
-46.55454545454545
 20
-197.7
 30
0.0
  0
VERTEX
  5
C0
  8
LAYER_01
 10
-46.55454545454545
 20
-199.5
 30
0.0
  0
SEQEND
  5
C1
  8
LAYER_01
  0
POLYLINE
  5
C2
  8
LAYER_01
 66
     1
 10
0.0
 20
0.0
 30
0.0
 70
     1
  0
VERTEX
  5
C3
  8
LAYER_01
 10
-63.0
 20
156.5
 30
0.0
  0
VERTEX
  5
C4
  8
LAYER_01
 10
63.00000000000001
 20
156.5
 30
0.0
 42
1.000000000000142
  0
VERTEX
  5
C5
  8
LAYER_01
 10
63.09999999999998
 20
156.5999999999999
 30
0.0
  0
VERTEX
  5
C6
  8
LAYER_01
 10
63.09999999999999
 20
163.5
 30
0.0
  0
VERTEX
  5
C7
  8
LAYER_01
 10
65.0
 20
163.5
 30
0.0
 42
1.000000000000284
  0
VERTEX
  5
C8
  8
LAYER_01
 10
65.09999999999997
 20
163.5999999999999
 30
0.0
  0
VERTEX
  5
C9
  8
LAYER_01
 10
65.1
 20
170.6
 30
0.0
 42
1.000000000000568
  0
VERTEX
  5
CA
  8
LAYER_01
 10
64.99999999999997
 20
170.7
 30
0.0
  0
VERTEX
  5
CB
  8
LAYER_01
 10
63.09999999999999
 20
170.7
 30
0.0
  0
VERTEX
  5
CC
  8
LAYER_01
 10
63.09999999999998
 20
177.6
 30
0.0
 42
1.000000000000284
  0
VERTEX
  5
CD
  8
LAYER_01
 10
62.99999999999999
 20
177.7
 30
0.0
  0
VERTEX
  5
CE
  8
LAYER_01
 10
-64.99999999999999
 20
177.7
 30
0.0
 42
0.9999999999991472
  0
VERTEX
  5
CF
  8
LAYER_01
 10
-65.1
 20
177.6
 30
0.0
  0
VERTEX
  5
D0
  8
LAYER_01
 10
-65.09999999999997
 20
170.5999999999999
 30
0.0
 42
1.000000000000284
  0
VERTEX
  5
D1
  8
LAYER_01
 10
-64.99999999999999
 20
170.4999999999999
 30
0.0
  0
VERTEX
  5
D2
  8
LAYER_01
 10
-63.1
 20
170.5
 30
0.0
  0
VERTEX
  5
D3
  8
LAYER_01
 10
-63.1
 20
163.7
 30
0.0
  0
VERTEX
  5
D4
  8
LAYER_01
 10
-65.0
 20
163.7
 30
0.0
 42
0.9999999999999999
  0
VERTEX
  5
D5
  8
LAYER_01
 10
-65.09999999999998
 20
163.6
 30
0.0
  0
VERTEX
  5
D6
  8
LAYER_01
 10
-65.09999999999998
 20
156.5999999999999
 30
0.0
 42
0.9999999999999999
  0
VERTEX
  5
D7
  8
LAYER_01
 10
-64.99999999999999
 20
156.4999999999999
 30
0.0
  0
SEQEND
  5
D8
  8
LAYER_01
  0
POLYLINE
  5
D9
  8
LAYER_01
 66
     1
 10
0.0
 20
0.0
 30
0.0
 70
     1
  0
VERTEX
  5
DA
  8
LAYER_01
 10
36.21111111111113
 20
173.7
 30
0.0
  0
VERTEX
  5
DB
  8
LAYER_01
 10
36.21111111111113
 20
175.5
 30
0.0
  0
VERTEX
  5
DC
  8
LAYER_01
 10
50.45555555555558
 20
175.5
 30
0.0
  0
VERTEX
  5
DD
  8
LAYER_01
 10
50.45555555555558
 20
173.7
 30
0.0
  0
SEQEND
  5
DE
  8
LAYER_01
  0
POLYLINE
  5
DF
  8
LAYER_01
 66
     1
 10
0.0
 20
0.0
 30
0.0
 70
     1
  0
VERTEX
  5
E0
  8
LAYER_01
 10
7.322222222222228
 20
173.7
 30
0.0
  0
VERTEX
  5
E1
  8
LAYER_01
 10
7.322222222222229
 20
175.5
 30
0.0
  0
VERTEX
  5
E2
  8
LAYER_01
 10
21.56666666666668
 20
175.5
 30
0.0
  0
VERTEX
  5
E3
  8
LAYER_01
 10
21.56666666666668
 20
173.7
 30
0.0
  0
SEQEND
  5
E4
  8
LAYER_01
  0
POLYLINE
  5
E5
  8
LAYER_01
 66
     1
 10
0.0
 20
0.0
 30
0.0
 70
     1
  0
VERTEX
  5
E6
  8
LAYER_01
 10
-21.56666666666667
 20
173.7
 30
0.0
  0
VERTEX
  5
E7
  8
LAYER_01
 10
-21.56666666666667
 20
175.5
 30
0.0
  0
VERTEX
  5
E8
  8
LAYER_01
 10
-7.322222222222226
 20
175.5
 30
0.0
  0
VERTEX
  5
E9
  8
LAYER_01
 10
-7.322222222222226
 20
173.7
 30
0.0
  0
SEQEND
  5
EA
  8
LAYER_01
  0
POLYLINE
  5
EB
  8
LAYER_01
 66
     1
 10
0.0
 20
0.0
 30
0.0
 70
     1
  0
VERTEX
  5
EC
  8
LAYER_01
 10
-50.45555555555556
 20
173.7
 30
0.0
  0
VERTEX
  5
ED
  8
LAYER_01
 10
-50.45555555555556
 20
175.5
 30
0.0
  0
VERTEX
  5
EE
  8
LAYER_01
 10
-36.21111111111111
 20
175.5
 30
0.0
  0
VERTEX
  5
EF
  8
LAYER_01
 10
-36.21111111111111
 20
173.7
 30
0.0
  0
SEQEND
  5
F0
  8
LAYER_01
  0
POLYLINE
  5
F1
  8
LAYER_01
 66
     1
 10
0.0
 20
0.0
 30
0.0
 70
     1
  0
VERTEX
  5
F2
  8
LAYER_01
 10
36.21111111111113
 20
158.7
 30
0.0
  0
VERTEX
  5
F3
  8
LAYER_01
 10
36.21111111111113
 20
160.5
 30
0.0
  0
VERTEX
  5
F4
  8
LAYER_01
 10
50.45555555555558
 20
160.5
 30
0.0
  0
VERTEX
  5
F5
  8
LAYER_01
 10
50.45555555555558
 20
158.7
 30
0.0
  0
SEQEND
  5
F6
  8
LAYER_01
  0
POLYLINE
  5
F7
  8
LAYER_01
 66
     1
 10
0.0
 20
0.0
 30
0.0
 70
     1
  0
VERTEX
  5
F8
  8
LAYER_01
 10
7.322222222222228
 20
158.7
 30
0.0
  0
VERTEX
  5
F9
  8
LAYER_01
 10
7.322222222222229
 20
160.5
 30
0.0
  0
VERTEX
  5
FA
  8
LAYER_01
 10
21.56666666666668
 20
160.5
 30
0.0
  0
VERTEX
  5
FB
  8
LAYER_01
 10
21.56666666666668
 20
158.7
 30
0.0
  0
SEQEND
  5
FC
  8
LAYER_01
  0
POLYLINE
  5
FD
  8
LAYER_01
 66
     1
 10
0.0
 20
0.0
 30
0.0
 70
     1
  0
VERTEX
  5
FE
  8
LAYER_01
 10
-21.56666666666667
 20
158.7
 30
0.0
  0
VERTEX
  5
FF
  8
LAYER_01
 10
-21.56666666666667
 20
160.5
 30
0.0
  0
VERTEX
  5
100
  8
LAYER_01
 10
-7.322222222222226
 20
160.5
 30
0.0
  0
VERTEX
  5
101
  8
LAYER_01
 10
-7.322222222222226
 20
158.7
 30
0.0
  0
SEQEND
  5
102
  8
LAYER_01
  0
POLYLINE
  5
103
  8
LAYER_01
 66
     1
 10
0.0
 20
0.0
 30
0.0
 70
     1
  0
VERTEX
  5
104
  8
LAYER_01
 10
-50.45555555555556
 20
158.7
 30
0.0
  0
VERTEX
  5
105
  8
LAYER_01
 10
-50.45555555555556
 20
160.5
 30
0.0
  0
VERTEX
  5
106
  8
LAYER_01
 10
-36.21111111111111
 20
160.5
 30
0.0
  0
VERTEX
  5
107
  8
LAYER_01
 10
-36.21111111111111
 20
158.7
 30
0.0
  0
SEQEND
  5
108
  8
LAYER_01
  0
CIRCLE
  5
109
  8
LAYER_01
 10
-29.44444444444444
 20
168.6
 30
0.0
 40
1.899999999999999
  0
POLYLINE
  5
10A
  8
LAYER_01
 66
     1
 10
0.0
 20
0.0
 30
0.0
 70
     1
  0
VERTEX
  5
10B
  8
LAYER_01
 10
-73.0
 20
-172.5
 30
0.0
  0
VERTEX
  5
10C
  8
LAYER_01
 10
73.00000000000001
 20
-172.5
 30
0.0
 42
1.000000000000426
  0
VERTEX
  5
10D
  8
LAYER_01
 10
73.1
 20
-172.4
 30
0.0
  0
VERTEX
  5
10E
  8
LAYER_01
 10
73.1
 20
-162.8333333333333
 30
0.0
  0
VERTEX
  5
10F
  8
LAYER_01
 10
75.0
 20
-162.8333333333333
 30
0.0
 42
1.000000000000284
  0
VERTEX
  5
110
  8
LAYER_01
 10
75.09999999999997
 20
-162.7333333333334
 30
0.0
  0
VERTEX
  5
111
  8
LAYER_01
 10
75.1
 20
-153.0666666666667
 30
0.0
 42
1.000000000000568
  0
VERTEX
  5
112
  8
LAYER_01
 10
74.99999999999999
 20
-152.9666666666666
 30
0.0
  0
VERTEX
  5
113
  8
LAYER_01
 10
73.1
 20
-152.9666666666667
 30
0.0
  0
VERTEX
  5
114
  8
LAYER_01
 10
73.1
 20
-143.4
 30
0.0
 42
1.000000000000284
  0
VERTEX
  5
115
  8
LAYER_01
 10
73.0
 20
-143.3
 30
0.0
  0
VERTEX
  5
116
  8
LAYER_01
 10
-75.00000000000001
 20
-143.3
 30
0.0
 42
0.9999999999995737
  0
VERTEX
  5
117
  8
LAYER_01
 10
-75.10000000000001
 20
-143.4
 30
0.0
  0
VERTEX
  5
118
  8
LAYER_01
 10
-75.09999999999998
 20
-153.0666666666667
 30
0.0
 42
0.9999999999997157
  0
VERTEX
  5
119
  8
LAYER_01
 10
-75.0
 20
-153.1666666666667
 30
0.0
  0
VERTEX
  5
11A
  8
LAYER_01
 10
-73.1
 20
-153.1666666666667
 30
0.0
  0
VERTEX
  5
11B
  8
LAYER_01
 10
-73.1
 20
-162.6333333333333
 30
0.0
  0
VERTEX
  5
11C
  8
LAYER_01
 10
-75.00000000000003
 20
-162.6333333333334
 30
0.0
 42
1.000000000000426
  0
VERTEX
  5
11D
  8
LAYER_01
 10
-75.09999999999998
 20
-162.7333333333333
 30
0.0
  0
VERTEX
  5
11E
  8
LAYER_01
 10
-75.10000000000004
 20
-172.4
 30
0.0
 42
0.9999999999999999
  0
VERTEX
  5
11F
  8
LAYER_01
 10
-75.00000000000001
 20
-172.5
 30
0.0
  0
SEQEND
  5
120
  8
LAYER_01
  0
POLYLINE
  5
121
  8
LAYER_01
 66
     1
 10
0.0
 20
0.0
 30
0.0
 70
     1
  0
VERTEX
  5
122
  8
LAYER_01
 10
46.55454545454548
 20
-170.3
 30
0.0
  0
VERTEX
  5
123
  8
LAYER_01
 10
46.55454545454548
 20
-168.5
 30
0.0
  0
VERTEX
  5
124
  8
LAYER_01
 10
59.62727272727275
 20
-168.5
 30
0.0
  0
VERTEX
  5
125
  8
LAYER_01
 10
59.62727272727275
 20
-170.3
 30
0.0
  0
SEQEND
  5
126
  8
LAYER_01
  0
POLYLINE
  5
127
  8
LAYER_01
 66
     1
 10
0.0
 20
0.0
 30
0.0
 70
     1
  0
VERTEX
  5
128
  8
LAYER_01
 10
20.00909090909092
 20
-170.3
 30
0.0
  0
VERTEX
  5
129
  8
LAYER_01
 10
20.00909090909092
 20
-168.5
 30
0.0
  0
VERTEX
  5
12A
  8
LAYER_01
 10
33.0818181818182
 20
-168.5
 30
0.0
  0
VERTEX
  5
12B
  8
LAYER_01
 10
33.0818181818182
 20
-170.3
 30
0.0
  0
SEQEND
  5
12C
  8
LAYER_01
  0
POLYLINE
  5
12D
  8
LAYER_01
 66
     1
 10
0.0
 20
0.0
 30
0.0
 70
     1
  0
VERTEX
  5
12E
  8
LAYER_01
 10
-6.536363636363619
 20
-170.3
 30
0.0
  0
VERTEX
  5
12F
  8
LAYER_01
 10
-6.536363636363618
 20
-168.5
 30
0.0
  0
VERTEX
  5
130
  8
LAYER_01
 10
6.536363636363641
 20
-168.5
 30
0.0
  0
VERTEX
  5
131
  8
LAYER_01
 10
6.536363636363641
 20
-170.3
 30
0.0
  0
SEQEND
  5
132
  8
LAYER_01
  0
POLYLINE
  5
133
  8
LAYER_01
 66
     1
 10
0.0
 20
0.0
 30
0.0
 70
     1
  0
VERTEX
  5
134
  8
LAYER_01
 10
-33.08181818181819
 20
-170.3
 30
0.0
  0
VERTEX
  5
135
  8
LAYER_01
 10
-33.08181818181819
 20
-168.5
 30
0.0
  0
VERTEX
  5
136
  8
LAYER_01
 10
-20.0090909090909
 20
-168.5
 30
0.0
  0
VERTEX
  5
137
  8
LAYER_01
 10
-20.00909090909091
 20
-170.3
 30
0.0
  0
SEQEND
  5
138
  8
LAYER_01
  0
POLYLINE
  5
139
  8
LAYER_01
 66
     1
 10
0.0
 20
0.0
 30
0.0
 70
     1
  0
VERTEX
  5
13A
  8
LAYER_01
 10
-59.62727272727272
 20
-170.3
 30
0.0
  0
VERTEX
  5
13B
  8
LAYER_01
 10
-59.62727272727272
 20
-168.5
 30
0.0
  0
VERTEX
  5
13C
  8
LAYER_01
 10
-46.55454545454545
 20
-168.5
 30
0.0
  0
VERTEX
  5
13D
  8
LAYER_01
 10
-46.55454545454545
 20
-170.3
 30
0.0
  0
SEQEND
  5
13E
  8
LAYER_01
  0
POLYLINE
  5
13F
  8
LAYER_01
 66
     1
 10
0.0
 20
0.0
 30
0.0
 70
     1
  0
VERTEX
  5
140
  8
LAYER_01
 10
-63.0
 20
135.3
 30
0.0
  0
VERTEX
  5
141
  8
LAYER_01
 10
63.0
 20
135.3
 30
0.0
 42
1.000000000000142
  0
VERTEX
  5
142
  8
LAYER_01
 10
63.09999999999999
 20
135.4
 30
0.0
  0
VERTEX
  5
143
  8
LAYER_01
 10
63.09999999999999
 20
142.3
 30
0.0
  0
VERTEX
  5
144
  8
LAYER_01
 10
65.0
 20
142.3
 30
0.0
 42
1.000000000000284
  0
VERTEX
  5
145
  8
LAYER_01
 10
65.09999999999997
 20
142.3999999999999
 30
0.0
  0
VERTEX
  5
146
  8
LAYER_01
 10
65.1
 20
149.4
 30
0.0
 42
1.000000000000568
  0
VERTEX
  5
147
  8
LAYER_01
 10
64.99999999999997
 20
149.5
 30
0.0
  0
VERTEX
  5
148
  8
LAYER_01
 10
63.09999999999999
 20
149.5
 30
0.0
  0
VERTEX
  5
149
  8
LAYER_01
 10
63.10000000000001
 20
156.4
 30
0.0
 42
1.000000000000142
  0
VERTEX
  5
14A
  8
LAYER_01
 10
62.99999999999999
 20
156.5
 30
0.0
  0
VERTEX
  5
14B
  8
LAYER_01
 10
-65.0
 20
156.5
 30
0.0
 42
1.000000000000284
  0
VERTEX
  5
14C
  8
LAYER_01
 10
-65.09999999999998
 20
156.4
 30
0.0
  0
VERTEX
  5
14D
  8
LAYER_01
 10
-65.09999999999997
 20
149.3999999999999
 30
0.0
 42
1.000000000000284
  0
VERTEX
  5
14E
  8
LAYER_01
 10
-64.99999999999999
 20
149.3
 30
0.0
  0
VERTEX
  5
14F
  8
LAYER_01
 10
-63.1
 20
149.3
 30
0.0
  0
VERTEX
  5
150
  8
LAYER_01
 10
-63.1
 20
142.5
 30
0.0
  0
VERTEX
  5
151
  8
LAYER_01
 10
-65.0
 20
142.5
 30
0.0
 42
0.9999999999999999
  0
VERTEX
  5
152
  8
LAYER_01
 10
-65.09999999999998
 20
142.4
 30
0.0
  0
VERTEX
  5
153
  8
LAYER_01
 10
-65.09999999999998
 20
135.3999999999999
 30
0.0
 42
0.9999999999999999
  0
VERTEX
  5
154
  8
LAYER_01
 10
-64.99999999999999
 20
135.3
 30
0.0
  0
SEQEND
  5
155
  8
LAYER_01
  0
POLYLINE
  5
156
  8
LAYER_01
 66
     1
 10
0.0
 20
0.0
 30
0.0
 70
     1
  0
VERTEX
  5
157
  8
LAYER_01
 10
36.21111111111113
 20
152.5
 30
0.0
  0
VERTEX
  5
158
  8
LAYER_01
 10
36.21111111111113
 20
154.3
 30
0.0
  0
VERTEX
  5
159
  8
LAYER_01
 10
50.45555555555558
 20
154.3
 30
0.0
  0
VERTEX
  5
15A
  8
LAYER_01
 10
50.45555555555558
 20
152.5
 30
0.0
  0
SEQEND
  5
15B
  8
LAYER_01
  0
POLYLINE
  5
15C
  8
LAYER_01
 66
     1
 10
0.0
 20
0.0
 30
0.0
 70
     1
  0
VERTEX
  5
15D
  8
LAYER_01
 10
7.322222222222228
 20
152.5
 30
0.0
  0
VERTEX
  5
15E
  8
LAYER_01
 10
7.322222222222229
 20
154.3
 30
0.0
  0
VERTEX
  5
15F
  8
LAYER_01
 10
21.56666666666668
 20
154.3
 30
0.0
  0
VERTEX
  5
160
  8
LAYER_01
 10
21.56666666666668
 20
152.5
 30
0.0
  0
SEQEND
  5
161
  8
LAYER_01
  0
POLYLINE
  5
162
  8
LAYER_01
 66
     1
 10
0.0
 20
0.0
 30
0.0
 70
     1
  0
VERTEX
  5
163
  8
LAYER_01
 10
-21.56666666666667
 20
152.5
 30
0.0
  0
VERTEX
  5
164
  8
LAYER_01
 10
-21.56666666666667
 20
154.3
 30
0.0
  0
VERTEX
  5
165
  8
LAYER_01
 10
-7.322222222222226
 20
154.3
 30
0.0
  0
VERTEX
  5
166
  8
LAYER_01
 10
-7.322222222222226
 20
152.5
 30
0.0
  0
SEQEND
  5
167
  8
LAYER_01
  0
POLYLINE
  5
168
  8
LAYER_01
 66
     1
 10
0.0
 20
0.0
 30
0.0
 70
     1
  0
VERTEX
  5
169
  8
LAYER_01
 10
-50.45555555555556
 20
152.5
 30
0.0
  0
VERTEX
  5
16A
  8
LAYER_01
 10
-50.45555555555556
 20
154.3
 30
0.0
  0
VERTEX
  5
16B
  8
LAYER_01
 10
-36.21111111111111
 20
154.3
 30
0.0
  0
VERTEX
  5
16C
  8
LAYER_01
 10
-36.21111111111111
 20
152.5
 30
0.0
  0
SEQEND
  5
16D
  8
LAYER_01
  0
POLYLINE
  5
16E
  8
LAYER_01
 66
     1
 10
0.0
 20
0.0
 30
0.0
 70
     1
  0
VERTEX
  5
16F
  8
LAYER_01
 10
36.21111111111113
 20
137.5
 30
0.0
  0
VERTEX
  5
170
  8
LAYER_01
 10
36.21111111111113
 20
139.3
 30
0.0
  0
VERTEX
  5
171
  8
LAYER_01
 10
50.45555555555558
 20
139.3
 30
0.0
  0
VERTEX
  5
172
  8
LAYER_01
 10
50.45555555555558
 20
137.5
 30
0.0
  0
SEQEND
  5
173
  8
LAYER_01
  0
POLYLINE
  5
174
  8
LAYER_01
 66
     1
 10
0.0
 20
0.0
 30
0.0
 70
     1
  0
VERTEX
  5
175
  8
LAYER_01
 10
7.322222222222228
 20
137.5
 30
0.0
  0
VERTEX
  5
176
  8
LAYER_01
 10
7.322222222222229
 20
139.3
 30
0.0
  0
VERTEX
  5
177
  8
LAYER_01
 10
21.56666666666668
 20
139.3
 30
0.0
  0
VERTEX
  5
178
  8
LAYER_01
 10
21.56666666666668
 20
137.5
 30
0.0
  0
SEQEND
  5
179
  8
LAYER_01
  0
POLYLINE
  5
17A
  8
LAYER_01
 66
     1
 10
0.0
 20
0.0
 30
0.0
 70
     1
  0
VERTEX
  5
17B
  8
LAYER_01
 10
-21.56666666666667
 20
137.5
 30
0.0
  0
VERTEX
  5
17C
  8
LAYER_01
 10
-21.56666666666667
 20
139.3
 30
0.0
  0
VERTEX
  5
17D
  8
LAYER_01
 10
-7.322222222222226
 20
139.3
 30
0.0
  0
VERTEX
  5
17E
  8
LAYER_01
 10
-7.322222222222226
 20
137.5
 30
0.0
  0
SEQEND
  5
17F
  8
LAYER_01
  0
POLYLINE
  5
180
  8
LAYER_01
 66
     1
 10
0.0
 20
0.0
 30
0.0
 70
     1
  0
VERTEX
  5
181
  8
LAYER_01
 10
-50.45555555555556
 20
137.5
 30
0.0
  0
VERTEX
  5
182
  8
LAYER_01
 10
-50.45555555555556
 20
139.3
 30
0.0
  0
VERTEX
  5
183
  8
LAYER_01
 10
-36.21111111111111
 20
139.3
 30
0.0
  0
VERTEX
  5
184
  8
LAYER_01
 10
-36.21111111111111
 20
137.5
 30
0.0
  0
SEQEND
  5
185
  8
LAYER_01
  0
POLYLINE
  5
186
  8
LAYER_01
 66
     1
 10
0.0
 20
0.0
 30
0.0
 70
     1
  0
VERTEX
  5
187
  8
LAYER_01
 10
-73.0
 20
-143.3
 30
0.0
  0
VERTEX
  5
188
  8
LAYER_01
 10
73.0
 20
-143.3
 30
0.0
 42
1.000000000000711
  0
VERTEX
  5
189
  8
LAYER_01
 10
73.10000000000001
 20
-143.2
 30
0.0
  0
VERTEX
  5
18A
  8
LAYER_01
 10
73.1
 20
-133.6333333333333
 30
0.0
  0
VERTEX
  5
18B
  8
LAYER_01
 10
74.99999999999999
 20
-133.6333333333334
 30
0.0
 42
1.000000000000426
  0
VERTEX
  5
18C
  8
LAYER_01
 10
75.09999999999998
 20
-133.5333333333334
 30
0.0
  0
VERTEX
  5
18D
  8
LAYER_01
 10
75.10000000000002
 20
-123.8666666666667
 30
0.0
 42
1.000000000000284
  0
VERTEX
  5
18E
  8
LAYER_01
 10
75.00000000000001
 20
-123.7666666666667
 30
0.0
  0
VERTEX
  5
18F
  8
LAYER_01
 10
73.1
 20
-123.7666666666667
 30
0.0
  0
VERTEX
  5
190
  8
LAYER_01
 10
73.1
 20
-114.2
 30
0.0
 42
1.000000000000142
  0
VERTEX
  5
191
  8
LAYER_01
 10
73.00000000000003
 20
-114.1
 30
0.0
  0
VERTEX
  5
192
  8
LAYER_01
 10
-75.00000000000001
 20
-114.1
 30
0.0
 42
0.9999999999999999
  0
VERTEX
  5
193
  8
LAYER_01
 10
-75.10000000000001
 20
-114.2
 30
0.0
  0
VERTEX
  5
194
  8
LAYER_01
 10
-75.1
 20
-123.8666666666667
 30
0.0
 42
0.9999999999999999
  0
VERTEX
  5
195
  8
LAYER_01
 10
-75.0
 20
-123.9666666666667
 30
0.0
  0
VERTEX
  5
196
  8
LAYER_01
 10
-73.1
 20
-123.9666666666667
 30
0.0
  0
VERTEX
  5
197
  8
LAYER_01
 10
-73.1
 20
-133.4333333333333
 30
0.0
  0
VERTEX
  5
198
  8
LAYER_01
 10
-75.0
 20
-133.4333333333333
 30
0.0
 42
0.9999999999998579
  0
VERTEX
  5
199
  8
LAYER_01
 10
-75.1
 20
-133.5333333333334
 30
0.0
  0
VERTEX
  5
19A
  8
LAYER_01
 10
-75.09999999999998
 20
-143.2
 30
0.0
 42
0.9999999999997157
  0
VERTEX
  5
19B
  8
LAYER_01
 10
-75.0
 20
-143.3
 30
0.0
  0
SEQEND
  5
19C
  8
LAYER_01
  0
POLYLINE
  5
19D
  8
LAYER_01
 66
     1
 10
0.0
 20
0.0
 30
0.0
 70
     1
  0
VERTEX
  5
19E
  8
LAYER_01
 10
46.55454545454548
 20
-141.1
 30
0.0
  0
VERTEX
  5
19F
  8
LAYER_01
 10
46.55454545454548
 20
-139.3
 30
0.0
  0
VERTEX
  5
1A0
  8
LAYER_01
 10
59.62727272727275
 20
-139.3
 30
0.0
  0
VERTEX
  5
1A1
  8
LAYER_01
 10
59.62727272727275
 20
-141.1
 30
0.0
  0
SEQEND
  5
1A2
  8
LAYER_01
  0
POLYLINE
  5
1A3
  8
LAYER_01
 66
     1
 10
0.0
 20
0.0
 30
0.0
 70
     1
  0
VERTEX
  5
1A4
  8
LAYER_01
 10
20.00909090909092
 20
-141.1
 30
0.0
  0
VERTEX
  5
1A5
  8
LAYER_01
 10
20.00909090909092
 20
-139.3
 30
0.0
  0
VERTEX
  5
1A6
  8
LAYER_01
 10
33.0818181818182
 20
-139.3
 30
0.0
  0
VERTEX
  5
1A7
  8
LAYER_01
 10
33.0818181818182
 20
-141.1
 30
0.0
  0
SEQEND
  5
1A8
  8
LAYER_01
  0
POLYLINE
  5
1A9
  8
LAYER_01
 66
     1
 10
0.0
 20
0.0
 30
0.0
 70
     1
  0
VERTEX
  5
1AA
  8
LAYER_01
 10
-6.536363636363619
 20
-141.1
 30
0.0
  0
VERTEX
  5
1AB
  8
LAYER_01
 10
-6.536363636363618
 20
-139.3
 30
0.0
  0
VERTEX
  5
1AC
  8
LAYER_01
 10
6.536363636363641
 20
-139.3
 30
0.0
  0
VERTEX
  5
1AD
  8
LAYER_01
 10
6.536363636363641
 20
-141.1
 30
0.0
  0
SEQEND
  5
1AE
  8
LAYER_01
  0
POLYLINE
  5
1AF
  8
LAYER_01
 66
     1
 10
0.0
 20
0.0
 30
0.0
 70
     1
  0
VERTEX
  5
1B0
  8
LAYER_01
 10
-33.08181818181819
 20
-141.1
 30
0.0
  0
VERTEX
  5
1B1
  8
LAYER_01
 10
-33.08181818181819
 20
-139.3
 30
0.0
  0
VERTEX
  5
1B2
  8
LAYER_01
 10
-20.0090909090909
 20
-139.3
 30
0.0
  0
VERTEX
  5
1B3
  8
LAYER_01
 10
-20.00909090909091
 20
-141.1
 30
0.0
  0
SEQEND
  5
1B4
  8
LAYER_01
  0
POLYLINE
  5
1B5
  8
LAYER_01
 66
     1
 10
0.0
 20
0.0
 30
0.0
 70
     1
  0
VERTEX
  5
1B6
  8
LAYER_01
 10
-59.62727272727272
 20
-141.1
 30
0.0
  0
VERTEX
  5
1B7
  8
LAYER_01
 10
-59.62727272727272
 20
-139.3
 30
0.0
  0
VERTEX
  5
1B8
  8
LAYER_01
 10
-46.55454545454545
 20
-139.3
 30
0.0
  0
VERTEX
  5
1B9
  8
LAYER_01
 10
-46.55454545454545
 20
-141.1
 30
0.0
  0
SEQEND
  5
1BA
  8
LAYER_01
  0
POLYLINE
  5
1BB
  8
LAYER_01
 66
     1
 10
0.0
 20
0.0
 30
0.0
 70
     1
  0
VERTEX
  5
1BC
  8
LAYER_01
 10
-63.0
 20
114.1
 30
0.0
  0
VERTEX
  5
1BD
  8
LAYER_01
 10
63.00000000000001
 20
114.1
 30
0.0
 42
0.9999999999995737
  0
VERTEX
  5
1BE
  8
LAYER_01
 10
63.1
 20
114.2
 30
0.0
  0
VERTEX
  5
1BF
  8
LAYER_01
 10
63.09999999999999
 20
121.1
 30
0.0
  0
VERTEX
  5
1C0
  8
LAYER_01
 10
65.00000000000001
 20
121.1
 30
0.0
 42
0.9999999999999999
  0
VERTEX
  5
1C1
  8
LAYER_01
 10
65.10000000000001
 20
121.2
 30
0.0
  0
VERTEX
  5
1C2
  8
LAYER_01
 10
65.1
 20
128.2
 30
0.0
 42
1.000000000000568
  0
VERTEX
  5
1C3
  8
LAYER_01
 10
64.99999999999997
 20
128.3
 30
0.0
  0
VERTEX
  5
1C4
  8
LAYER_01
 10
63.09999999999999
 20
128.3
 30
0.0
  0
VERTEX
  5
1C5
  8
LAYER_01
 10
63.09999999999998
 20
135.2
 30
0.0
 42
1.000000000000284
  0
VERTEX
  5
1C6
  8
LAYER_01
 10
62.99999999999999
 20
135.3
 30
0.0
  0
VERTEX
  5
1C7
  8
LAYER_01
 10
-65.0
 20
135.3
 30
0.0
 42
1.000000000000284
  0
VERTEX
  5
1C8
  8
LAYER_01
 10
-65.09999999999998
 20
135.2
 30
0.0
  0
VERTEX
  5
1C9
  8
LAYER_01
 10
-65.09999999999997
 20
128.2
 30
0.0
 42
1.000000000000284
  0
VERTEX
  5
1CA
  8
LAYER_01
 10
-64.99999999999999
 20
128.1
 30
0.0
  0
VERTEX
  5
1CB
  8
LAYER_01
 10
-63.1
 20
128.1
 30
0.0
  0
VERTEX
  5
1CC
  8
LAYER_01
 10
-63.1
 20
121.3
 30
0.0
  0
VERTEX
  5
1CD
  8
LAYER_01
 10
-65.0
 20
121.3
 30
0.0
 42
0.9999999999999999
  0
VERTEX
  5
1CE
  8
LAYER_01
 10
-65.1
 20
121.2
 30
0.0
  0
VERTEX
  5
1CF
  8
LAYER_01
 10
-65.1
 20
114.2
 30
0.0
 42
0.9999999999999999
  0
VERTEX
  5
1D0
  8
LAYER_01
 10
-65.0
 20
114.1
 30
0.0
  0
SEQEND
  5
1D1
  8
LAYER_01
  0
POLYLINE
  5
1D2
  8
LAYER_01
 66
     1
 10
0.0
 20
0.0
 30
0.0
 70
     1
  0
VERTEX
  5
1D3
  8
LAYER_01
 10
36.21111111111113
 20
131.3
 30
0.0
  0
VERTEX
  5
1D4
  8
LAYER_01
 10
36.21111111111113
 20
133.1
 30
0.0
  0
VERTEX
  5
1D5
  8
LAYER_01
 10
50.45555555555558
 20
133.1
 30
0.0
  0
VERTEX
  5
1D6
  8
LAYER_01
 10
50.45555555555558
 20
131.3
 30
0.0
  0
SEQEND
  5
1D7
  8
LAYER_01
  0
POLYLINE
  5
1D8
  8
LAYER_01
 66
     1
 10
0.0
 20
0.0
 30
0.0
 70
     1
  0
VERTEX
  5
1D9
  8
LAYER_01
 10
7.322222222222228
 20
131.3
 30
0.0
  0
VERTEX
  5
1DA
  8
LAYER_01
 10
7.322222222222229
 20
133.1
 30
0.0
  0
VERTEX
  5
1DB
  8
LAYER_01
 10
21.56666666666668
 20
133.1
 30
0.0
  0
VERTEX
  5
1DC
  8
LAYER_01
 10
21.56666666666668
 20
131.3
 30
0.0
  0
SEQEND
  5
1DD
  8
LAYER_01
  0
POLYLINE
  5
1DE
  8
LAYER_01
 66
     1
 10
0.0
 20
0.0
 30
0.0
 70
     1
  0
VERTEX
  5
1DF
  8
LAYER_01
 10
-21.56666666666667
 20
131.3
 30
0.0
  0
VERTEX
  5
1E0
  8
LAYER_01
 10
-21.56666666666667
 20
133.1
 30
0.0
  0
VERTEX
  5
1E1
  8
LAYER_01
 10
-7.322222222222226
 20
133.1
 30
0.0
  0
VERTEX
  5
1E2
  8
LAYER_01
 10
-7.322222222222226
 20
131.3
 30
0.0
  0
SEQEND
  5
1E3
  8
LAYER_01
  0
POLYLINE
  5
1E4
  8
LAYER_01
 66
     1
 10
0.0
 20
0.0
 30
0.0
 70
     1
  0
VERTEX
  5
1E5
  8
LAYER_01
 10
-50.45555555555556
 20
131.3
 30
0.0
  0
VERTEX
  5
1E6
  8
LAYER_01
 10
-50.45555555555556
 20
133.1
 30
0.0
  0
VERTEX
  5
1E7
  8
LAYER_01
 10
-36.21111111111111
 20
133.1
 30
0.0
  0
VERTEX
  5
1E8
  8
LAYER_01
 10
-36.21111111111111
 20
131.3
 30
0.0
  0
SEQEND
  5
1E9
  8
LAYER_01
  0
POLYLINE
  5
1EA
  8
LAYER_01
 66
     1
 10
0.0
 20
0.0
 30
0.0
 70
     1
  0
VERTEX
  5
1EB
  8
LAYER_01
 10
36.21111111111113
 20
116.3
 30
0.0
  0
VERTEX
  5
1EC
  8
LAYER_01
 10
36.21111111111113
 20
118.1
 30
0.0
  0
VERTEX
  5
1ED
  8
LAYER_01
 10
50.45555555555558
 20
118.1
 30
0.0
  0
VERTEX
  5
1EE
  8
LAYER_01
 10
50.45555555555558
 20
116.3
 30
0.0
  0
SEQEND
  5
1EF
  8
LAYER_01
  0
POLYLINE
  5
1F0
  8
LAYER_01
 66
     1
 10
0.0
 20
0.0
 30
0.0
 70
     1
  0
VERTEX
  5
1F1
  8
LAYER_01
 10
7.322222222222228
 20
116.3
 30
0.0
  0
VERTEX
  5
1F2
  8
LAYER_01
 10
7.322222222222229
 20
118.1
 30
0.0
  0
VERTEX
  5
1F3
  8
LAYER_01
 10
21.56666666666668
 20
118.1
 30
0.0
  0
VERTEX
  5
1F4
  8
LAYER_01
 10
21.56666666666668
 20
116.3
 30
0.0
  0
SEQEND
  5
1F5
  8
LAYER_01
  0
POLYLINE
  5
1F6
  8
LAYER_01
 66
     1
 10
0.0
 20
0.0
 30
0.0
 70
     1
  0
VERTEX
  5
1F7
  8
LAYER_01
 10
-21.56666666666667
 20
116.3
 30
0.0
  0
VERTEX
  5
1F8
  8
LAYER_01
 10
-21.56666666666667
 20
118.1
 30
0.0
  0
VERTEX
  5
1F9
  8
LAYER_01
 10
-7.322222222222226
 20
118.1
 30
0.0
  0
VERTEX
  5
1FA
  8
LAYER_01
 10
-7.322222222222226
 20
116.3
 30
0.0
  0
SEQEND
  5
1FB
  8
LAYER_01
  0
POLYLINE
  5
1FC
  8
LAYER_01
 66
     1
 10
0.0
 20
0.0
 30
0.0
 70
     1
  0
VERTEX
  5
1FD
  8
LAYER_01
 10
-50.45555555555556
 20
116.3
 30
0.0
  0
VERTEX
  5
1FE
  8
LAYER_01
 10
-50.45555555555556
 20
118.1
 30
0.0
  0
VERTEX
  5
1FF
  8
LAYER_01
 10
-36.21111111111111
 20
118.1
 30
0.0
  0
VERTEX
  5
200
  8
LAYER_01
 10
-36.21111111111111
 20
116.3
 30
0.0
  0
SEQEND
  5
201
  8
LAYER_01
  0
POLYLINE
  5
202
  8
LAYER_01
 66
     1
 10
0.0
 20
0.0
 30
0.0
 70
     1
  0
VERTEX
  5
203
  8
LAYER_01
 10
-73.0
 20
-114.1
 30
0.0
  0
VERTEX
  5
204
  8
LAYER_01
 10
73.00000000000001
 20
-114.1
 30
0.0
 42
1.000000000000142
  0
VERTEX
  5
205
  8
LAYER_01
 10
73.10000000000001
 20
-114.0
 30
0.0
  0
VERTEX
  5
206
  8
LAYER_01
 10
73.1
 20
-104.4333333333333
 30
0.0
  0
VERTEX
  5
207
  8
LAYER_01
 10
75.0
 20
-104.4333333333333
 30
0.0
 42
1.000000000000284
  0
VERTEX
  5
208
  8
LAYER_01
 10
75.10000000000001
 20
-104.3333333333333
 30
0.0
  0
VERTEX
  5
209
  8
LAYER_01
 10
75.09999999999998
 20
-94.66666666666666
 30
0.0
 42
0.9999999999999999
  0
VERTEX
  5
20A
  8
LAYER_01
 10
75.00000000000003
 20
-94.56666666666668
 30
0.0
  0
VERTEX
  5
20B
  8
LAYER_01
 10
73.1
 20
-94.56666666666666
 30
0.0
  0
VERTEX
  5
20C
  8
LAYER_01
 10
73.10000000000002
 20
-85.00000000000003
 30
0.0
 42
1.000000000000284
  0
VERTEX
  5
20D
  8
LAYER_01
 10
73.00000000000001
 20
-84.90000000000002
 30
0.0
  0
VERTEX
  5
20E
  8
LAYER_01
 10
-75.0
 20
-84.9
 30
0.0
 42
0.9999999999999999
  0
VERTEX
  5
20F
  8
LAYER_01
 10
-75.1
 20
-85.0
 30
0.0
  0
VERTEX
  5
210
  8
LAYER_01
 10
-75.10000000000001
 20
-94.66666666666666
 30
0.0
 42
0.9999999999998579
  0
VERTEX
  5
211
  8
LAYER_01
 10
-75.00000000000001
 20
-94.76666666666668
 30
0.0
  0
VERTEX
  5
212
  8
LAYER_01
 10
-73.1
 20
-94.76666666666668
 30
0.0
  0
VERTEX
  5
213
  8
LAYER_01
 10
-73.1
 20
-104.2333333333333
 30
0.0
  0
VERTEX
  5
214
  8
LAYER_01
 10
-75.0
 20
-104.2333333333333
 30
0.0
 42
0.9999999999999999
  0
VERTEX
  5
215
  8
LAYER_01
 10
-75.1
 20
-104.3333333333333
 30
0.0
  0
VERTEX
  5
216
  8
LAYER_01
 10
-75.1
 20
-114.0
 30
0.0
 42
0.9999999999999999
  0
VERTEX
  5
217
  8
LAYER_01
 10
-75.0
 20
-114.1
 30
0.0
  0
SEQEND
  5
218
  8
LAYER_01
  0
POLYLINE
  5
219
  8
LAYER_01
 66
     1
 10
0.0
 20
0.0
 30
0.0
 70
     1
  0
VERTEX
  5
21A
  8
LAYER_01
 10
46.55454545454548
 20
-111.9
 30
0.0
  0
VERTEX
  5
21B
  8
LAYER_01
 10
46.55454545454548
 20
-110.1
 30
0.0
  0
VERTEX
  5
21C
  8
LAYER_01
 10
59.62727272727275
 20
-110.1
 30
0.0
  0
VERTEX
  5
21D
  8
LAYER_01
 10
59.62727272727275
 20
-111.9
 30
0.0
  0
SEQEND
  5
21E
  8
LAYER_01
  0
POLYLINE
  5
21F
  8
LAYER_01
 66
     1
 10
0.0
 20
0.0
 30
0.0
 70
     1
  0
VERTEX
  5
220
  8
LAYER_01
 10
20.00909090909092
 20
-111.9
 30
0.0
  0
VERTEX
  5
221
  8
LAYER_01
 10
20.00909090909092
 20
-110.1
 30
0.0
  0
VERTEX
  5
222
  8
LAYER_01
 10
33.0818181818182
 20
-110.1
 30
0.0
  0
VERTEX
  5
223
  8
LAYER_01
 10
33.0818181818182
 20
-111.9
 30
0.0
  0
SEQEND
  5
224
  8
LAYER_01
  0
POLYLINE
  5
225
  8
LAYER_01
 66
     1
 10
0.0
 20
0.0
 30
0.0
 70
     1
  0
VERTEX
  5
226
  8
LAYER_01
 10
-6.536363636363619
 20
-111.9
 30
0.0
  0
VERTEX
  5
227
  8
LAYER_01
 10
-6.536363636363618
 20
-110.1
 30
0.0
  0
VERTEX
  5
228
  8
LAYER_01
 10
6.536363636363641
 20
-110.1
 30
0.0
  0
VERTEX
  5
229
  8
LAYER_01
 10
6.536363636363641
 20
-111.9
 30
0.0
  0
SEQEND
  5
22A
  8
LAYER_01
  0
POLYLINE
  5
22B
  8
LAYER_01
 66
     1
 10
0.0
 20
0.0
 30
0.0
 70
     1
  0
VERTEX
  5
22C
  8
LAYER_01
 10
-33.08181818181819
 20
-111.9
 30
0.0
  0
VERTEX
  5
22D
  8
LAYER_01
 10
-33.08181818181819
 20
-110.1
 30
0.0
  0
VERTEX
  5
22E
  8
LAYER_01
 10
-20.0090909090909
 20
-110.1
 30
0.0
  0
VERTEX
  5
22F
  8
LAYER_01
 10
-20.00909090909091
 20
-111.9
 30
0.0
  0
SEQEND
  5
230
  8
LAYER_01
  0
POLYLINE
  5
231
  8
LAYER_01
 66
     1
 10
0.0
 20
0.0
 30
0.0
 70
     1
  0
VERTEX
  5
232
  8
LAYER_01
 10
-59.62727272727272
 20
-111.9
 30
0.0
  0
VERTEX
  5
233
  8
LAYER_01
 10
-59.62727272727272
 20
-110.1
 30
0.0
  0
VERTEX
  5
234
  8
LAYER_01
 10
-46.55454545454545
 20
-110.1
 30
0.0
  0
VERTEX
  5
235
  8
LAYER_01
 10
-46.55454545454545
 20
-111.9
 30
0.0
  0
SEQEND
  5
236
  8
LAYER_01
  0
POLYLINE
  5
237
  8
LAYER_01
 66
     1
 10
0.0
 20
0.0
 30
0.0
 70
     1
  0
VERTEX
  5
238
  8
LAYER_01
 10
-63.0
 20
92.9
 30
0.0
  0
VERTEX
  5
239
  8
LAYER_01
 10
63.00000000000001
 20
92.9
 30
0.0
 42
0.9999999999995737
  0
VERTEX
  5
23A
  8
LAYER_01
 10
63.1
 20
93.0
 30
0.0
  0
VERTEX
  5
23B
  8
LAYER_01
 10
63.09999999999999
 20
99.9
 30
0.0
  0
VERTEX
  5
23C
  8
LAYER_01
 10
65.00000000000001
 20
99.90000000000002
 30
0.0
 42
0.9999999999999999
  0
VERTEX
  5
23D
  8
LAYER_01
 10
65.10000000000001
 20
100.0
 30
0.0
  0
VERTEX
  5
23E
  8
LAYER_01
 10
65.10000000000001
 20
107.0
 30
0.0
 42
0.9999999999999999
  0
VERTEX
  5
23F
  8
LAYER_01
 10
65.00000000000001
 20
107.1
 30
0.0
  0
VERTEX
  5
240
  8
LAYER_01
 10
63.09999999999999
 20
107.1
 30
0.0
  0
VERTEX
  5
241
  8
LAYER_01
 10
63.09999999999999
 20
114.0
 30
0.0
 42
0.9999999999999999
  0
VERTEX
  5
242
  8
LAYER_01
 10
63.0
 20
114.1
 30
0.0
  0
VERTEX
  5
243
  8
LAYER_01
 10
-65.0
 20
114.1
 30
0.0
 42
0.9999999999999999
  0
VERTEX
  5
244
  8
LAYER_01
 10
-65.1
 20
114.0
 30
0.0
  0
VERTEX
  5
245
  8
LAYER_01
 10
-65.1
 20
107.0
 30
0.0
 42
0.9999999999999999
  0
VERTEX
  5
246
  8
LAYER_01
 10
-65.0
 20
106.9
 30
0.0
  0
VERTEX
  5
247
  8
LAYER_01
 10
-63.1
 20
106.9
 30
0.0
  0
VERTEX
  5
248
  8
LAYER_01
 10
-63.1
 20
100.1
 30
0.0
  0
VERTEX
  5
249
  8
LAYER_01
 10
-65.0
 20
100.1
 30
0.0
 42
0.9999999999999999
  0
VERTEX
  5
24A
  8
LAYER_01
 10
-65.1
 20
100.0
 30
0.0
  0
VERTEX
  5
24B
  8
LAYER_01
 10
-65.1
 20
93.0
 30
0.0
 42
0.9999999999999999
  0
VERTEX
  5
24C
  8
LAYER_01
 10
-65.0
 20
92.9
 30
0.0
  0
SEQEND
  5
24D
  8
LAYER_01
  0
POLYLINE
  5
24E
  8
LAYER_01
 66
     1
 10
0.0
 20
0.0
 30
0.0
 70
     1
  0
VERTEX
  5
24F
  8
LAYER_01
 10
36.21111111111113
 20
110.1
 30
0.0
  0
VERTEX
  5
250
  8
LAYER_01
 10
36.21111111111113
 20
111.9
 30
0.0
  0
VERTEX
  5
251
  8
LAYER_01
 10
50.45555555555558
 20
111.9
 30
0.0
  0
VERTEX
  5
252
  8
LAYER_01
 10
50.45555555555558
 20
110.1
 30
0.0
  0
SEQEND
  5
253
  8
LAYER_01
  0
POLYLINE
  5
254
  8
LAYER_01
 66
     1
 10
0.0
 20
0.0
 30
0.0
 70
     1
  0
VERTEX
  5
255
  8
LAYER_01
 10
7.322222222222228
 20
110.1
 30
0.0
  0
VERTEX
  5
256
  8
LAYER_01
 10
7.322222222222229
 20
111.9
 30
0.0
  0
VERTEX
  5
257
  8
LAYER_01
 10
21.56666666666668
 20
111.9
 30
0.0
  0
VERTEX
  5
258
  8
LAYER_01
 10
21.56666666666668
 20
110.1
 30
0.0
  0
SEQEND
  5
259
  8
LAYER_01
  0
POLYLINE
  5
25A
  8
LAYER_01
 66
     1
 10
0.0
 20
0.0
 30
0.0
 70
     1
  0
VERTEX
  5
25B
  8
LAYER_01
 10
-21.56666666666667
 20
110.1
 30
0.0
  0
VERTEX
  5
25C
  8
LAYER_01
 10
-21.56666666666667
 20
111.9
 30
0.0
  0
VERTEX
  5
25D
  8
LAYER_01
 10
-7.322222222222226
 20
111.9
 30
0.0
  0
VERTEX
  5
25E
  8
LAYER_01
 10
-7.322222222222226
 20
110.1
 30
0.0
  0
SEQEND
  5
25F
  8
LAYER_01
  0
POLYLINE
  5
260
  8
LAYER_01
 66
     1
 10
0.0
 20
0.0
 30
0.0
 70
     1
  0
VERTEX
  5
261
  8
LAYER_01
 10
-50.45555555555556
 20
110.1
 30
0.0
  0
VERTEX
  5
262
  8
LAYER_01
 10
-50.45555555555556
 20
111.9
 30
0.0
  0
VERTEX
  5
263
  8
LAYER_01
 10
-36.21111111111111
 20
111.9
 30
0.0
  0
VERTEX
  5
264
  8
LAYER_01
 10
-36.21111111111111
 20
110.1
 30
0.0
  0
SEQEND
  5
265
  8
LAYER_01
  0
POLYLINE
  5
266
  8
LAYER_01
 66
     1
 10
0.0
 20
0.0
 30
0.0
 70
     1
  0
VERTEX
  5
267
  8
LAYER_01
 10
36.21111111111113
 20
95.1
 30
0.0
  0
VERTEX
  5
268
  8
LAYER_01
 10
36.21111111111113
 20
96.9
 30
0.0
  0
VERTEX
  5
269
  8
LAYER_01
 10
50.45555555555558
 20
96.9
 30
0.0
  0
VERTEX
  5
26A
  8
LAYER_01
 10
50.45555555555558
 20
95.1
 30
0.0
  0
SEQEND
  5
26B
  8
LAYER_01
  0
POLYLINE
  5
26C
  8
LAYER_01
 66
     1
 10
0.0
 20
0.0
 30
0.0
 70
     1
  0
VERTEX
  5
26D
  8
LAYER_01
 10
7.322222222222228
 20
95.1
 30
0.0
  0
VERTEX
  5
26E
  8
LAYER_01
 10
7.322222222222229
 20
96.9
 30
0.0
  0
VERTEX
  5
26F
  8
LAYER_01
 10
21.56666666666668
 20
96.9
 30
0.0
  0
VERTEX
  5
270
  8
LAYER_01
 10
21.56666666666668
 20
95.1
 30
0.0
  0
SEQEND
  5
271
  8
LAYER_01
  0
POLYLINE
  5
272
  8
LAYER_01
 66
     1
 10
0.0
 20
0.0
 30
0.0
 70
     1
  0
VERTEX
  5
273
  8
LAYER_01
 10
-21.56666666666667
 20
95.1
 30
0.0
  0
VERTEX
  5
274
  8
LAYER_01
 10
-21.56666666666667
 20
96.9
 30
0.0
  0
VERTEX
  5
275
  8
LAYER_01
 10
-7.322222222222226
 20
96.9
 30
0.0
  0
VERTEX
  5
276
  8
LAYER_01
 10
-7.322222222222226
 20
95.1
 30
0.0
  0
SEQEND
  5
277
  8
LAYER_01
  0
POLYLINE
  5
278
  8
LAYER_01
 66
     1
 10
0.0
 20
0.0
 30
0.0
 70
     1
  0
VERTEX
  5
279
  8
LAYER_01
 10
-50.45555555555556
 20
95.1
 30
0.0
  0
VERTEX
  5
27A
  8
LAYER_01
 10
-50.45555555555556
 20
96.9
 30
0.0
  0
VERTEX
  5
27B
  8
LAYER_01
 10
-36.21111111111111
 20
96.9
 30
0.0
  0
VERTEX
  5
27C
  8
LAYER_01
 10
-36.21111111111111
 20
95.1
 30
0.0
  0
SEQEND
  5
27D
  8
LAYER_01
  0
POLYLINE
  5
27E
  8
LAYER_01
 66
     1
 10
0.0
 20
0.0
 30
0.0
 70
     1
  0
VERTEX
  5
27F
  8
LAYER_01
 10
75.1
 20
-59.72727272727272
 30
0.0
  0
VERTEX
  5
280
  8
LAYER_01
 10
75.10000000000001
 20
-46.45454545454546
 30
0.0
 42
0.9999999999999999
  0
VERTEX
  5
281
  8
LAYER_01
 10
75.0
 20
-46.35454545454544
 30
0.0
  0
VERTEX
  5
282
  8
LAYER_01
 10
73.1
 20
-46.35454545454545
 30
0.0
  0
VERTEX
  5
283
  8
LAYER_01
 10
73.1
 20
-33.28181818181818
 30
0.0
  0
VERTEX
  5
284
  8
LAYER_01
 10
75.00000000000001
 20
-33.28181818181818
 30
0.0
 42
0.9999999999998579
  0
VERTEX
  5
285
  8
LAYER_01
 10
75.1
 20
-33.18181818181819
 30
0.0
  0
VERTEX
  5
286
  8
LAYER_01
 10
75.1
 20
-19.9090909090909
 30
0.0
 42
0.9999999999996091
  0
VERTEX
  5
287
  8
LAYER_01
 10
75.0
 20
-19.8090909090909
 30
0.0
  0
VERTEX
  5
288
  8
LAYER_01
 10
73.1
 20
-19.80909090909091
 30
0.0
  0
VERTEX
  5
289
  8
LAYER_01
 10
73.1
 20
-6.736363636363613
 30
0.0
  0
VERTEX
  5
28A
  8
LAYER_01
 10
75.0
 20
-6.73636363636362
 30
0.0
 42
0.9999999999999644
  0
VERTEX
  5
28B
  8
LAYER_01
 10
75.1
 20
-6.636363636363619
 30
0.0
  0
VERTEX
  5
28C
  8
LAYER_01
 10
75.09999999999998
 20
6.636363636363654
 30
0.0
 42
0.9999999999997867
  0
VERTEX
  5
28D
  8
LAYER_01
 10
75.0
 20
6.736363636363635
 30
0.0
  0
VERTEX
  5
28E
  8
LAYER_01
 10
73.1
 20
6.736363636363564
 30
0.0
  0
VERTEX
  5
28F
  8
LAYER_01
 10
73.1
 20
19.80909090909098
 30
0.0
  0
VERTEX
  5
290
  8
LAYER_01
 10
75.0
 20
19.80909090909091
 30
0.0
 42
0.9999999999999999
  0
VERTEX
  5
291
  8
LAYER_01
 10
75.1
 20
19.90909090909091
 30
0.0
  0
VERTEX
  5
292
  8
LAYER_01
 10
75.1
 20
33.1818181818182
 30
0.0
 42
0.9999999999999999
  0
VERTEX
  5
293
  8
LAYER_01
 10
75.0
 20
33.2818181818182
 30
0.0
  0
VERTEX
  5
294
  8
LAYER_01
 10
73.1
 20
33.28181818181812
 30
0.0
  0
VERTEX
  5
295
  8
LAYER_01
 10
73.1
 20
46.35454545454542
 30
0.0
  0
VERTEX
  5
296
  8
LAYER_01
 10
75.0
 20
46.35454545454549
 30
0.0
 42
0.9999999999999999
  0
VERTEX
  5
297
  8
LAYER_01
 10
75.1
 20
46.45454545454548
 30
0.0
  0
VERTEX
  5
298
  8
LAYER_01
 10
75.1
 20
59.72727272727275
 30
0.0
 42
0.9999999999999999
  0
VERTEX
  5
299
  8
LAYER_01
 10
75.0
 20
59.82727272727274
 30
0.0
  0
VERTEX
  5
29A
  8
LAYER_01
 10
73.1
 20
59.82727272727267
 30
0.0
  0
VERTEX
  5
29B
  8
LAYER_01
 10
73.1
 20
73.0
 30
0.0
 42
0.9999999999999999
  0
VERTEX
  5
29C
  8
LAYER_01
 10
73.0
 20
73.1
 30
0.0
  0
VERTEX
  5
29D
  8
LAYER_01
 10
59.82727272727278
 20
73.1
 30
0.0
  0
VERTEX
  5
29E
  8
LAYER_01
 10
59.82727272727272
 20
75.0
 30
0.0
 42
0.9999999999999999
  0
VERTEX
  5
29F
  8
LAYER_01
 10
59.72727272727272
 20
75.1
 30
0.0
  0
VERTEX
  5
2A0
  8
LAYER_01
 10
46.45454545454546
 20
75.10000000000001
 30
0.0
 42
0.9999999999999999
  0
VERTEX
  5
2A1
  8
LAYER_01
 10
46.35454545454544
 20
75.0
 30
0.0
  0
VERTEX
  5
2A2
  8
LAYER_01
 10
46.35454545454539
 20
73.1
 30
0.0
  0
VERTEX
  5
2A3
  8
LAYER_01
 10
33.28181818181825
 20
73.1
 30
0.0
  0
VERTEX
  5
2A4
  8
LAYER_01
 10
33.28181818181819
 20
75.0
 30
0.0
 42
0.9999999999999999
  0
VERTEX
  5
2A5
  8
LAYER_01
 10
33.18181818181819
 20
75.1
 30
0.0
  0
VERTEX
  5
2A6
  8
LAYER_01
 10
19.90909090909091
 20
75.1
 30
0.0
 42
0.9999999999999999
  0
VERTEX
  5
2A7
  8
LAYER_01
 10
19.80909090909091
 20
75.0
 30
0.0
  0
VERTEX
  5
2A8
  8
LAYER_01
 10
19.80909090909084
 20
73.1
 30
0.0
  0
VERTEX
  5
2A9
  8
LAYER_01
 10
6.736363636363677
 20
73.1
 30
0.0
  0
VERTEX
  5
2AA
  8
LAYER_01
 10
6.736363636363607
 20
75.00000000000001
 30
0.0
 42
1.000000000000213
  0
VERTEX
  5
2AB
  8
LAYER_01
 10
6.636363636363626
 20
75.1
 30
0.0
  0
VERTEX
  5
2AC
  8
LAYER_01
 10
-6.636363636363654
 20
75.09999999999998
 30
0.0
 42
0.9999999999997867
  0
VERTEX
  5
2AD
  8
LAYER_01
 10
-6.736363636363635
 20
75.0
 30
0.0
  0
VERTEX
  5
2AE
  8
LAYER_01
 10
-6.736363636363706
 20
73.1
 30
0.0
  0
VERTEX
  5
2AF
  8
LAYER_01
 10
-19.80909090909086
 20
73.1
 30
0.0
  0
VERTEX
  5
2B0
  8
LAYER_01
 10
-19.80909090909091
 20
75.0
 30
0.0
 42
0.9999999999999999
  0
VERTEX
  5
2B1
  8
LAYER_01
 10
-19.90909090909091
 20
75.1
 30
0.0
  0
VERTEX
  5
2B2
  8
LAYER_01
 10
-33.1818181818182
 20
75.1
 30
0.0
 42
0.9999999999999999
  0
VERTEX
  5
2B3
  8
LAYER_01
 10
-33.2818181818182
 20
75.0
 30
0.0
  0
VERTEX
  5
2B4
  8
LAYER_01
 10
-33.28181818181827
 20
73.1
 30
0.0
  0
VERTEX
  5
2B5
  8
LAYER_01
 10
-46.35454545454542
 20
73.1
 30
0.0
  0
VERTEX
  5
2B6
  8
LAYER_01
 10
-46.35454545454549
 20
75.0
 30
0.0
 42
0.9999999999999999
  0
VERTEX
  5
2B7
  8
LAYER_01
 10
-46.45454545454548
 20
75.1
 30
0.0
  0
VERTEX
  5
2B8
  8
LAYER_01
 10
-59.72727272727274
 20
75.10000000000001
 30
0.0
 42
0.9999999999999287
  0
VERTEX
  5
2B9
  8
LAYER_01
 10
-59.82727272727275
 20
75.0
 30
0.0
  0
VERTEX
  5
2BA
  8
LAYER_01
 10
-59.82727272727283
 20
73.1
 30
0.0
  0
VERTEX
  5
2BB
  8
LAYER_01
 10
-72.99999999999997
 20
73.1
 30
0.0
 42
0.9999999999994317
  0
VERTEX
  5
2BC
  8
LAYER_01
 10
-73.09999999999997
 20
73.0
 30
0.0
  0
VERTEX
  5
2BD
  8
LAYER_01
 10
-73.10000000000002
 20
59.82727272727277
 30
0.0
  0
VERTEX
  5
2BE
  8
LAYER_01
 10
-75.00000000000001
 20
59.82727272727271
 30
0.0
 42
1.000000000000284
  0
VERTEX
  5
2BF
  8
LAYER_01
 10
-75.10000000000001
 20
59.72727272727271
 30
0.0
  0
VERTEX
  5
2C0
  8
LAYER_01
 10
-75.10000000000001
 20
46.45454545454545
 30
0.0
 42
1.000000000000142
  0
VERTEX
  5
2C1
  8
LAYER_01
 10
-75.00000000000001
 20
46.35454545454545
 30
0.0
  0
VERTEX
  5
2C2
  8
LAYER_01
 10
-73.1
 20
46.35454545454591
 30
0.0
  0
VERTEX
  5
2C3
  8
LAYER_01
 10
-73.1
 20
33.28181818181771
 30
0.0
  0
VERTEX
  5
2C4
  8
LAYER_01
 10
-75.00000000000001
 20
33.28181818181817
 30
0.0
 42
1.000000000000284
  0
VERTEX
  5
2C5
  8
LAYER_01
 10
-75.10000000000001
 20
33.18181818181818
 30
0.0
  0
VERTEX
  5
2C6
  8
LAYER_01
 10
-75.10000000000001
 20
19.90909090909092
 30
0.0
 42
1.000000000000178
  0
VERTEX
  5
2C7
  8
LAYER_01
 10
-75.00000000000001
 20
19.80909090909092
 30
0.0
  0
VERTEX
  5
2C8
  8
LAYER_01
 10
-73.1
 20
19.80909090909138
 30
0.0
  0
VERTEX
  5
2C9
  8
LAYER_01
 10
-73.1
 20
6.736363636363151
 30
0.0
  0
VERTEX
  5
2CA
  8
LAYER_01
 10
-75.00000000000001
 20
6.736363636363608
 30
0.0
 42
1.00000000000032
  0
VERTEX
  5
2CB
  8
LAYER_01
 10
-75.10000000000001
 20
6.636363636363619
 30
0.0
  0
VERTEX
  5
2CC
  8
LAYER_01
 10
-75.1
 20
-6.636363636363643
 30
0.0
 42
1.000000000000053
  0
VERTEX
  5
2CD
  8
LAYER_01
 10
-75.0
 20
-6.736363636363645
 30
0.0
  0
VERTEX
  5
2CE
  8
LAYER_01
 10
-73.1
 20
-6.736363636363706
 30
0.0
  0
VERTEX
  5
2CF
  8
LAYER_01
 10
-73.1
 20
-19.80909090909085
 30
0.0
  0
VERTEX
  5
2D0
  8
LAYER_01
 10
-75.0
 20
-19.80909090909091
 30
0.0
 42
1.000000000000213
  0
VERTEX
  5
2D1
  8
LAYER_01
 10
-75.10000000000001
 20
-19.90909090909092
 30
0.0
  0
VERTEX
  5
2D2
  8
LAYER_01
 10
-75.1
 20
-33.18181818181821
 30
0.0
 42
1.000000000000284
  0
VERTEX
  5
2D3
  8
LAYER_01
 10
-75.00000000000001
 20
-33.2818181818182
 30
0.0
  0
VERTEX
  5
2D4
  8
LAYER_01
 10
-73.1
 20
-33.28181818181827
 30
0.0
  0
VERTEX
  5
2D5
  8
LAYER_01
 10
-73.1
 20
-46.35454545454542
 30
0.0
  0
VERTEX
  5
2D6
  8
LAYER_01
 10
-75.00000000000003
 20
-46.3545454545455
 30
0.0
 42
1.000000000000284
  0
VERTEX
  5
2D7
  8
LAYER_01
 10
-75.10000000000001
 20
-46.45454545454549
 30
0.0
  0
VERTEX
  5
2D8
  8
LAYER_01
 10
-75.1
 20
-59.72727272727275
 30
0.0
 42
1.000000000000284
  0
VERTEX
  5
2D9
  8
LAYER_01
 10
-75.00000000000001
 20
-59.82727272727274
 30
0.0
  0
VERTEX
  5
2DA
  8
LAYER_01
 10
-73.1
 20
-59.82727272727281
 30
0.0
  0
VERTEX
  5
2DB
  8
LAYER_01
 10
-73.10000000000001
 20
-72.99999999999999
 30
0.0
 42
1.000000000000142
  0
VERTEX
  5
2DC
  8
LAYER_01
 10
-73.00000000000001
 20
-73.09999999999998
 30
0.0
  0
VERTEX
  5
2DD
  8
LAYER_01
 10
-59.82727272727277
 20
-73.1
 30
0.0
  0
VERTEX
  5
2DE
  8
LAYER_01
 10
-59.82727272727271
 20
-75.0
 30
0.0
 42
0.9999999999999999
  0
VERTEX
  5
2DF
  8
LAYER_01
 10
-59.72727272727272
 20
-75.1
 30
0.0
  0
VERTEX
  5
2E0
  8
LAYER_01
 10
-46.45454545454544
 20
-75.1
 30
0.0
 42
0.9999999999999999
  0
VERTEX
  5
2E1
  8
LAYER_01
 10
-46.35454545454544
 20
-75.0
 30
0.0
  0
VERTEX
  5
2E2
  8
LAYER_01
 10
-46.35454545454539
 20
-73.1
 30
0.0
  0
VERTEX
  5
2E3
  8
LAYER_01
 10
-33.28181818181825
 20
-73.1
 30
0.0
  0
VERTEX
  5
2E4
  8
LAYER_01
 10
-33.28181818181818
 20
-75.0
 30
0.0
 42
0.9999999999999999
  0
VERTEX
  5
2E5
  8
LAYER_01
 10
-33.18181818181819
 20
-75.1
 30
0.0
  0
VERTEX
  5
2E6
  8
LAYER_01
 10
-19.90909090909091
 20
-75.1
 30
0.0
 42
0.9999999999999999
  0
VERTEX
  5
2E7
  8
LAYER_01
 10
-19.80909090909091
 20
-75.0
 30
0.0
  0
VERTEX
  5
2E8
  8
LAYER_01
 10
-19.80909090909086
 20
-73.1
 30
0.0
  0
VERTEX
  5
2E9
  8
LAYER_01
 10
-6.736363636363677
 20
-73.1
 30
0.0
  0
VERTEX
  5
2EA
  8
LAYER_01
 10
-6.736363636363619
 20
-75.0
 30
0.0
 42
0.9999999999999999
  0
VERTEX
  5
2EB
  8
LAYER_01
 10
-6.636363636363626
 20
-75.1
 30
0.0
  0
VERTEX
  5
2EC
  8
LAYER_01
 10
6.636363636363641
 20
-75.1
 30
0.0
 42
0.9999999999999999
  0
VERTEX
  5
2ED
  8
LAYER_01
 10
6.736363636363635
 20
-75.0
 30
0.0
  0
VERTEX
  5
2EE
  8
LAYER_01
 10
6.736363636363706
 20
-73.1
 30
0.0
  0
VERTEX
  5
2EF
  8
LAYER_01
 10
19.80909090909138
 20
-73.1
 30
0.0
  0
VERTEX
  5
2F0
  8
LAYER_01
 10
19.80909090909092
 20
-75.0
 30
0.0
 42
0.9999999999999999
  0
VERTEX
  5
2F1
  8
LAYER_01
 10
19.90909090909091
 20
-75.1
 30
0.0
  0
VERTEX
  5
2F2
  8
LAYER_01
 10
33.18181818181822
 20
-75.09999999999998
 30
0.0
 42
0.9999999999997867
  0
VERTEX
  5
2F3
  8
LAYER_01
 10
33.2818181818182
 20
-75.0
 30
0.0
  0
VERTEX
  5
2F4
  8
LAYER_01
 10
33.28181818181827
 20
-73.1
 30
0.0
  0
VERTEX
  5
2F5
  8
LAYER_01
 10
46.35454545454542
 20
-73.1
 30
0.0
  0
VERTEX
  5
2F6
  8
LAYER_01
 10
46.35454545454548
 20
-75.0
 30
0.0
 42
0.9999999999999999
  0
VERTEX
  5
2F7
  8
LAYER_01
 10
46.45454545454548
 20
-75.1
 30
0.0
  0
VERTEX
  5
2F8
  8
LAYER_01
 10
59.72727272727276
 20
-75.09999999999998
 30
0.0
 42
0.9999999999997867
  0
VERTEX
  5
2F9
  8
LAYER_01
 10
59.82727272727275
 20
-75.0
 30
0.0
  0
VERTEX
  5
2FA
  8
LAYER_01
 10
59.82727272727334
 20
-73.1
 30
0.0
  0
VERTEX
  5
2FB
  8
LAYER_01
 10
73.0
 20
-73.1
 30
0.0
 42
0.9999999999999999
  0
VERTEX
  5
2FC
  8
LAYER_01
 10
73.1
 20
-73.0
 30
0.0
  0
VERTEX
  5
2FD
  8
LAYER_01
 10
73.1
 20
-59.82727272727278
 30
0.0
  0
VERTEX
  5
2FE
  8
LAYER_01
 10
75.0
 20
-59.82727272727272
 30
0.0
 42
0.9999999999999999
  0
SEQEND
  5
2FF
  8
LAYER_01
  0
POLYLINE
  5
300
  8
LAYER_01
 66
     1
 10
0.0
 20
0.0
 30
0.0
 70
     1
  0
VERTEX
  5
301
  8
LAYER_01
 10
-50.65555555555556
 20
-63.0
 30
0.0
  0
VERTEX
  5
302
  8
LAYER_01
 10
-50.65555555555562
 20
-64.9
 30
0.0
  0
VERTEX
  5
303
  8
LAYER_01
 10
-64.89999999999993
 20
-64.89999999999996
 30
0.0
  0
VERTEX
  5
304
  8
LAYER_01
 10
-64.9
 20
-50.65555555555564
 30
0.0
  0
VERTEX
  5
305
  8
LAYER_01
 10
-63.0
 20
-50.65555555555557
 30
0.0
 42
0.9999999999999287
  0
VERTEX
  5
306
  8
LAYER_01
 10
-62.9
 20
-50.55555555555557
 30
0.0
  0
VERTEX
  5
307
  8
LAYER_01
 10
-62.9
 20
-36.11111111111113
 30
0.0
 42
0.9999999999999287
  0
VERTEX
  5
308
  8
LAYER_01
 10
-63.0
 20
-36.01111111111113
 30
0.0
  0
VERTEX
  5
309
  8
LAYER_01
 10
-64.9
 20
-36.01111111111133
 30
0.0
  0
VERTEX
  5
30A
  8
LAYER_01
 10
-64.9
 20
-21.76666666666674
 30
0.0
  0
VERTEX
  5
30B
  8
LAYER_01
 10
-63.0
 20
-21.76666666666667
 30
0.0
 42
0.9999999999998579
  0
VERTEX
  5
30C
  8
LAYER_01
 10
-62.9
 20
-21.66666666666667
 30
0.0
  0
VERTEX
  5
30D
  8
LAYER_01
 10
-62.9
 20
-7.222222222222231
 30
0.0
 42
0.9999999999999022
  0
VERTEX
  5
30E
  8
LAYER_01
 10
-63.0
 20
-7.122222222222224
 30
0.0
  0
VERTEX
  5
30F
  8
LAYER_01
 10
-64.9
 20
-7.122222222222163
 30
0.0
  0
VERTEX
  5
310
  8
LAYER_01
 10
-64.9
 20
7.122222222222177
 30
0.0
  0
VERTEX
  5
311
  8
LAYER_01
 10
-63.0
 20
7.122222222222236
 30
0.0
 42
1.000000000000089
  0
VERTEX
  5
312
  8
LAYER_01
 10
-62.9
 20
7.222222222222225
 30
0.0
  0
VERTEX
  5
313
  8
LAYER_01
 10
-62.9
 20
21.66666666666667
 30
0.0
 42
0.9999999999999999
  0
VERTEX
  5
314
  8
LAYER_01
 10
-63.0
 20
21.76666666666667
 30
0.0
  0
VERTEX
  5
315
  8
LAYER_01
 10
-64.89999999999999
 20
21.76666666666674
 30
0.0
  0
VERTEX
  5
316
  8
LAYER_01
 10
-64.9
 20
36.01111111111106
 30
0.0
  0
VERTEX
  5
317
  8
LAYER_01
 10
-63.0
 20
36.01111111111112
 30
0.0
 42
1.000000000000071
  0
VERTEX
  5
318
  8
LAYER_01
 10
-62.89999999999999
 20
36.11111111111111
 30
0.0
  0
VERTEX
  5
319
  8
LAYER_01
 10
-62.90000000000001
 20
50.55555555555556
 30
0.0
 42
0.9999999999999999
  0
VERTEX
  5
31A
  8
LAYER_01
 10
-63.0
 20
50.65555555555556
 30
0.0
  0
VERTEX
  5
31B
  8
LAYER_01
 10
-64.89999999999999
 20
50.65555555555615
 30
0.0
  0
VERTEX
  5
31C
  8
LAYER_01
 10
-64.90000000000046
 20
64.89999999999998
 30
0.0
  0
VERTEX
  5
31D
  8
LAYER_01
 10
-50.65555555555564
 20
64.9
 30
0.0
  0
VERTEX
  5
31E
  8
LAYER_01
 10
-50.65555555555558
 20
63.00000000000001
 30
0.0
 42
0.9999999999999999
  0
VERTEX
  5
31F
  8
LAYER_01
 10
-50.55555555555557
 20
62.9
 30
0.0
  0
VERTEX
  5
320
  8
LAYER_01
 10
-36.11111111111113
 20
62.90000000000001
 30
0.0
 42
1.000000000000071
  0
VERTEX
  5
321
  8
LAYER_01
 10
-36.01111111111112
 20
63.0
 30
0.0
  0
VERTEX
  5
322
  8
LAYER_01
 10
-36.01111111111106
 20
64.9
 30
0.0
  0
VERTEX
  5
323
  8
LAYER_01
 10
-21.76666666666674
 20
64.9
 30
0.0
  0
VERTEX
  5
324
  8
LAYER_01
 10
-21.76666666666668
 20
63.0
 30
0.0
 42
0.9999999999998579
  0
VERTEX
  5
325
  8
LAYER_01
 10
-21.66666666666667
 20
62.90000000000001
 30
0.0
  0
VERTEX
  5
326
  8
LAYER_01
 10
-7.222222222222226
 20
62.90000000000001
 30
0.0
 42
0.999999999999849
  0
VERTEX
  5
327
  8
LAYER_01
 10
-7.122222222222224
 20
63.0
 30
0.0
  0
VERTEX
  5
328
  8
LAYER_01
 10
-7.122222222222703
 20
64.9
 30
0.0
  0
VERTEX
  5
329
  8
LAYER_01
 10
7.122222222222163
 20
64.9
 30
0.0
  0
VERTEX
  5
32A
  8
LAYER_01
 10
7.122222222222224
 20
63.0
 30
0.0
 42
0.99999999999984
  0
VERTEX
  5
32B
  8
LAYER_01
 10
7.222222222222225
 20
62.90000000000001
 30
0.0
  0
VERTEX
  5
32C
  8
LAYER_01
 10
21.66666666666667
 20
62.90000000000001
 30
0.0
 42
0.9999999999999999
  0
VERTEX
  5
32D
  8
LAYER_01
 10
21.76666666666667
 20
63.0
 30
0.0
  0
VERTEX
  5
32E
  8
LAYER_01
 10
21.76666666666674
 20
64.9
 30
0.0
  0
VERTEX
  5
32F
  8
LAYER_01
 10
36.01111111111105
 20
64.9
 30
0.0
  0
VERTEX
  5
330
  8
LAYER_01
 10
36.01111111111112
 20
63.0
 30
0.0
 42
0.9999999999999999
  0
VERTEX
  5
331
  8
LAYER_01
 10
36.11111111111111
 20
62.90000000000001
 30
0.0
  0
VERTEX
  5
332
  8
LAYER_01
 10
50.55555555555556
 20
62.90000000000001
 30
0.0
 42
0.9999999999999999
  0
VERTEX
  5
333
  8
LAYER_01
 10
50.65555555555555
 20
63.0
 30
0.0
  0
VERTEX
  5
334
  8
LAYER_01
 10
50.65555555555561
 20
64.9
 30
0.0
  0
VERTEX
  5
335
  8
LAYER_01
 10
64.89999999999993
 20
64.90000000000047
 30
0.0
  0
VERTEX
  5
336
  8
LAYER_01
 10
64.9
 20
50.65555555555562
 30
0.0
  0
VERTEX
  5
337
  8
LAYER_01
 10
63.0
 20
50.65555555555557
 30
0.0
 42
0.9999999999999999
  0
VERTEX
  5
338
  8
LAYER_01
 10
62.90000000000001
 20
50.55555555555557
 30
0.0
  0
VERTEX
  5
339
  8
LAYER_01
 10
62.90000000000001
 20
36.11111111111113
 30
0.0
 42
0.9999999999999999
  0
VERTEX
  5
33A
  8
LAYER_01
 10
63.0
 20
36.01111111111113
 30
0.0
  0
VERTEX
  5
33B
  8
LAYER_01
 10
64.9
 20
36.01111111111054
 30
0.0
  0
VERTEX
  5
33C
  8
LAYER_01
 10
64.9
 20
21.76666666666674
 30
0.0
  0
VERTEX
  5
33D
  8
LAYER_01
 10
63.0
 20
21.76666666666667
 30
0.0
 42
0.9999999999999999
  0
VERTEX
  5
33E
  8
LAYER_01
 10
62.90000000000001
 20
21.66666666666667
 30
0.0
  0
VERTEX
  5
33F
  8
LAYER_01
 10
62.9
 20
7.222222222222236
 30
0.0
 42
0.9999999999999644
  0
VERTEX
  5
340
  8
LAYER_01
 10
63.0
 20
7.122222222222234
 30
0.0
  0
VERTEX
  5
341
  8
LAYER_01
 10
64.9
 20
7.122222222222177
 30
0.0
  0
VERTEX
  5
342
  8
LAYER_01
 10
64.9
 20
-7.122222222222163
 30
0.0
  0
VERTEX
  5
343
  8
LAYER_01
 10
63.0
 20
-7.122222222222224
 30
0.0
 42
0.99999999999984
  0
VERTEX
  5
344
  8
LAYER_01
 10
62.90000000000001
 20
-7.222222222222225
 30
0.0
  0
VERTEX
  5
345
  8
LAYER_01
 10
62.9
 20
-21.66666666666667
 30
0.0
 42
0.9999999999999287
  0
VERTEX
  5
346
  8
LAYER_01
 10
63.0
 20
-21.76666666666668
 30
0.0
  0
VERTEX
  5
347
  8
LAYER_01
 10
64.9
 20
-21.76666666666674
 30
0.0
  0
VERTEX
  5
348
  8
LAYER_01
 10
64.9
 20
-36.01111111111105
 30
0.0
  0
VERTEX
  5
349
  8
LAYER_01
 10
63.0
 20
-36.01111111111111
 30
0.0
 42
0.9999999999999999
  0
VERTEX
  5
34A
  8
LAYER_01
 10
62.90000000000001
 20
-36.11111111111111
 30
0.0
  0
VERTEX
  5
34B
  8
LAYER_01
 10
62.90000000000001
 20
-50.55555555555556
 30
0.0
 42
0.9999999999999287
  0
VERTEX
  5
34C
  8
LAYER_01
 10
62.99999999999999
 20
-50.65555555555556
 30
0.0
  0
VERTEX
  5
34D
  8
LAYER_01
 10
64.9
 20
-50.65555555555508
 30
0.0
  0
VERTEX
  5
34E
  8
LAYER_01
 10
64.89999999999993
 20
-64.90000000000047
 30
0.0
  0
VERTEX
  5
34F
  8
LAYER_01
 10
50.65555555555564
 20
-64.89999999999999
 30
0.0
  0
VERTEX
  5
350
  8
LAYER_01
 10
50.65555555555557
 20
-63.0
 30
0.0
 42
0.9999999999999287
  0
VERTEX
  5
351
  8
LAYER_01
 10
50.55555555555558
 20
-62.9
 30
0.0
  0
VERTEX
  5
352
  8
LAYER_01
 10
36.11111111111112
 20
-62.90000000000001
 30
0.0
 42
0.9999999999999999
  0
VERTEX
  5
353
  8
LAYER_01
 10
36.01111111111113
 20
-63.0
 30
0.0
  0
VERTEX
  5
354
  8
LAYER_01
 10
36.01111111111054
 20
-64.9
 30
0.0
  0
VERTEX
  5
355
  8
LAYER_01
 10
21.76666666666726
 20
-64.9
 30
0.0
  0
VERTEX
  5
356
  8
LAYER_01
 10
21.76666666666667
 20
-63.0
 30
0.0
 42
1.000000000000071
  0
VERTEX
  5
357
  8
LAYER_01
 10
21.66666666666667
 20
-62.9
 30
0.0
  0
VERTEX
  5
358
  8
LAYER_01
 10
7.222222222222229
 20
-62.9
 30
0.0
 42
0.9999999999999287
  0
VERTEX
  5
359
  8
LAYER_01
 10
7.12222222222222
 20
-63.00000000000001
 30
0.0
  0
VERTEX
  5
35A
  8
LAYER_01
 10
7.122222222222696
 20
-64.9
 30
0.0
  0
VERTEX
  5
35B
  8
LAYER_01
 10
-7.122222222222696
 20
-64.9
 30
0.0
  0
VERTEX
  5
35C
  8
LAYER_01
 10
-7.122222222222227
 20
-63.0
 30
0.0
 42
0.9999999999998579
  0
VERTEX
  5
35D
  8
LAYER_01
 10
-7.222222222222221
 20
-62.90000000000001
 30
0.0
  0
VERTEX
  5
35E
  8
LAYER_01
 10
-21.66666666666669
 20
-62.90000000000001
 30
0.0
 42
0.9999999999998934
  0
VERTEX
  5
35F
  8
LAYER_01
 10
-21.76666666666668
 20
-63.0
 30
0.0
  0
VERTEX
  5
360
  8
LAYER_01
 10
-21.76666666666727
 20
-64.9
 30
0.0
  0
VERTEX
  5
361
  8
LAYER_01
 10
-36.01111111111052
 20
-64.9
 30
0.0
  0
VERTEX
  5
362
  8
LAYER_01
 10
-36.01111111111111
 20
-63.0
 30
0.0
 42
0.9999999999999287
  0
VERTEX
  5
363
  8
LAYER_01
 10
-36.11111111111111
 20
-62.9
 30
0.0
  0
VERTEX
  5
364
  8
LAYER_01
 10
-50.55555555555556
 20
-62.9
 30
0.0
 42
0.9999999999999287
  0
SEQEND
  5
365
  8
LAYER_01
  0
CIRCLE
  5
366
  8
LAYER_01
 10
319.0
 20
-19.0
 30
0.0
 40
1.899999999999977
  0
CIRCLE
  5
367
  8
LAYER_01
 10
319.0
 20
19.0
 30
0.0
 40
1.899999999999977
  0
CIRCLE
  5
368
  8
LAYER_01
 10
281.0
 20
-19.0
 30
0.0
 40
1.899999999999977
  0
CIRCLE
  5
369
  8
LAYER_01
 10
281.0
 20
19.0
 30
0.0
 40
1.899999999999977
  0
CIRCLE
  5
36A
  8
LAYER_01
 10
300.0
 20
0.0
 30
0.0
 40
21.39999999999998
  0
POLYLINE
  5
36B
  8
LAYER_01
 66
     1
 10
0.0
 20
0.0
 30
0.0
 70
     1
  0
VERTEX
  5
36C
  8
LAYER_01
 10
274.9
 20
-23.0
 30
0.0
 42
0.4142135623730975
  0
VERTEX
  5
36D
  8
LAYER_01
 10
277.0
 20
-25.10000000000002
 30
0.0
  0
VERTEX
  5
36E
  8
LAYER_01
 10
323.0
 20
-25.09999999999999
 30
0.0
 42
0.4142135623730548
  0
VERTEX
  5
36F
  8
LAYER_01
 10
325.1
 20
-23.0
 30
0.0
  0
VERTEX
  5
370
  8
LAYER_01
 10
325.1
 20
23.0
 30
0.0
 42
0.4142135623730554
  0
VERTEX
  5
371
  8
LAYER_01
 10
323.0
 20
25.09999999999999
 30
0.0
  0
VERTEX
  5
372
  8
LAYER_01
 10
277.0
 20
25.10000000000003
 30
0.0
 42
0.414213562373071
  0
VERTEX
  5
373
  8
LAYER_01
 10
274.9
 20
23.0
 30
0.0
  0
SEQEND
  5
374
  8
LAYER_01
  0
POLYLINE
  5
375
  8
LAYER_01
 66
     1
 10
0.0
 20
0.0
 30
0.0
 70
     1
  0
VERTEX
  5
376
  8
LAYER_01
 10
97.0
 20
-63.1
 30
0.0
  0
VERTEX
  5
377
  8
LAYER_01
 10
109.3444444444444
 20
-63.1
 30
0.0
  0
VERTEX
  5
378
  8
LAYER_01
 10
109.3444444444444
 20
-65.00000000000001
 30
0.0
 42
0.9999999999999999
  0
VERTEX
  5
379
  8
LAYER_01
 10
109.4444444444444
 20
-65.10000000000001
 30
0.0
  0
VERTEX
  5
37A
  8
LAYER_01
 10
123.8888888888889
 20
-65.1
 30
0.0
 42
0.9999999999999999
  0
VERTEX
  5
37B
  8
LAYER_01
 10
123.9888888888889
 20
-65.0
 30
0.0
  0
VERTEX
  5
37C
  8
LAYER_01
 10
123.9888888888889
 20
-63.1
 30
0.0
  0
VERTEX
  5
37D
  8
LAYER_01
 10
138.2333333333333
 20
-63.1
 30
0.0
  0
VERTEX
  5
37E
  8
LAYER_01
 10
138.2333333333333
 20
-65.00000000000003
 30
0.0
 42
1.000000000000426
  0
VERTEX
  5
37F
  8
LAYER_01
 10
138.3333333333333
 20
-65.09999999999998
 30
0.0
  0
VERTEX
  5
380
  8
LAYER_01
 10
152.7777777777778
 20
-65.1
 30
0.0
 42
0.9999999999999999
  0
VERTEX
  5
381
  8
LAYER_01
 10
152.8777777777778
 20
-64.99999999999999
 30
0.0
  0
VERTEX
  5
382
  8
LAYER_01
 10
152.8777777777778
 20
-63.1
 30
0.0
  0
VERTEX
  5
383
  8
LAYER_01
 10
167.1222222222222
 20
-63.1
 30
0.0
  0
VERTEX
  5
384
  8
LAYER_01
 10
167.1222222222222
 20
-64.99999999999997
 30
0.0
 42
1.000000000000426
  0
VERTEX
  5
385
  8
LAYER_01
 10
167.2222222222222
 20
-65.09999999999998
 30
0.0
  0
VERTEX
  5
386
  8
LAYER_01
 10
181.6666666666667
 20
-65.10000000000001
 30
0.0
 42
0.9999999999999999
  0
VERTEX
  5
387
  8
LAYER_01
 10
181.7666666666667
 20
-64.99999999999999
 30
0.0
  0
VERTEX
  5
388
  8
LAYER_01
 10
181.7666666666667
 20
-63.1
 30
0.0
  0
VERTEX
  5
389
  8
LAYER_01
 10
196.0111111111112
 20
-63.1
 30
0.0
  0
VERTEX
  5
38A
  8
LAYER_01
 10
196.0111111111111
 20
-64.99999999999994
 30
0.0
 42
1.000000000000284
  0
VERTEX
  5
38B
  8
LAYER_01
 10
196.1111111111111
 20
-65.09999999999998
 30
0.0
  0
VERTEX
  5
38C
  8
LAYER_01
 10
210.5555555555555
 20
-65.10000000000002
 30
0.0
 42
0.9999999999999999
  0
VERTEX
  5
38D
  8
LAYER_01
 10
210.6555555555556
 20
-65.00000000000001
 30
0.0
  0
VERTEX
  5
38E
  8
LAYER_01
 10
210.6555555555555
 20
-63.1
 30
0.0
  0
VERTEX
  5
38F
  8
LAYER_01
 10
223.0
 20
-63.09999999999997
 30
0.0
 42
0.9999999999999999
  0
VERTEX
  5
390
  8
LAYER_01
 10
223.1
 20
-62.99999999999999
 30
0.0
  0
VERTEX
  5
391
  8
LAYER_01
 10
223.1
 20
-50.65555555555562
 30
0.0
  0
VERTEX
  5
392
  8
LAYER_01
 10
225.0000000000001
 20
-50.65555555555549
 30
0.0
 42
1.000000000000853
  0
VERTEX
  5
393
  8
LAYER_01
 10
225.1
 20
-50.55555555555556
 30
0.0
  0
VERTEX
  5
394
  8
LAYER_01
 10
225.0999999999999
 20
-36.11111111111106
 30
0.0
 42
1.000000000000071
  0
VERTEX
  5
395
  8
LAYER_01
 10
225.0
 20
-36.01111111111113
 30
0.0
  0
VERTEX
  5
396
  8
LAYER_01
 10
223.1
 20
-36.01111111111105
 30
0.0
  0
VERTEX
  5
397
  8
LAYER_01
 10
223.1
 20
-21.76666666666674
 30
0.0
  0
VERTEX
  5
398
  8
LAYER_01
 10
225.0
 20
-21.76666666666668
 30
0.0
 42
0.9999999999999999
  0
VERTEX
  5
399
  8
LAYER_01
 10
225.1
 20
-21.66666666666665
 30
0.0
  0
VERTEX
  5
39A
  8
LAYER_01
 10
225.1
 20
-7.222222222222221
 30
0.0
 42
1.000000000000106
  0
VERTEX
  5
39B
  8
LAYER_01
 10
225.0
 20
-7.122222222222245
 30
0.0
  0
VERTEX
  5
39C
  8
LAYER_01
 10
223.1
 20
-7.122222222222163
 30
0.0
  0
VERTEX
  5
39D
  8
LAYER_01
 10
223.1
 20
7.122222222222177
 30
0.0
  0
VERTEX
  5
39E
  8
LAYER_01
 10
225.0
 20
7.122222222222224
 30
0.0
 42
1.000000000000106
  0
VERTEX
  5
39F
  8
LAYER_01
 10
225.1
 20
7.222222222222243
 30
0.0
  0
VERTEX
  5
3A0
  8
LAYER_01
 10
225.1
 20
21.66666666666665
 30
0.0
 42
1.000000000000533
  0
VERTEX
  5
3A1
  8
LAYER_01
 10
225.0
 20
21.76666666666665
 30
0.0
  0
VERTEX
  5
3A2
  8
LAYER_01
 10
223.1
 20
21.76666666666674
 30
0.0
  0
VERTEX
  5
3A3
  8
LAYER_01
 10
223.1
 20
36.01111111111106
 30
0.0
  0
VERTEX
  5
3A4
  8
LAYER_01
 10
225.0
 20
36.01111111111116
 30
0.0
 42
1.000000000000284
  0
VERTEX
  5
3A5
  8
LAYER_01
 10
225.1
 20
36.11111111111114
 30
0.0
  0
VERTEX
  5
3A6
  8
LAYER_01
 10
225.1
 20
50.55555555555558
 30
0.0
 42
1.000000000000071
  0
VERTEX
  5
3A7
  8
LAYER_01
 10
225.0
 20
50.65555555555555
 30
0.0
  0
VERTEX
  5
3A8
  8
LAYER_01
 10
223.1
 20
50.65555555555537
 30
0.0
  0
VERTEX
  5
3A9
  8
LAYER_01
 10
223.1
 20
63.00000000000001
 30
0.0
 42
1.000000000000071
  0
VERTEX
  5
3AA
  8
LAYER_01
 10
223.0
 20
63.09999999999998
 30
0.0
  0
VERTEX
  5
3AB
  8
LAYER_01
 10
210.6555555555556
 20
63.09999999999999
 30
0.0
  0
VERTEX
  5
3AC
  8
LAYER_01
 10
210.6555555555556
 20
65.00000000000001
 30
0.0
 42
1.000000000000426
  0
VERTEX
  5
3AD
  8
LAYER_01
 10
210.5555555555556
 20
65.1
 30
0.0
  0
VERTEX
  5
3AE
  8
LAYER_01
 10
196.1111111111111
 20
65.10000000000004
 30
0.0
 42
0.9999999999999999
  0
VERTEX
  5
3AF
  8
LAYER_01
 10
196.0111111111111
 20
65.0
 30
0.0
  0
VERTEX
  5
3B0
  8
LAYER_01
 10
196.0111111111113
 20
63.09999999999999
 30
0.0
  0
VERTEX
  5
3B1
  8
LAYER_01
 10
181.7666666666665
 20
63.09999999999999
 30
0.0
  0
VERTEX
  5
3B2
  8
LAYER_01
 10
181.7666666666667
 20
65.00000000000003
 30
0.0
 42
1.000000000000426
  0
VERTEX
  5
3B3
  8
LAYER_01
 10
181.6666666666667
 20
65.09999999999997
 30
0.0
  0
VERTEX
  5
3B4
  8
LAYER_01
 10
167.2222222222222
 20
65.1
 30
0.0
 42
1.000000000000568
  0
VERTEX
  5
3B5
  8
LAYER_01
 10
167.1222222222222
 20
64.99999999999997
 30
0.0
  0
VERTEX
  5
3B6
  8
LAYER_01
 10
167.1222222222222
 20
63.09999999999999
 30
0.0
  0
VERTEX
  5
3B7
  8
LAYER_01
 10
152.8777777777778
 20
63.09999999999999
 30
0.0
  0
VERTEX
  5
3B8
  8
LAYER_01
 10
152.8777777777778
 20
65.0
 30
0.0
 42
1.000000000000284
  0
VERTEX
  5
3B9
  8
LAYER_01
 10
152.7777777777778
 20
65.09999999999997
 30
0.0
  0
VERTEX
  5
3BA
  8
LAYER_01
 10
138.3333333333333
 20
65.1
 30
0.0
 42
1.000000000000568
  0
VERTEX
  5
3BB
  8
LAYER_01
 10
138.2333333333333
 20
64.99999999999997
 30
0.0
  0
VERTEX
  5
3BC
  8
LAYER_01
 10
138.2333333333333
 20
63.09999999999999
 30
0.0
  0
VERTEX
  5
3BD
  8
LAYER_01
 10
123.9888888888889
 20
63.09999999999999
 30
0.0
  0
VERTEX
  5
3BE
  8
LAYER_01
 10
123.9888888888889
 20
65.0
 30
0.0
 42
0.9999999999999999
  0
VERTEX
  5
3BF
  8
LAYER_01
 10
123.8888888888889
 20
65.1
 30
0.0
  0
VERTEX
  5
3C0
  8
LAYER_01
 10
109.4444444444445
 20
65.10000000000002
 30
0.0
 42
1.000000000000284
  0
VERTEX
  5
3C1
  8
LAYER_01
 10
109.3444444444444
 20
65.00000000000001
 30
0.0
  0
VERTEX
  5
3C2
  8
LAYER_01
 10
109.3444444444444
 20
63.09999999999999
 30
0.0
  0
VERTEX
  5
3C3
  8
LAYER_01
 10
97.0
 20
63.09999999999999
 30
0.0
 42
0.9999999999999999
  0
VERTEX
  5
3C4
  8
LAYER_01
 10
96.9
 20
63.0
 30
0.0
  0
VERTEX
  5
3C5
  8
LAYER_01
 10
96.9
 20
50.65555555555562
 30
0.0
  0
VERTEX
  5
3C6
  8
LAYER_01
 10
95.0
 20
50.65555555555555
 30
0.0
 42
0.9999999999999999
  0
VERTEX
  5
3C7
  8
LAYER_01
 10
94.9
 20
50.55555555555556
 30
0.0
  0
VERTEX
  5
3C8
  8
LAYER_01
 10
94.9
 20
36.11111111111111
 30
0.0
 42
0.9999999999999999
  0
VERTEX
  5
3C9
  8
LAYER_01
 10
95.0
 20
36.01111111111112
 30
0.0
  0
VERTEX
  5
3CA
  8
LAYER_01
 10
96.9
 20
36.01111111111106
 30
0.0
  0
VERTEX
  5
3CB
  8
LAYER_01
 10
96.9
 20
21.76666666666674
 30
0.0
  0
VERTEX
  5
3CC
  8
LAYER_01
 10
94.99999999999999
 20
21.76666666666665
 30
0.0
 42
1.000000000000213
  0
VERTEX
  5
3CD
  8
LAYER_01
 10
94.9
 20
21.66666666666667
 30
0.0
  0
VERTEX
  5
3CE
  8
LAYER_01
 10
94.90000000000002
 20
7.222222222222214
 30
0.0
 42
0.9999999999997867
  0
VERTEX
  5
3CF
  8
LAYER_01
 10
95.0
 20
7.122222222222234
 30
0.0
  0
VERTEX
  5
3D0
  8
LAYER_01
 10
96.9
 20
7.122222222221637
 30
0.0
  0
VERTEX
  5
3D1
  8
LAYER_01
 10
96.9
 20
-7.122222222222163
 30
0.0
  0
VERTEX
  5
3D2
  8
LAYER_01
 10
95.0
 20
-7.12222222222223
 30
0.0
 42
0.9999999999999468
  0
VERTEX
  5
3D3
  8
LAYER_01
 10
94.9
 20
-7.222222222222232
 30
0.0
  0
VERTEX
  5
3D4
  8
LAYER_01
 10
94.9
 20
-21.66666666666667
 30
0.0
 42
0.9999999999999644
  0
VERTEX
  5
3D5
  8
LAYER_01
 10
95.0
 20
-21.76666666666667
 30
0.0
  0
VERTEX
  5
3D6
  8
LAYER_01
 10
96.9
 20
-21.76666666666674
 30
0.0
  0
VERTEX
  5
3D7
  8
LAYER_01
 10
96.9
 20
-36.01111111111106
 30
0.0
  0
VERTEX
  5
3D8
  8
LAYER_01
 10
95.0
 20
-36.01111111111113
 30
0.0
 42
0.9999999999999999
  0
VERTEX
  5
3D9
  8
LAYER_01
 10
94.9
 20
-36.11111111111113
 30
0.0
  0
VERTEX
  5
3DA
  8
LAYER_01
 10
94.9
 20
-50.55555555555557
 30
0.0
 42
0.9999999999999999
  0
VERTEX
  5
3DB
  8
LAYER_01
 10
95.0
 20
-50.65555555555557
 30
0.0
  0
VERTEX
  5
3DC
  8
LAYER_01
 10
96.9
 20
-50.65555555555564
 30
0.0
  0
VERTEX
  5
3DD
  8
LAYER_01
 10
96.89999999999999
 20
-63.0
 30
0.0
 42
0.9999999999999999
  0
SEQEND
  5
3DE
  8
LAYER_01
  0
CIRCLE
  5
3DF
  8
LAYER_01
 10
179.0
 20
-19.0
 30
0.0
 40
1.900000000000006
  0
CIRCLE
  5
3E0
  8
LAYER_01
 10
179.0
 20
18.99999999999999
 30
0.0
 40
1.900000000000006
  0
CIRCLE
  5
3E1
  8
LAYER_01
 10
141.0
 20
-19.00000000000001
 30
0.0
 40
1.900000000000006
  0
CIRCLE
  5
3E2
  8
LAYER_01
 10
141.0
 20
18.99999999999999
 30
0.0
 40
1.900000000000006
  0
CIRCLE
  5
3E3
  8
LAYER_01
 10
160.0
 20
0.0
 30
0.0
 40
21.40000000000001
  0
ENDSEC
  0
EOF
