0
SECTION
2
HEADER
9
$INSUNITS
70
4
9
$ACADVER
1
AC1014
9
$HANDSEED
5
FFFF
0
ENDSEC
0
SECTION
2
TABLES
0
TABLE
2
VPORT
5
8
100
AcDbSymbolTable
0
ENDTAB
0
TABLE
2
LTYPE
5
5
100
AcDbSymbolTable
0
LTYPE
5
14
100
AcDbSymbolTableRecord
100
AcDbLinetypeTableRecord
2
BYBLOCK
70
0
0
LTYPE
5
15
100
AcDbSymbolTableRecord
100
AcDbLinetypeTableRecord
2
BYLAYER
70
0
0
ENDTAB
0
TABLE
2
LAYER
5
2
100
AcDbSymbolTable
70
2
0
LAYER
5
50
100
AcDbSymbolTableRecord
100
AcDbLayerTableRecord
2
0
70
0
6
CONTINUOUS
0
ENDTAB
0
TABLE
2
STYLE
5
3
100
AcDbSymbolTable
70
1
0
STYLE
5
11
100
AcDbSymbolTableRecord
100
AcDbTextStyleTableRecord
2
STANDARD
70
0
0
ENDTAB
0
TABLE
2
VIEW
5
6
100
AcDbSymbolTable
70
0
0
ENDTAB
0
TABLE
2
UCS
5
7
100
AcDbSymbolTable
70
0
0
ENDTAB
0
TABLE
2
APPID
5
9
100
AcDbSymbolTable
70
2
0
APPID
5
12
100
AcDbSymbolTableRecord
100
AcDbRegAppTableRecord
2
ACAD
70
0
0
ENDTAB
0
TABLE
2
DIMSTYLE
5
A
100
AcDbSymbolTable
70
1
0
ENDTAB
0
TABLE
2
BLOCK_RECORD
5
1
100
AcDbSymbolTable
70
1
0
BLOCK_RECORD
5
1F
100
AcDbSymbolTableRecord
100
AcDbBlockTableRecord
2
*MODEL_SPACE
0
BLOCK_RECORD
5
1B
100
AcDbSymbolTableRecord
100
AcDbBlockTableRecord
2
*PAPER_SPACE
0
ENDTAB
0
ENDSEC
0
SECTION
2
BLOCKS
0
BLOCK
5
20
100
AcDbEntity
100
AcDbBlockBegin
2
*MODEL_SPACE
0
ENDBLK
5
21
100
AcDbEntity
100
AcDbBlockEnd
0
BLOCK
5
1C
100
AcDbEntity
100
AcDbBlockBegin
2
*PAPER_SPACE
0
ENDBLK
5
1D
100
AcDbEntity
100
AcDbBlockEnd
0
ENDSEC
0
SECTION
2
ENTITIES
0
LINE
5
100
100
AcDbEntity
8
0
100
AcDbLine
10
-735.13683080055205
20
290.09171335120197
30
0
11
-752.58454936188343
21
275.24371844114091
31
0
0
SPLINE
5
101
100
AcDbEntity
8
0
100
AcDbSpline
70
12
71
2
41
1
41
3.0000000000000018
41
1
72
6
73
3
74
0
42
0.000000001
43
0.0000000001
44
0.0000000001
40
0
40
0
40
0
40
37.886768390459537
40
37.886768390459537
40
37.886768390459537
10
-675.77565469855233
20
628.85151575023156
30
0
10
-816.34460076487824
20
708.90447669100229
30
0
10
-850.5175902196022
20
940.22341336502268
30
0
0
SPLINE
5
102
100
AcDbEntity
8
0
100
AcDbSpline
70
12
71
2
41
1
41
2.9999999999999751
41
1
72
6
73
3
74
0
42
0.000000001
43
0.0000000001
44
0.0000000001
40
0
40
0
40
0
40
17.286318167423996
40
17.286318167423996
40
17.286318167423996
10
-850.5175902196022
20
940.22341336502268
30
0
10
-770.51759021960197
20
950.22341336502245
30
0
10
-690.77565469855301
20
1000.0238209514849
30
0
0
LINE
5
103
100
AcDbEntity
8
0
100
AcDbLine
10
-690.77565469855301
20
1000.0238209514849
30
0
11
-690.77565469855301
21
750.02382095148505
31
0
0
LINE
5
104
100
AcDbEntity
8
0
100
AcDbLine
10
-660.77565469855153
20
1000.0238209514849
30
0
11
-660.77565469855153
21
750.02382095148505
31
0
0
SPLINE
5
105
100
AcDbEntity
8
0
100
AcDbSpline
70
12
71
2
41
1
41
2.9999999999999751
41
1
72
6
73
3
74
0
42
0.000000001
43
0.0000000001
44
0.0000000001
40
0
40
0
40
0
40
17.286318167424007
40
17.286318167424007
40
17.286318167424007
10
-501.03371917750235
20
940.22341336502245
30
0
10
-581.03371917750246
20
950.22341336502234
30
0
10
-660.77565469855153
20
1000.0238209514849
30
0
0
SPLINE
5
106
100
AcDbEntity
8
0
100
AcDbSpline
70
12
71
2
41
1
41
3.0000000000000018
41
1
72
6
73
3
74
0
42
0.000000001
43
0.0000000001
44
0.0000000001
40
0
40
0
40
0
40
37.886768390459537
40
37.886768390459537
40
37.886768390459537
10
-675.77565469855233
20
628.85151575023156
30
0
10
-535.20670863222631
20
708.90447669100217
30
0
10
-501.03371917750235
20
940.22341336502245
30
0
0
SPLINE
5
107
100
AcDbEntity
8
0
100
AcDbSpline
70
12
71
2
41
1
41
2.9999999999999751
41
1
72
6
73
3
74
0
42
0.000000001
43
0.0000000001
44
0.0000000001
40
0
40
0
40
0
40
17.28631816742395
40
17.28631816742395
40
17.28631816742395
10
-468.19260514919006
20
933.92999797291532
30
0
10
-388.19260514919006
20
943.92999797291509
30
0
10
-308.45066962814138
20
993.73040555937746
30
0
0
SPLINE
5
108
100
AcDbEntity
8
0
100
AcDbSpline
70
12
71
2
41
1
41
3.0000000000000018
41
1
72
6
73
3
74
0
42
0.000000001
43
0.0000000001
44
0.0000000001
40
0
40
0
40
0
40
37.886768390459409
40
37.886768390459409
40
37.886768390459409
10
-293.45066962814082
20
622.55810035812533
30
0
10
-434.01961569446627
20
702.61106129889583
30
0
10
-468.19260514919006
20
933.92999797291532
30
0
0
LINE
5
109
100
AcDbEntity
8
0
100
AcDbLine
10
-308.45066962814138
20
993.73040555937746
30
0
11
-308.45066962814138
21
868.73040555937769
31
0
0
SPLINE
5
110
100
AcDbEntity
8
0
100
AcDbSpline
70
12
71
2
41
1
41
2.9999999999999751
41
1
72
6
73
3
74
0
42
0.000000001
43
0.0000000001
44
0.0000000001
40
0
40
0
40
0
40
17.286318167423943
40
17.286318167423943
40
17.286318167423943
10
-118.70873410709144
20
933.92999797291532
30
0
10
-198.70873410709137
20
943.92999797291509
30
0
10
-278.45066962814008
20
993.73040555937746
30
0
0
LINE
5
111
100
AcDbEntity
8
0
100
AcDbLine
10
-278.45066962814008
20
993.73040555937746
30
0
11
-278.45066962814019
21
868.73040555937769
31
0
0
SPLINE
5
112
100
AcDbEntity
8
0
100
AcDbSpline
70
12
71
2
41
1
41
3.0000000000000018
41
1
72
6
73
3
74
0
42
0.000000001
43
0.0000000001
44
0.0000000001
40
0
40
0
40
0
40
37.886768390459423
40
37.886768390459423
40
37.886768390459423
10
-293.45066962814082
20
622.55810035812533
30
0
10
-152.88172356181531
20
702.61106129889572
30
0
10
-118.70873410709144
20
933.92999797291532
30
0
0
LINE
5
113
100
AcDbEntity
8
0
100
AcDbLine
10
-308.45066962814138
20
868.73040555937769
30
0
11
-278.45066962814019
21
868.73040555937769
31
0
0
LINE
5
114
100
AcDbEntity
8
0
100
AcDbLine
10
-660.77565469855153
20
750.02382095148505
30
0
11
-690.77565469855301
21
750.02382095148505
31
0
0
LINE
5
115
100
AcDbEntity
8
0
100
AcDbLine
10
-761.05519398818262
20
486.59223216557859
30
0
11
-746.0551939882962
21
486.59229052556702
31
0
0
SPLINE
5
116
100
AcDbEntity
8
0
100
AcDbSpline
70
12
71
2
41
1
41
3.0000000000000711
41
1
72
6
73
3
74
0
42
0.000000001
43
0.0000000001
44
0.0000000001
40
0
40
0
40
0
40
2.7234361785715859
40
2.7234361785715859
40
2.7234361785715859
10
-520.13706777866958
20
448.93164659671726
30
0
10
-537.35351307909491
20
448.07065526440363
30
0
10
-547.35351307909491
20
448.07065526440351
30
0
0
LINE
5
117
100
AcDbEntity
8
0
100
AcDbLine
10
-761.05519398818262
20
486.59223216557859
30
0
11
-745.95519398829697
21
486.59229091463345
31
0
0
SPLINE
5
118
100
AcDbEntity
8
0
100
AcDbSpline
70
12
71
2
41
1
41
3.0000000000000373
41
1
72
6
73
3
74
0
42
0.000000001
43
0.0000000001
44
0.0000000001
40
0
40
0
40
0
40
8.8452750822809172
40
8.8452750822809172
40
8.8452750822809172
10
-576.26243295658867
20
543.07065526440351
30
0
10
-537.35351307909502
20
518.07065526440351
30
0
10
-507.35351307909497
20
488.07065526440351
30
0
0
SPLINE
5
119
100
AcDbEntity
8
0
100
AcDbSpline
70
12
71
2
41
1
41
3.0000000000000231
41
1
72
6
73
3
74
0
42
0.000000001
43
0.0000000001
44
0.0000000001
40
0
40
0
40
0
40
10.5685431208629
40
10.5685431208629
40
10.5685431208629
10
-677.35351307909491
20
568.07065526440351
30
0
10
-627.35351307909491
20
568.07065526440351
30
0
10
-576.26243295658867
20
543.07065526440351
30
0
0
LINE
5
120
100
AcDbEntity
8
0
100
AcDbLine
10
-776.15568032130398
20
611.59217341746989
30
0
11
-761.05568032141832
21
611.59223216652481
31
0
0
SPLINE
5
121
100
AcDbEntity
8
0
100
AcDbSpline
70
12
71
2
41
1
41
3.0000000000000231
41
1
72
6
73
3
74
0
42
0.000000001
43
0.0000000001
44
0.0000000001
40
0
40
0
40
0
40
10.5685431208629
40
10.5685431208629
40
10.5685431208629
10
-677.35351307909491
20
568.07065526440351
30
0
10
-627.35351307909491
20
568.07065526440351
30
0
10
-576.26243295658867
20
543.07065526440351
30
0
0
LINE
5
122
100
AcDbEntity
8
0
100
AcDbLine
10
-776.05568032130464
20
611.59217380653661
30
0
11
-761.05568032141832
21
611.59223216652481
31
0
0
SPLINE
5
123
100
AcDbEntity
8
0
100
AcDbSpline
70
12
71
2
41
1
41
3.0000000000000071
41
1
72
6
73
3
74
0
42
0.000000001
43
0.0000000001
44
0.0000000001
40
0
40
0
40
0
40
10.991009360090278
40
10.991009360090278
40
10.991009360090278
10
-745.95470765506161
20
361.5922909155795
30
0
10
-707.48701521235432
20
361.5922909155795
30
0
10
-657.35351307909491
20
418.07065526440351
30
0
0
SPLINE
5
124
100
AcDbEntity
8
0
100
AcDbSpline
70
12
71
2
41
1
41
2.9999999999999787
41
1
72
6
73
3
74
0
42
0.000000001
43
0.0000000001
44
0.0000000001
40
0
40
0
40
0
40
4.6353282256591788
40
4.6353282256591788
40
4.6353282256591788
10
-507.35351307909497
20
488.07065526440351
30
0
10
-497.35351307909497
20
478.07065526440351
30
0
10
-520.13706777866958
20
448.93164659671726
30
0
0
LINE
5
125
100
AcDbEntity
8
0
100
AcDbLine
10
-761.05568032141832
20
611.59223216652481
30
0
11
-707.35351307909491
21
568.07065526440351
31
0
0
LINE
5
126
100
AcDbEntity
8
0
100
AcDbLine
10
-627.35351307909491
20
408.07065526440351
30
0
11
-657.35351307909491
21
418.07065526440351
31
0
0
LINE
5
127
100
AcDbEntity
8
0
100
AcDbLine
10
-677.35351307909491
20
518.07065526440351
30
0
11
-677.35351307909491
21
568.07065526440351
31
0
0
LINE
5
128
100
AcDbEntity
8
0
100
AcDbLine
10
-707.35351307909491
20
518.07065526440351
30
0
11
-677.35351307909491
21
518.07065526440351
31
0
0
LINE
5
129
100
AcDbEntity
8
0
100
AcDbLine
10
-707.35351307909491
20
568.07065526440351
30
0
11
-707.35351307909491
21
518.07065526440351
31
0
0
LINE
5
130
100
AcDbEntity
8
0
100
AcDbLine
10
-707.35351307909491
20
518.07065526440351
30
0
11
-677.35351307909491
21
518.07065526440351
31
0
0
LINE
5
131
100
AcDbEntity
8
0
100
AcDbLine
10
-677.35351307909491
20
518.07065526440351
30
0
11
-677.35351307909491
21
568.07065526440351
31
0
0
SPLINE
5
132
100
AcDbEntity
8
0
100
AcDbSpline
70
12
71
2
41
1
41
3.0000000000000373
41
1
72
6
73
3
74
0
42
0.000000001
43
0.0000000001
44
0.0000000001
40
0
40
0
40
0
40
8.8452750822809172
40
8.8452750822809172
40
8.8452750822809172
10
-576.26243295658867
20
543.07065526440351
30
0
10
-537.35351307909502
20
518.07065526440351
30
0
10
-507.35351307909497
20
488.07065526440351
30
0
0
SPLINE
5
133
100
AcDbEntity
8
0
100
AcDbSpline
70
12
71
2
41
1
41
3
41
1
72
6
73
3
74
0
42
0.000000001
43
0.0000000001
44
0.0000000001
40
0
40
0
40
0
40
8.9707216693210672
40
8.9707216693210672
40
8.9707216693210672
10
-547.35351307909491
20
448.07065526440351
30
0
10
-597.35351307909491
20
418.07065526440351
30
0
10
-627.35351307909491
20
408.07065526440351
30
0
0
LINE
5
134
100
AcDbEntity
8
0
100
AcDbLine
10
-761.05568032141832
20
611.59223216652481
30
0
11
-707.35351307909491
21
568.07065526440351
31
0
0
LINE
5
135
100
AcDbEntity
8
0
100
AcDbLine
10
-707.35351307909491
20
568.07065526440351
30
0
11
-707.35351307909491
21
518.07065526440351
31
0
0
SPLINE
5
136
100
AcDbEntity
8
0
100
AcDbSpline
70
12
71
2
41
1
41
3
41
1
72
6
73
3
74
0
42
0.000000001
43
0.0000000001
44
0.0000000001
40
0
40
0
40
0
40
8.9707216693210672
40
8.9707216693210672
40
8.9707216693210672
10
-547.35351307909491
20
448.07065526440351
30
0
10
-597.35351307909491
20
418.07065526440351
30
0
10
-627.35351307909491
20
408.07065526440351
30
0
0
LINE
5
137
100
AcDbEntity
8
0
100
AcDbLine
10
-627.35351307909491
20
408.07065526440351
30
0
11
-657.35351307909491
21
418.07065526440351
31
0
0
SPLINE
5
138
100
AcDbEntity
8
0
100
AcDbSpline
70
12
71
2
41
1
41
3.0000000000000071
41
1
72
6
73
3
74
0
42
0.000000001
43
0.0000000001
44
0.0000000001
40
0
40
0
40
0
40
10.997629184700566
40
10.997629184700566
40
10.997629184700566
10
-746.02443592057375
20
361.59229064301371
30
0
10
-707.48701521235432
20
361.5922909155795
30
0
10
-657.35351307909491
20
418.07065526440351
30
0
0
LINE
5
139
100
AcDbEntity
8
0
100
AcDbLine
10
-735.13683080055205
20
263.37319822030071
30
0
11
-735.13683080055205
21
290.09171335120197
31
0
0
SPLINE
5
140
100
AcDbEntity
8
0
100
AcDbSpline
70
12
71
2
41
1
41
3.0000000000000071
41
1
72
6
73
3
74
0
42
0.000000001
43
0.0000000001
44
0.0000000001
40
0
40
0
40
0
40
5.5935892739315713
40
5.5935892739315713
40
5.5935892739315713
10
-702.22496126272051
20
173.42158583182879
30
0
10
-692.22496126272051
20
153.42158583182879
30
0
10
-663.86739343085014
20
134.04124256437194
30
0
0
LINE
5
141
100
AcDbEntity
8
0
100
AcDbLine
10
-735.13683080055205
20
263.37319822030071
30
0
11
-720.13683080055205
21
263.37319822030071
31
0
0
LINE
5
142
100
AcDbEntity
8
0
100
AcDbLine
10
-691.3239728432967
20
297.52878144665488
30
0
11
-720.13683080055205
21
293.37319822030071
31
0
0
SPLINE
5
143
100
AcDbEntity
8
0
100
AcDbSpline
70
12
71
2
41
1
41
2.9999999999999929
41
1
72
6
73
3
74
0
42
0.000000001
43
0.0000000001
44
0.0000000001
40
0
40
0
40
0
40
4.5332897015977611
40
4.5332897015977611
40
4.5332897015977611
10
-702.22496126272051
20
173.42158583182879
30
0
10
-705.94306109311356
20
208.9972622310826
30
0
10
-716.08328342226355
20
214.56066894838676
30
0
0
SPLINE
5
144
100
AcDbEntity
8
0
100
AcDbSpline
70
12
71
2
41
1
41
3.0000000000000284
41
1
72
6
73
3
74
0
42
0.000000001
43
0.0000000001
44
0.0000000001
40
0
40
0
40
0
40
6.0033648236135564
40
6.0033648236135564
40
6.0033648236135564
10
-759.89655807189888
20
249.68309473705051
30
0
10
-717.17938843605702
20
232.00708086870765
30
0
10
-716.08328342226355
20
214.56066894838676
30
0
0
LINE
5
145
100
AcDbEntity
8
0
100
AcDbLine
10
-735.13683080055205
20
263.37319822030071
30
0
11
-735.13683080055205
21
284.52601113775421
31
0
0
LINE
5
146
100
AcDbEntity
8
0
100
AcDbLine
10
-735.13683080055205
20
263.37319822030071
30
0
11
-720.13683080055205
21
263.37319822030071
31
0
0
SPLINE
5
147
100
AcDbEntity
8
0
100
AcDbSpline
70
1064
71
2
72
6
73
3
74
0
42
0.000000001
43
0.0000000001
44
0.0000000001
40
0
40
0
40
0
40
1.3661651622249884
40
1.3661651622249884
40
1.3661651622249884
10
-795.57460015668642
20
258.92151066336339
30
0
10
-794.85959874405489
20
254.66467576835066
30
0
10
-789.04533650774556
20
247.13484786847317
30
0
0
SPLINE
5
148
100
AcDbEntity
8
0
100
AcDbSpline
70
1064
71
2
72
6
73
3
74
0
42
0.000000001
43
0.0000000001
44
0.0000000001
40
0
40
0
40
0
40
3.066200702707238
40
3.066200702707238
40
3.066200702707238
10
-789.0453365077617
20
247.13484786849443
30
0
10
-776.60796382018316
20
242.1409782872858
30
0
10
-759.89655807189945
20
249.68309473705065
30
0
0
SPLINE
5
149
100
AcDbEntity
8
0
100
AcDbSpline
70
1064
71
2
72
6
73
3
74
0
42
0.000000001
43
0.0000000001
44
0.0000000001
40
0
40
0
40
0
40
2.5813616522162488
40
2.5813616522162488
40
2.5813616522162488
10
-752.58454936180669
20
275.243718441174
30
0
10
-765.61019314956309
20
269.63774931867238
30
0
10
-776.73132588123644
20
266.17357332372018
30
0
0
SPLINE
5
150
100
AcDbEntity
8
0
100
AcDbSpline
70
1064
71
2
72
6
73
3
74
0
42
0.000000001
43
0.0000000001
44
0.0000000001
40
0
40
0
40
0
40
1.8548582907541309
40
1.8548582907541309
40
1.8548582907541309
10
-776.73132588123678
20
266.17357332372012
30
0
10
-782.1669335240324
20
264.22593525392671
30
0
10
-795.00218735470366
20
263.53139100920805
30
0
0
SPLINE
5
151
100
AcDbEntity
8
0
100
AcDbSpline
70
1064
71
2
72
6
73
3
74
0
42
0.000000001
43
0.0000000001
44
0.0000000001
40
0
40
0
40
0
40
0.72162298754750975
40
0.72162298754750975
40
0.72162298754750975
10
-795.00218735470082
20
263.53139100920805
30
0
10
-798.95818308771663
20
261.53466578288237
30
0
10
-795.57460015668551
20
258.92151066336373
30
0
0
SPLINE
5
152
100
AcDbEntity
8
0
100
AcDbSpline
70
1064
71
2
72
6
73
3
74
0
42
0.000000001
43
0.0000000001
44
0.0000000001
40
0
40
0
40
0
40
1.3661651622249884
40
1.3661651622249884
40
1.3661651622249884
10
-795.57460015668664
20
258.92151066336379
30
0
10
-794.85959874405512
20
254.66467576835106
30
0
10
-789.04533650774647
20
247.13484786847329
30
0
0
LINE
5
153
100
AcDbEntity
8
0
100
AcDbLine
10
-609.25959690337822
20
394.59558874298745
30
0
11
-556.06835851052392
21
388.91200556352112
31
0
0
LINE
5
154
100
AcDbEntity
8
0
100
AcDbLine
10
-594.24210699167918
20
364.14596033257288
30
0
11
-564.24210699167918
21
364.14596033257305
31
0
0
SPLINE
5
155
100
AcDbEntity
8
0
100
AcDbSpline
70
1064
71
5
72
21
73
15
74
0
42
0.000000001
43
0.0000000001
44
0.0000000001
40
0
40
0
40
0
40
0
40
0
40
0
40
0.10000000000000001
40
0.20000000000000001
40
0.30000000000000004
40
0.40000000000000002
40
0.5
40
0.59999999999999998
40
0.69999999999999996
40
0.79999999999999982
40
0.8999999999999998
40
1
40
1
40
1
40
1
40
1
40
1
10
-556.06835851052392
20
388.91200556352112
30
0
10
-555.68360796820775
20
386.79725156285519
30
0
10
-554.77666618424951
20
382.79418391457972
30
0
10
-553.00397170492727
20
377.46883711399084
30
0
10
-549.80189711739183
20
371.74981521346228
30
0
10
-544.3266830372263
20
367.02725355010955
30
0
10
-537.30093932757393
20
364.8592661753363
30
0
10
-528.71348454648944
20
365.26427506798029
30
0
10
-518.67484571075147
20
368.06018149871579
30
0
10
-507.3352980492644
20
372.99939959191011
30
0
10
-494.84584912294201
20
379.83313691871325
30
0
10
-484.03050345689672
20
386.65735584292452
30
0
10
-475.4891608868997
20
392.48369170067582
30
0
10
-469.60700087118192
20
396.67754227497545
30
0
10
-466.6189371366479
20
398.85187557668365
30
0
0
LINE
5
156
100
AcDbEntity
8
0
100
AcDbLine
10
-761.05470765494761
20
361.5922321665247
30
0
11
-776.05470765483403
21
361.59217380653649
31
0
0
LINE
5
157
100
AcDbEntity
8
0
100
AcDbLine
10
-776.05470765483403
20
361.59217380653649
30
0
11
-776.05568032130464
21
611.59217380653661
31
0
0
LINE
5
158
100
AcDbEntity
8
0
100
AcDbLine
10
-663.86739343085014
20
134.04124256437194
30
0
11
-663.86739343085014
21
224.04124256437194
31
0
0
LINE
5
159
100
AcDbEntity
8
0
100
AcDbLine
10
-663.86739343085014
20
224.04124256437194
30
0
11
-648.86739343085014
21
224.04124256437194
31
0
0
SPLINE
5
160
100
AcDbEntity
8
0
100
AcDbSpline
70
12
71
2
41
1
41
2.9999999999999751
41
1
72
6
73
3
74
0
42
0.000000001
43
0.0000000001
44
0.0000000001
40
0
40
0
40
0
40
4.3011883437354594
40
4.3011883437354594
40
4.3011883437354594
10
-691.3239728432967
20
297.52878144665488
30
0
10
-673.95699656502882
20
300.03356300707929
30
0
10
-648.86739343085014
20
294.04124256437194
30
0
0
SPLINE
5
161
100
AcDbEntity
8
0
100
AcDbSpline
70
12
71
2
41
1
41
3.0000000000000071
41
1
72
6
73
3
74
0
42
0.000000001
43
0.0000000001
44
0.0000000001
40
0
40
0
40
0
40
5.5935892739315731
40
5.5935892739315731
40
5.5935892739315731
10
-595.50982559897977
20
173.42158583182879
30
0
10
-605.50982559897977
20
153.42158583182879
30
0
10
-633.86739343085014
20
134.04124256437194
30
0
0
LINE
5
162
100
AcDbEntity
8
0
100
AcDbLine
10
-633.86739343085014
20
224.04124256437194
30
0
11
-648.86739343085014
21
224.04124256437194
31
0
0
LINE
5
163
100
AcDbEntity
8
0
100
AcDbLine
10
-562.59795606114824
20
263.37319822030071
30
0
11
-577.59795606114824
21
263.37319822030071
31
0
0
SPLINE
5
164
100
AcDbEntity
8
0
100
AcDbSpline
70
12
71
2
41
1
41
2.9999999999999929
41
1
72
6
73
3
74
0
42
0.000000001
43
0.0000000001
44
0.0000000001
40
0
40
0
40
0
40
4.5332897015977611
40
4.5332897015977611
40
4.5332897015977611
10
-595.50982559897977
20
173.42158583182879
30
0
10
-591.79172576858662
20
208.9972622310826
30
0
10
-581.65150343943662
20
214.56066894838676
30
0
0
SPLINE
5
165
100
AcDbEntity
8
0
100
AcDbSpline
70
1064
71
2
72
6
73
3
74
0
42
0.000000001
43
0.0000000001
44
0.0000000001
40
0
40
0
40
0
40
3.066200702707238
40
3.066200702707238
40
3.066200702707238
10
-508.68945035393847
20
247.13484786849443
30
0
10
-521.12682304151713
20
242.1409782872858
30
0
10
-537.83822878980072
20
249.68309473705065
30
0
0
LINE
5
166
100
AcDbEntity
8
0
100
AcDbLine
10
-606.41081401840347
20
297.52878144665488
30
0
11
-577.59795606114824
21
293.37319822030071
31
0
0
SPLINE
5
167
100
AcDbEntity
8
0
100
AcDbSpline
70
1064
71
2
72
6
73
3
74
0
42
0.000000001
43
0.0000000001
44
0.0000000001
40
0
40
0
40
0
40
1.3661651622249884
40
1.3661651622249884
40
1.3661651622249884
10
-502.16018670501387
20
258.92151066336339
30
0
10
-502.87518811764528
20
254.66467576835066
30
0
10
-508.68945035395473
20
247.13484786847317
30
0
0
SPLINE
5
168
100
AcDbEntity
8
0
100
AcDbSpline
70
1064
71
2
72
6
73
3
74
0
42
0.000000001
43
0.0000000001
44
0.0000000001
40
0
40
0
40
0
40
0.72162298754750975
40
0.72162298754750975
40
0.72162298754750975
10
-502.73259950699935
20
263.53139100920805
30
0
10
-498.77660377398348
20
261.53466578288237
30
0
10
-502.16018670501467
20
258.92151066336373
30
0
0
LINE
5
169
100
AcDbEntity
8
0
100
AcDbLine
10
-562.59795606114824
20
290.09171335120197
30
0
11
-545.15023749981674
21
275.24371844114091
31
0
0
SPLINE
5
170
100
AcDbEntity
8
0
100
AcDbSpline
70
12
71
2
41
1
41
2.9999999999999751
41
1
72
6
73
3
74
0
42
0.000000001
43
0.0000000001
44
0.0000000001
40
0
40
0
40
0
40
4.3011883437354594
40
4.3011883437354594
40
4.3011883437354594
10
-606.41081401840347
20
297.52878144665488
30
0
10
-623.77779029667136
20
300.03356300707929
30
0
10
-648.86739343085014
20
294.04124256437194
30
0
0
SPLINE
5
171
100
AcDbEntity
8
0
100
AcDbSpline
70
1064
71
2
72
6
73
3
74
0
42
0.000000001
43
0.0000000001
44
0.0000000001
40
0
40
0
40
0
40
2.5813616522162488
40
2.5813616522162488
40
2.5813616522162488
10
-545.15023749989359
20
275.243718441174
30
0
10
-532.12459371213708
20
269.63774931867238
30
0
10
-521.00346098046373
20
266.17357332372018
30
0
0
LINE
5
172
100
AcDbEntity
8
0
100
AcDbLine
10
-562.59795606114824
20
263.37319822030071
30
0
11
-562.59795606114824
21
284.52601113775421
31
0
0
SPLINE
5
173
100
AcDbEntity
8
0
100
AcDbSpline
70
12
71
2
41
1
41
3.0000000000000284
41
1
72
6
73
3
74
0
42
0.000000001
43
0.0000000001
44
0.0000000001
40
0
40
0
40
0
40
6.0033648236135564
40
6.0033648236135564
40
6.0033648236135564
10
-537.83822878980129
20
249.68309473705051
30
0
10
-580.55539842564315
20
232.00708086870765
30
0
10
-581.65150343943662
20
214.56066894838676
30
0
0
LINE
5
174
100
AcDbEntity
8
0
100
AcDbLine
10
-633.86739343085014
20
134.04124256437194
30
0
11
-633.86739343085014
21
224.04124256437194
31
0
0
SPLINE
5
175
100
AcDbEntity
8
0
100
AcDbSpline
70
1064
71
2
72
6
73
3
74
0
42
0.000000001
43
0.0000000001
44
0.0000000001
40
0
40
0
40
0
40
1.3661651622249884
40
1.3661651622249884
40
1.3661651622249884
10
-502.16018670501353
20
258.92151066336379
30
0
10
-502.87518811764517
20
254.66467576835106
30
0
10
-508.6894503539537
20
247.13484786847329
30
0
0
LINE
5
176
100
AcDbEntity
8
0
100
AcDbLine
10
-562.59795606114824
20
263.37319822030071
30
0
11
-562.59795606114824
21
290.09171335120197
31
0
0
SPLINE
5
177
100
AcDbEntity
8
0
100
AcDbSpline
70
1064
71
2
72
6
73
3
74
0
42
0.000000001
43
0.0000000001
44
0.0000000001
40
0
40
0
40
0
40
1.8548582907541309
40
1.8548582907541309
40
1.8548582907541309
10
-521.00346098046339
20
266.17357332372012
30
0
10
-515.56785333766788
20
264.22593525392671
30
0
10
-502.73259950699651
20
263.53139100920805
30
0
0
LINE
5
178
100
AcDbEntity
8
0
100
AcDbLine
10
-562.59795606114824
20
263.37319822030071
30
0
11
-577.59795606114824
21
263.37319822030071
31
0
0
LINE
5
179
100
AcDbEntity
8
0
100
AcDbLine
10
-577.59795606114824
20
263.37319822030071
30
0
11
-577.59795606114824
21
293.37319822030071
31
0
0
LINE
5
180
100
AcDbEntity
8
0
100
AcDbLine
10
-720.13683080055205
20
263.37319822030071
30
0
11
-720.13683080055205
21
293.37319822030071
31
0
0
LINE
5
181
100
AcDbEntity
8
0
100
AcDbLine
10
-308.15471401737557
20
139.90407079381447
30
0
11
-308.15471401737557
21
229.90407079381447
31
0
0
SPLINE
5
182
100
AcDbEntity
8
0
100
AcDbSpline
70
1064
71
2
72
6
73
3
74
0
42
0.000000001
43
0.0000000001
44
0.0000000001
40
0
40
0
40
0
40
1.3661651622249884
40
1.3661651622249884
40
1.3661651622249884
10
-469.86192074321184
20
264.78433889280598
30
0
10
-469.14691933058037
20
260.52750399779319
30
0
10
-463.33265709427098
20
252.99767609791573
30
0
0
SPLINE
5
183
100
AcDbEntity
8
0
100
AcDbSpline
70
1064
71
2
72
6
73
3
74
0
42
0.000000001
43
0.0000000001
44
0.0000000001
40
0
40
0
40
0
40
3.066200702707238
40
3.066200702707238
40
3.066200702707238
10
-182.97677094046392
20
252.99767609793696
30
0
10
-195.41414362804255
20
248.00380651672836
30
0
10
-212.12554937632618
20
255.54592296649321
30
0
0
SPLINE
5
184
100
AcDbEntity
8
0
100
AcDbSpline
70
1064
71
2
72
6
73
3
74
0
42
0.000000001
43
0.0000000001
44
0.0000000001
40
0
40
0
40
0
40
1.8548582907541309
40
1.8548582907541309
40
1.8548582907541309
10
-451.01864646776221
20
272.03640155316265
30
0
10
-456.45425411055783
20
270.08876348336923
30
0
10
-469.28950794122909
20
269.39421923865063
30
0
0
SPLINE
5
185
100
AcDbEntity
8
0
100
AcDbSpline
70
1064
71
2
72
6
73
3
74
0
42
0.000000001
43
0.0000000001
44
0.0000000001
40
0
40
0
40
0
40
0.72162298754750975
40
0.72162298754750975
40
0.72162298754750975
10
-469.28950794122625
20
269.39421923865063
30
0
10
-473.24550367424206
20
267.3974940123249
30
0
10
-469.86192074321093
20
264.78433889280632
30
0
0
SPLINE
5
186
100
AcDbEntity
8
0
100
AcDbSpline
70
1064
71
2
72
6
73
3
74
0
42
0.000000001
43
0.0000000001
44
0.0000000001
40
0
40
0
40
0
40
0.72162298754750975
40
0.72162298754750975
40
0.72162298754750975
10
-177.0199200935248
20
269.39421923865063
30
0
10
-173.06392436050891
20
267.3974940123249
30
0
10
-176.44750729154012
20
264.78433889280632
30
0
0
LINE
5
187
100
AcDbEntity
8
0
100
AcDbLine
10
-394.42415138707747
20
269.23602644974324
30
0
11
-394.42415138707747
21
299.23602644974329
31
0
0
LINE
5
188
100
AcDbEntity
8
0
100
AcDbLine
10
-409.42415138707747
20
269.23602644974324
30
0
11
-409.42415138707747
21
295.95454158064456
31
0
0
SPLINE
5
189
100
AcDbEntity
8
0
100
AcDbSpline
70
12
71
2
41
1
41
2.9999999999999929
41
1
72
6
73
3
74
0
42
0.000000001
43
0.0000000001
44
0.0000000001
40
0
40
0
40
0
40
4.5332897015977611
40
4.5332897015977611
40
4.5332897015977611
10
-376.51228184924594
20
179.28441406127135
30
0
10
-380.23038167963904
20
214.86009046052516
30
0
10
-390.37060400878897
20
220.42349717782935
30
0
0
SPLINE
5
190
100
AcDbEntity
8
0
100
AcDbSpline
70
1064
71
2
72
6
73
3
74
0
42
0.000000001
43
0.0000000001
44
0.0000000001
40
0
40
0
40
0
40
1.3661651622249884
40
1.3661651622249884
40
1.3661651622249884
10
-176.44750729153898
20
264.78433889280632
30
0
10
-177.16250870417056
20
260.52750399779364
30
0
10
-182.97677094047913
20
252.99767609791584
30
0
0
SPLINE
5
191
100
AcDbEntity
8
0
100
AcDbSpline
70
1064
71
2
72
6
73
3
74
0
42
0.000000001
43
0.0000000001
44
0.0000000001
40
0
40
0
40
0
40
1.3661651622249884
40
1.3661651622249884
40
1.3661651622249884
10
-176.44750729153927
20
264.78433889280598
30
0
10
-177.1625087041707
20
260.52750399779319
30
0
10
-182.97677094048012
20
252.99767609791573
30
0
0
LINE
5
192
100
AcDbEntity
8
0
100
AcDbLine
10
-236.88527664767363
20
269.23602644974329
30
0
11
-251.88527664767363
21
269.23602644974329
31
0
0
LINE
5
193
100
AcDbEntity
8
0
100
AcDbLine
10
-236.88527664767363
20
269.23602644974329
30
0
11
-251.88527664767363
21
269.23602644974329
31
0
0
LINE
5
194
100
AcDbEntity
8
0
100
AcDbLine
10
-308.15471401737557
20
229.90407079381447
30
0
11
-323.15471401737557
21
229.90407079381447
31
0
0
LINE
5
195
100
AcDbEntity
8
0
100
AcDbLine
10
-409.42415138707747
20
295.95454158064456
30
0
11
-426.87186994840886
21
281.10654667058344
31
0
0
SPLINE
5
196
100
AcDbEntity
8
0
100
AcDbSpline
70
12
71
2
41
1
41
2.9999999999999751
41
1
72
6
73
3
74
0
42
0.000000001
43
0.0000000001
44
0.0000000001
40
0
40
0
40
0
40
4.3011883437354594
40
4.3011883437354594
40
4.3011883437354594
10
-365.61129342982213
20
303.39160967609746
30
0
10
-348.24431715155424
20
305.89639123652182
30
0
10
-323.15471401737557
20
299.90407079381447
30
0
0
LINE
5
197
100
AcDbEntity
8
0
100
AcDbLine
10
-409.42415138707747
20
269.23602644974324
30
0
11
-394.42415138707747
21
269.23602644974324
31
0
0
LINE
5
198
100
AcDbEntity
8
0
100
AcDbLine
10
-236.88527664767363
20
269.23602644974329
30
0
11
-236.88527664767363
21
290.38883936719674
31
0
0
SPLINE
5
199
100
AcDbEntity
8
0
100
AcDbSpline
70
12
71
2
41
1
41
3.0000000000000284
41
1
72
6
73
3
74
0
42
0.000000001
43
0.0000000001
44
0.0000000001
40
0
40
0
40
0
40
6.0033648236135528
40
6.0033648236135528
40
6.0033648236135528
10
-434.18387865842431
20
255.54592296649307
30
0
10
-391.46670902258251
20
237.8699090981502
30
0
10
-390.37060400878897
20
220.42349717782935
30
0
0
SPLINE
5
200
100
AcDbEntity
8
0
100
AcDbSpline
70
12
71
2
41
1
41
3.0000000000000071
41
1
72
6
73
3
74
0
42
0.000000001
43
0.0000000001
44
0.0000000001
40
0
40
0
40
0
40
5.5935892739315731
40
5.5935892739315731
40
5.5935892739315731
10
-269.7971461855052
20
179.28441406127135
30
0
10
-279.7971461855052
20
159.28441406127135
30
0
10
-308.15471401737557
20
139.90407079381447
30
0
0
LINE
5
201
100
AcDbEntity
8
0
100
AcDbLine
10
-236.88527664767363
20
295.95454158064456
30
0
11
-219.43755808634222
21
281.10654667058344
31
0
0
LINE
5
202
100
AcDbEntity
8
0
100
AcDbLine
10
-236.88527664767363
20
269.23602644974329
30
0
11
-236.88527664767363
21
295.95454158064456
31
0
0
SPLINE
5
203
100
AcDbEntity
8
0
100
AcDbSpline
70
12
71
2
41
1
41
2.9999999999999751
41
1
72
6
73
3
74
0
42
0.000000001
43
0.0000000001
44
0.0000000001
40
0
40
0
40
0
40
4.3011883437354594
40
4.3011883437354594
40
4.3011883437354594
10
-280.69813460492895
20
303.39160967609746
30
0
10
-298.06511088319678
20
305.89639123652182
30
0
10
-323.15471401737557
20
299.90407079381447
30
0
0
SPLINE
5
204
100
AcDbEntity
8
0
100
AcDbSpline
70
1064
71
2
72
6
73
3
74
0
42
0.000000001
43
0.0000000001
44
0.0000000001
40
0
40
0
40
0
40
2.5813616522162488
40
2.5813616522162488
40
2.5813616522162488
10
-426.87186994833212
20
281.10654667061658
30
0
10
-439.89751373608851
20
275.50057754811496
30
0
10
-451.01864646776193
20
272.03640155316276
30
0
0
SPLINE
5
205
100
AcDbEntity
8
0
100
AcDbSpline
70
1064
71
2
72
6
73
3
74
0
42
0.000000001
43
0.0000000001
44
0.0000000001
40
0
40
0
40
0
40
2.5813616522162488
40
2.5813616522162488
40
2.5813616522162488
10
-219.43755808641896
20
281.10654667061658
30
0
10
-206.41191429866254
20
275.50057754811496
30
0
10
-195.29078156698915
20
272.03640155316276
30
0
0
LINE
5
206
100
AcDbEntity
8
0
100
AcDbLine
10
-409.42415138707747
20
269.23602644974324
30
0
11
-394.42415138707747
21
269.23602644974324
31
0
0
LINE
5
207
100
AcDbEntity
8
0
100
AcDbLine
10
-338.15471401737557
20
139.90407079381447
30
0
11
-338.15471401737557
21
229.90407079381447
31
0
0
SPLINE
5
208
100
AcDbEntity
8
0
100
AcDbSpline
70
12
71
2
41
1
41
3.0000000000000071
41
1
72
6
73
3
74
0
42
0.000000001
43
0.0000000001
44
0.0000000001
40
0
40
0
40
0
40
5.5935892739315731
40
5.5935892739315731
40
5.5935892739315731
10
-376.51228184924594
20
179.28441406127135
30
0
10
-366.51228184924594
20
159.28441406127135
30
0
10
-338.15471401737557
20
139.90407079381447
30
0
0
LINE
5
209
100
AcDbEntity
8
0
100
AcDbLine
10
-338.15471401737557
20
229.90407079381447
30
0
11
-323.15471401737557
21
229.90407079381447
31
0
0
SPLINE
5
210
100
AcDbEntity
8
0
100
AcDbSpline
70
12
71
2
41
1
41
2.9999999999999929
41
1
72
6
73
3
74
0
42
0.000000001
43
0.0000000001
44
0.0000000001
40
0
40
0
40
0
40
4.5332897015977611
40
4.5332897015977611
40
4.5332897015977611
10
-269.7971461855052
20
179.28441406127135
30
0
10
-266.07904635511204
20
214.86009046052516
30
0
10
-255.93882402596208
20
220.42349717782935
30
0
0
LINE
5
211
100
AcDbEntity
8
0
100
AcDbLine
10
-409.42415138707747
20
269.23602644974324
30
0
11
-409.42415138707747
21
290.38883936719674
31
0
0
SPLINE
5
212
100
AcDbEntity
8
0
100
AcDbSpline
70
1064
71
2
72
6
73
3
74
0
42
0.000000001
43
0.0000000001
44
0.0000000001
40
0
40
0
40
0
40
3.066200702707238
40
3.066200702707238
40
3.066200702707238
10
-463.33265709428713
20
252.99767609793696
30
0
10
-450.8952844067087
20
248.00380651672836
30
0
10
-434.18387865842487
20
255.54592296649321
30
0
0
LINE
5
213
100
AcDbEntity
8
0
100
AcDbLine
10
-251.88527664767363
20
269.23602644974329
30
0
11
-251.88527664767363
21
299.23602644974329
31
0
0
SPLINE
5
214
100
AcDbEntity
8
0
100
AcDbSpline
70
12
71
2
41
1
41
3.0000000000000284
41
1
72
6
73
3
74
0
42
0.000000001
43
0.0000000001
44
0.0000000001
40
0
40
0
40
0
40
6.0033648236135528
40
6.0033648236135528
40
6.0033648236135528
10
-212.12554937632675
20
255.54592296649307
30
0
10
-254.84271901216857
20
237.8699090981502
30
0
10
-255.93882402596208
20
220.42349717782935
30
0
0
LINE
5
215
100
AcDbEntity
8
0
100
AcDbLine
10
-365.61129342982213
20
303.39160967609746
30
0
11
-394.42415138707747
21
299.23602644974329
31
0
0
LINE
5
216
100
AcDbEntity
8
0
100
AcDbLine
10
-280.69813460492895
20
303.39160967609746
30
0
11
-251.88527664767363
21
299.23602644974329
31
0
0
SPLINE
5
217
100
AcDbEntity
8
0
100
AcDbSpline
70
1064
71
2
72
6
73
3
74
0
42
0.000000001
43
0.0000000001
44
0.0000000001
40
0
40
0
40
0
40
1.3661651622249884
40
1.3661651622249884
40
1.3661651622249884
10
-469.86192074321207
20
264.78433889280632
30
0
10
-469.1469193305806
20
260.52750399779364
30
0
10
-463.33265709427195
20
252.99767609791584
30
0
0
SPLINE
5
218
100
AcDbEntity
8
0
100
AcDbSpline
70
1064
71
2
72
6
73
3
74
0
42
0.000000001
43
0.0000000001
44
0.0000000001
40
0
40
0
40
0
40
1.8548582907541309
40
1.8548582907541309
40
1.8548582907541309
10
-195.29078156698887
20
272.03640155316265
30
0
10
-189.85517392419325
20
270.08876348336923
30
0
10
-177.01992009352196
20
269.39421923865063
30
0
0
LINE
5
219
100
AcDbEntity
8
0
100
AcDbLine
10
-564.24210699167918
20
364.14596033257305
30
0
11
-564.24210699167907
21
342.31294464054201
31
0
0
LINE
5
220
100
AcDbEntity
8
0
100
AcDbLine
10
-609.25959690337822
20
344.59558874298745
30
0
11
-594.24210699167918
21
344.59558874298745
31
0
0
LINE
5
221
100
AcDbEntity
8
0
100
AcDbLine
10
-594.24210699167918
20
344.59558874298745
30
0
11
-594.24210699167918
21
364.14596033257288
31
0
0
SPLINE
5
222
100
AcDbEntity
8
0
100
AcDbSpline
70
12
71
2
41
1
41
2.9999999999999929
41
1
72
6
73
3
74
0
42
0.000000001
43
0.0000000001
44
0.0000000001
40
0
40
0
40
0
40
11.817843314431205
40
11.817843314431205
40
11.817843314431205
10
-466.61893713706439
20
398.85187557638062
30
0
10
-518.49475250931584
20
342.31294464054201
30
0
10
-564.24210699167907
20
342.31294464054201
30
0
0
LINE
5
223
100
AcDbEntity
8
0
100
AcDbLine
10
-761.05470765494761
20
361.5922321665247
30
0
11
-761.05519398818262
21
486.59223216557859
31
0
0
LINE
5
224
100
AcDbEntity
8
0
100
AcDbLine
10
-746.0551939882962
20
486.59229052556702
30
0
11
-745.95470765506161
21
361.5922909155795
31
0
0
SPLINE
5
225
100
AcDbEntity
8
0
100
AcDbSpline
70
12
71
2
41
1
41
3
41
1
72
6
73
3
74
0
42
0.000000001
43
0.0000000001
44
0.0000000001
40
0
40
0
40
0
40
8.9707216693210672
40
8.9707216693210672
40
8.9707216693210672
10
-211.84335646381882
20
449.23968020034522
30
0
10
-261.84335646381885
20
419.23968020034522
30
0
10
-291.84335646381885
20
409.23968020034522
30
0
0
SPLINE
5
226
100
AcDbEntity
8
0
100
AcDbSpline
70
12
71
2
41
1
41
3.0000000000000231
41
1
72
6
73
3
74
0
42
0.000000001
43
0.0000000001
44
0.0000000001
40
0
40
0
40
0
40
10.568543120862902
40
10.568543120862902
40
10.568543120862902
10
-341.84335646381885
20
569.23968020034522
30
0
10
-291.84335646381879
20
569.23968020034522
30
0
10
-240.75227634131252
20
544.23968020034522
30
0
0
LINE
5
227
100
AcDbEntity
8
0
100
AcDbLine
10
-425.54552370614215
20
612.76125710246652
30
0
11
-371.84335646381885
21
569.23968020034522
31
0
0
LINE
5
228
100
AcDbEntity
8
0
100
AcDbLine
10
-291.84335646381885
20
409.23968020034522
30
0
11
-321.84335646381885
21
419.23968020034522
31
0
0
SPLINE
5
229
100
AcDbEntity
8
0
100
AcDbSpline
70
12
71
2
41
1
41
3
41
1
72
6
73
3
74
0
42
0.000000001
43
0.0000000001
44
0.0000000001
40
0
40
0
40
0
40
8.9707216693210672
40
8.9707216693210672
40
8.9707216693210672
10
-211.84335646381882
20
449.23968020034522
30
0
10
-261.84335646381885
20
419.23968020034522
30
0
10
-291.84335646381885
20
409.23968020034522
30
0
0
SPLINE
5
230
100
AcDbEntity
8
0
100
AcDbSpline
70
12
71
2
41
1
41
3.0000000000000373
41
1
72
6
73
3
74
0
42
0.000000001
43
0.0000000001
44
0.0000000001
40
0
40
0
40
0
40
8.8452750822809172
40
8.8452750822809172
40
8.8452750822809172
10
-240.75227634131252
20
544.23968020034522
30
0
10
-201.84335646381882
20
519.23968020034522
30
0
10
-171.84335646381882
20
489.23968020034522
30
0
0
LINE
5
231
100
AcDbEntity
8
0
100
AcDbLine
10
-440.54552370602846
20
612.7611987424782
30
0
11
-425.54552370614215
21
612.76125710246652
31
0
0
LINE
5
232
100
AcDbEntity
8
0
100
AcDbLine
10
-291.84335646381885
20
409.23968020034522
30
0
11
-321.84335646381885
21
419.23968020034522
31
0
0
LINE
5
233
100
AcDbEntity
8
0
100
AcDbLine
10
-440.6455237060278
20
612.7611983534116
30
0
11
-425.54552370614215
21
612.76125710246652
31
0
0
SPLINE
5
234
100
AcDbEntity
8
0
100
AcDbSpline
70
12
71
2
41
1
41
3.0000000000000071
41
1
72
6
73
3
74
0
42
0.000000001
43
0.0000000001
44
0.0000000001
40
0
40
0
40
0
40
10.991009360090278
40
10.991009360090278
40
10.991009360090278
10
-410.44455103978549
20
362.76131585152115
30
0
10
-371.97685859707815
20
362.76131585152115
30
0
10
-321.84335646381885
20
419.23968020034522
30
0
0
LINE
5
235
100
AcDbEntity
8
0
100
AcDbLine
10
-341.84335646381885
20
519.23968020034522
30
0
11
-341.84335646381885
21
569.23968020034522
31
0
0
LINE
5
236
100
AcDbEntity
8
0
100
AcDbLine
10
-425.54455103967143
20
362.7612571024664
30
0
11
-440.54455103955786
21
362.7611987424782
31
0
0
SPLINE
5
237
100
AcDbEntity
8
0
100
AcDbSpline
70
12
71
2
41
1
41
3.0000000000000231
41
1
72
6
73
3
74
0
42
0.000000001
43
0.0000000001
44
0.0000000001
40
0
40
0
40
0
40
10.568543120862902
40
10.568543120862902
40
10.568543120862902
10
-341.84335646381885
20
569.23968020034522
30
0
10
-291.84335646381879
20
569.23968020034522
30
0
10
-240.75227634131252
20
544.23968020034522
30
0
0
LINE
5
238
100
AcDbEntity
8
0
100
AcDbLine
10
-440.54455103955786
20
362.7611987424782
30
0
11
-440.54552370602846
21
612.7611987424782
31
0
0
LINE
5
239
100
AcDbEntity
8
0
100
AcDbLine
10
-371.84335646381885
20
519.23968020034522
30
0
11
-341.84335646381885
21
519.23968020034522
31
0
0
LINE
5
240
100
AcDbEntity
8
0
100
AcDbLine
10
-425.54552370614215
20
612.76125710246652
30
0
11
-371.84335646381885
21
569.23968020034522
31
0
0
LINE
5
241
100
AcDbEntity
8
0
100
AcDbLine
10
-371.84335646381885
20
519.23968020034522
30
0
11
-341.84335646381885
21
519.23968020034522
31
0
0
SPLINE
5
242
100
AcDbEntity
8
0
100
AcDbSpline
70
12
71
2
41
1
41
3.0000000000000373
41
1
72
6
73
3
74
0
42
0.000000001
43
0.0000000001
44
0.0000000001
40
0
40
0
40
0
40
8.8452750822809172
40
8.8452750822809172
40
8.8452750822809172
10
-240.75227634131252
20
544.23968020034522
30
0
10
-201.84335646381882
20
519.23968020034522
30
0
10
-171.84335646381882
20
489.23968020034522
30
0
0
LINE
5
243
100
AcDbEntity
8
0
100
AcDbLine
10
-371.84335646381885
20
569.23968020034522
30
0
11
-371.84335646381885
21
519.23968020034522
31
0
0
LINE
5
244
100
AcDbEntity
8
0
100
AcDbLine
10
-410.54503737302002
20
487.76131546150873
30
0
11
-410.44455103978549
21
362.76131585152115
31
0
0
LINE
5
245
100
AcDbEntity
8
0
100
AcDbLine
10
-425.54503737290645
20
487.7612571015203
30
0
11
-410.54503737302002
21
487.76131546150873
31
0
0
SPLINE
5
246
100
AcDbEntity
8
0
100
AcDbSpline
70
12
71
2
41
1
41
3.0000000000000071
41
1
72
6
73
3
74
0
42
0.000000001
43
0.0000000001
44
0.0000000001
40
0
40
0
40
0
40
10.997629184700566
40
10.997629184700566
40
10.997629184700566
10
-410.51427930529758
20
362.76131557895542
30
0
10
-371.97685859707815
20
362.76131585152115
30
0
10
-321.84335646381885
20
419.23968020034522
30
0
0
LINE
5
247
100
AcDbEntity
8
0
100
AcDbLine
10
-341.84335646381885
20
519.23968020034522
30
0
11
-341.84335646381885
21
569.23968020034522
31
0
0
LINE
5
248
100
AcDbEntity
8
0
100
AcDbLine
10
-425.54503737290645
20
487.7612571015203
30
0
11
-410.4450373730208
21
487.7613158505751
31
0
0
LINE
5
249
100
AcDbEntity
8
0
100
AcDbLine
10
-371.84335646381885
20
569.23968020034522
30
0
11
-371.84335646381885
21
519.23968020034522
31
0
0
SPLINE
5
250
100
AcDbEntity
8
0
100
AcDbSpline
70
12
71
2
41
1
41
3.0000000000000711
41
1
72
6
73
3
74
0
42
0.000000001
43
0.0000000001
44
0.0000000001
40
0
40
0
40
0
40
2.7234361785715864
40
2.7234361785715864
40
2.7234361785715864
10
-184.62691116339343
20
450.10067153265891
30
0
10
-201.84335646381882
20
449.23968020034522
30
0
10
-211.84335646381882
20
449.23968020034522
30
0
0
LINE
5
251
100
AcDbEntity
8
0
100
AcDbLine
10
-425.54455103967143
20
362.7612571024664
30
0
11
-425.54503737290645
21
487.7612571015203
31
0
0
SPLINE
5
252
100
AcDbEntity
8
0
100
AcDbSpline
70
12
71
2
41
1
41
2.9999999999999787
41
1
72
6
73
3
74
0
42
0.000000001
43
0.0000000001
44
0.0000000001
40
0
40
0
40
0
40
4.6353282256591797
40
4.6353282256591797
40
4.6353282256591797
10
-171.84335646381882
20
489.23968020034522
30
0
10
-161.84335646381882
20
479.23968020034522
30
0
10
-184.62691116339343
20
450.10067153265891
30
0
0
SPLINE
5
253
100
AcDbEntity
8
0
100
AcDbSpline
70
1064
71
5
72
21
73
15
74
0
42
0.000000001
43
0.0000000001
44
0.0000000001
40
0
40
0
40
0
40
0
40
0
40
0
40
0.10000000000000001
40
0.20000000000000001
40
0.30000000000000004
40
0.40000000000000002
40
0.5
40
0.59999999999999998
40
0.69999999999999996
40
0.79999999999999982
40
0.8999999999999998
40
1
40
1
40
1
40
1
40
1
40
1
10
-556.06835851052392
20
388.91200556352112
30
0
10
-555.68360796820775
20
386.79725156285519
30
0
10
-554.77666618424951
20
382.79418391457972
30
0
10
-553.00397170492727
20
377.46883711399084
30
0
10
-549.80189711739183
20
371.74981521346228
30
0
10
-544.3266830372263
20
367.02725355010955
30
0
10
-537.30093932757393
20
364.8592661753363
30
0
10
-528.71348454648944
20
365.26427506798029
30
0
10
-518.67484571075147
20
368.06018149871579
30
0
10
-507.3352980492644
20
372.99939959191011
30
0
10
-494.84584912294201
20
379.83313691871325
30
0
10
-484.03050345689672
20
386.65735584292452
30
0
10
-475.4891608868997
20
392.48369170067582
30
0
10
-469.60700087118192
20
396.67754227497545
30
0
10
-466.6189371366479
20
398.85187557668365
30
0
0
SPLINE
5
254
100
AcDbEntity
8
0
100
AcDbSpline
70
12
71
2
41
1
41
2.9999999999999929
41
1
72
6
73
3
74
0
42
0.000000001
43
0.0000000001
44
0.0000000001
40
0
40
0
40
0
40
11.817843314431205
40
11.817843314431205
40
11.817843314431205
10
-466.61893713706439
20
398.85187557638062
30
0
10
-518.49475250931584
20
342.31294464054201
30
0
10
-564.24210699167907
20
342.31294464054201
30
0
0
LINE
5
255
100
AcDbEntity
8
0
100
AcDbLine
10
-594.24210699167918
20
344.59558874298745
30
0
11
-594.24210699167918
21
364.14596033257288
31
0
0
LINE
5
256
100
AcDbEntity
8
0
100
AcDbLine
10
-609.25959690337822
20
344.59558874298745
30
0
11
-594.24210699167918
21
344.59558874298745
31
0
0
LINE
5
257
100
AcDbEntity
8
0
100
AcDbLine
10
-564.24210699167918
20
364.14596033257305
30
0
11
-564.24210699167907
21
342.31294464054201
31
0
0
LINE
5
258
100
AcDbEntity
8
0
100
AcDbLine
10
-594.24210699167918
20
364.14596033257288
30
0
11
-564.24210699167918
21
364.14596033257305
31
0
0
LINE
5
259
100
AcDbEntity
8
0
100
AcDbLine
10
-609.25959690337822
20
394.59558874298745
30
0
11
-556.06835851052392
21
388.91200556352112
31
0
0
LINE
5
260
100
AcDbEntity
8
0
100
AcDbLine
10
-602.36396308614133
20
644.80858725412736
30
0
11
-549.17272469328714
21
639.12500407466098
31
0
0
LINE
5
261
100
AcDbEntity
8
0
100
AcDbLine
10
-557.34647317444217
20
614.35895884371291
30
0
11
-557.34647317444217
21
592.52594315168199
31
0
0
LINE
5
262
100
AcDbEntity
8
0
100
AcDbLine
10
-602.36396308614133
20
644.80858725412736
30
0
11
-549.17272469328714
21
639.12500407466098
31
0
0
LINE
5
263
100
AcDbEntity
8
0
100
AcDbLine
10
-587.34647317444217
20
594.80858725412736
30
0
11
-587.34647317444217
21
614.3589588437128
31
0
0
SPLINE
5
264
100
AcDbEntity
8
0
100
AcDbSpline
70
1064
71
5
72
21
73
15
74
0
42
0.000000001
43
0.0000000001
44
0.0000000001
40
0
40
0
40
0
40
0
40
0
40
0
40
0.10000000000000001
40
0.20000000000000001
40
0.30000000000000004
40
0.40000000000000002
40
0.5
40
0.59999999999999998
40
0.69999999999999996
40
0.79999999999999982
40
0.8999999999999998
40
1
40
1
40
1
40
1
40
1
40
1
10
-549.17272469328714
20
639.12500407466098
30
0
10
-548.78797415097085
20
637.01025007399505
30
0
10
-547.88103236701261
20
633.00718242571963
30
0
10
-546.10833788769037
20
627.6818356251307
30
0
10
-542.90626330015493
20
621.96281372460214
30
0
10
-537.4310492199894
20
617.24025206124941
30
0
10
-530.40530551033703
20
615.07226468647616
30
0
10
-521.81785072925254
20
615.47727357912015
30
0
10
-511.77921189351457
20
618.27318000985565
30
0
10
-500.43966423202755
20
623.21239810304996
30
0
10
-487.95021530570523
20
630.04613542985317
30
0
10
-477.13486963965988
20
636.87035435406438
30
0
10
-468.59352706966291
20
642.69669021181573
30
0
10
-462.71136705394508
20
646.89054078611537
30
0
10
-459.72330331941112
20
649.06487408782357
30
0
0
LINE
5
265
100
AcDbEntity
8
0
100
AcDbLine
10
-587.34647317444217
20
614.3589588437128
30
0
11
-557.34647317444217
21
614.35895884371291
31
0
0
LINE
5
266
100
AcDbEntity
8
0
100
AcDbLine
10
-602.36396308614133
20
594.80858725412736
30
0
11
-587.34647317444217
21
594.80858725412736
31
0
0
LINE
5
267
100
AcDbEntity
8
0
100
AcDbLine
10
-587.34647317444217
20
614.3589588437128
30
0
11
-557.34647317444217
21
614.35895884371291
31
0
0
SPLINE
5
268
100
AcDbEntity
8
0
100
AcDbSpline
70
12
71
2
41
1
41
2.9999999999999929
41
1
72
6
73
3
74
0
42
0.000000001
43
0.0000000001
44
0.0000000001
40
0
40
0
40
0
40
11.817843314431183
40
11.817843314431183
40
11.817843314431183
10
-459.72330331982761
20
649.06487408752037
30
0
10
-511.59911869207889
20
592.52594315168199
30
0
10
-557.34647317444217
20
592.52594315168199
30
0
0
SPLINE
5
269
100
AcDbEntity
8
0
100
AcDbSpline
70
1064
71
5
72
21
73
15
74
0
42
0.000000001
43
0.0000000001
44
0.0000000001
40
0
40
0
40
0
40
0
40
0
40
0
40
0.10000000000000001
40
0.20000000000000001
40
0.30000000000000004
40
0.40000000000000002
40
0.5
40
0.59999999999999998
40
0.69999999999999996
40
0.79999999999999982
40
0.8999999999999998
40
1
40
1
40
1
40
1
40
1
40
1
10
-549.17272469328714
20
639.12500407466098
30
0
10
-548.78797415097085
20
637.01025007399505
30
0
10
-547.88103236701261
20
633.00718242571963
30
0
10
-546.10833788769037
20
627.6818356251307
30
0
10
-542.90626330015493
20
621.96281372460214
30
0
10
-537.4310492199894
20
617.24025206124941
30
0
10
-530.40530551033703
20
615.07226468647616
30
0
10
-521.81785072925254
20
615.47727357912015
30
0
10
-511.77921189351457
20
618.27318000985565
30
0
10
-500.43966423202755
20
623.21239810304996
30
0
10
-487.95021530570523
20
630.04613542985317
30
0
10
-477.13486963965988
20
636.87035435406438
30
0
10
-468.59352706966291
20
642.69669021181573
30
0
10
-462.71136705394508
20
646.89054078611537
30
0
10
-459.72330331941112
20
649.06487408782357
30
0
0
SPLINE
5
270
100
AcDbEntity
8
0
100
AcDbSpline
70
12
71
2
41
1
41
2.9999999999999929
41
1
72
6
73
3
74
0
42
0.000000001
43
0.0000000001
44
0.0000000001
40
0
40
0
40
0
40
11.817843314431183
40
11.817843314431183
40
11.817843314431183
10
-459.72330331982761
20
649.06487408752037
30
0
10
-511.59911869207889
20
592.52594315168199
30
0
10
-557.34647317444217
20
592.52594315168199
30
0
0
LINE
5
271
100
AcDbEntity
8
0
100
AcDbLine
10
-587.34647317444217
20
594.80858725412736
30
0
11
-587.34647317444217
21
614.3589588437128
31
0
0
LINE
5
272
100
AcDbEntity
8
0
100
AcDbLine
10
-557.34647317444217
20
614.35895884371291
30
0
11
-557.34647317444217
21
592.52594315168199
31
0
0
LINE
5
273
100
AcDbEntity
8
0
100
AcDbLine
10
-602.36396308614133
20
594.80858725412736
30
0
11
-587.34647317444217
21
594.80858725412736
31
0
0
LINE
5
274
100
AcDbEntity
8
0
100
AcDbLine
10
-609.25959690337822
20
344.59558874298745
30
0
11
-609.25959690337822
21
394.59558874298745
31
0
0
LINE
5
275
100
AcDbEntity
8
0
100
AcDbLine
10
-602.36396308614133
20
594.80858725412736
30
0
11
-602.36396308614133
21
644.80858725412736
31
0
0
ENDSEC
0
SECTION
2
OBJECTS
0
DICTIONARY
5
C
100
AcDbDictionary
3
ACAD_GROUP
350
D
3
ACAD_MLINESTYLE
350
17
0
DICTIONARY
5
D
100
AcDbDictionary
0
DICTIONARY
5
1A
330
C
100
AcDbDictionary
0
DICTIONARY
5
17
100
AcDbDictionary
0
ENDSEC
0
EOF
