0
SECTION
2
HEADER
9
$INSUNITS
70
4
9
$ACADVER
1
AC1014
9
$HANDSEED
5
FFFF
0
ENDSEC
0
SECTION
2
TABLES
0
TABLE
2
VPORT
5
8
100
AcDbSymbolTable
0
ENDTAB
0
TABLE
2
LTYPE
5
5
100
AcDbSymbolTable
0
LTYPE
5
14
100
AcDbSymbolTableRecord
100
AcDbLinetypeTableRecord
2
BYBLOCK
70
0
0
LTYPE
5
15
100
AcDbSymbolTableRecord
100
AcDbLinetypeTableRecord
2
BYLAYER
70
0
0
ENDTAB
0
TABLE
2
LAYER
5
2
100
AcDbSymbolTable
70
2
0
LAYER
5
50
100
AcDbSymbolTableRecord
100
AcDbLayerTableRecord
2
0
70
0
6
CONTINUOUS
0
ENDTAB
0
TABLE
2
STYLE
5
3
100
AcDbSymbolTable
70
1
0
STYLE
5
11
100
AcDbSymbolTableRecord
100
AcDbTextStyleTableRecord
2
STANDARD
70
0
0
ENDTAB
0
TABLE
2
VIEW
5
6
100
AcDbSymbolTable
70
0
0
ENDTAB
0
TABLE
2
UCS
5
7
100
AcDbSymbolTable
70
0
0
ENDTAB
0
TABLE
2
APPID
5
9
100
AcDbSymbolTable
70
2
0
APPID
5
12
100
AcDbSymbolTableRecord
100
AcDbRegAppTableRecord
2
ACAD
70
0
0
ENDTAB
0
TABLE
2
DIMSTYLE
5
A
100
AcDbSymbolTable
70
1
0
ENDTAB
0
TABLE
2
BLOCK_RECORD
5
1
100
AcDbSymbolTable
70
1
0
BLOCK_RECORD
5
1F
100
AcDbSymbolTableRecord
100
AcDbBlockTableRecord
2
*MODEL_SPACE
0
BLOCK_RECORD
5
1B
100
AcDbSymbolTableRecord
100
AcDbBlockTableRecord
2
*PAPER_SPACE
0
ENDTAB
0
ENDSEC
0
SECTION
2
BLOCKS
0
BLOCK
5
20
100
AcDbEntity
100
AcDbBlockBegin
2
*MODEL_SPACE
0
ENDBLK
5
21
100
AcDbEntity
100
AcDbBlockEnd
0
BLOCK
5
1C
100
AcDbEntity
100
AcDbBlockBegin
2
*PAPER_SPACE
0
ENDBLK
5
1D
100
AcDbEntity
100
AcDbBlockEnd
0
ENDSEC
0
SECTION
2
ENTITIES
0
SPLINE
5
100
100
AcDbEntity
8
0
100
AcDbSpline
70
12
71
2
41
1
41
3.0000000000002167
41
1
72
6
73
3
74
0
42
0.000000001
43
0.0000000001
44
0.0000000001
40
0
40
0
40
0
40
1.8548582907541302
40
1.8548582907541302
40
1.8548582907541302
10
-290.46697412753059
20
107.5091925433309
30
0
10
-294.98473261454927
20
103.91350307532939
30
0
10
-306.91112366136986
20
99.118992755812471
30
0
0
SPLINE
5
101
100
AcDbEntity
8
0
100
AcDbSpline
70
12
71
2
41
1
41
3
41
1
72
6
73
3
74
0
42
0.000000001
43
0.0000000001
44
0.0000000001
40
0
40
0
40
0
40
3.0662007027072402
40
3.0662007027072402
40
3.0662007027072402
10
-297.84618918940305
20
86.924605994060698
30
0
10
-285.26635715504358
20
82.301317256467442
30
0
10
-268.7856779567943
20
90.335109374140089
30
0
0
SPLINE
5
102
100
AcDbEntity
8
0
100
AcDbSpline
70
12
71
2
41
1
41
2.999999999999984
41
1
72
6
73
3
74
0
42
0.000000001
43
0.0000000001
44
0.0000000001
40
0
40
0
40
0
40
1.5102305608741311
40
1.5102305608741311
40
1.5102305608741311
10
-254.89278642197408
20
49.757219156868942
30
0
10
-252.71527768237877
20
59.570266907112313
30
0
10
-255.83935166534752
20
64.188470043092622
30
0
0
SPLINE
5
103
100
AcDbEntity
8
0
100
AcDbSpline
70
12
71
2
41
1
41
3.0000000000000284
41
1
72
6
73
3
74
0
42
0.000000001
43
0.0000000001
44
0.0000000001
40
0
40
0
40
0
40
0.72162298754750487
40
0.72162298754750487
40
0.72162298754750487
10
-306.91112366136986
20
99.118992755812471
30
0
10
-311.26637151838099
20
98.301294784014672
30
0
10
-308.74306004974312
20
94.850191719475561
30
0
0
SPLINE
5
104
100
AcDbEntity
8
0
100
AcDbSpline
70
12
71
2
41
1
41
2.9999999999999982
41
1
72
6
73
3
74
0
42
0.000000001
43
0.0000000001
44
0.0000000001
40
0
40
0
40
0
40
1.3661651622249877
40
1.3661651622249877
40
1.3661651622249877
10
-308.74306004974312
20
94.850191719475561
30
0
10
-306.29688993236095
20
91.293771876390451
30
0
10
-297.84618918940305
20
86.924605994060698
30
0
0
LINE
5
105
100
AcDbEntity
8
0
100
AcDbLine
10
-241.62707949031127
20
109.94550860090293
30
0
11
-271.62707949031125
21
109.94550860090293
31
0
0
LINE
5
106
100
AcDbEntity
8
0
100
AcDbLine
10
-271.62707949031125
20
109.94550860090293
30
0
11
-271.62707949031125
21
125.12715833934217
31
0
0
LINE
5
107
100
AcDbEntity
8
0
100
AcDbLine
10
-280.9796446360217
20
-178.15411700929943
30
0
11
-280.9796446360217
21
-198.15411700929943
31
0
0
SPLINE
5
108
100
AcDbEntity
8
0
100
AcDbSpline
70
12
71
2
41
1
41
3.0000000000000249
41
1
72
6
73
3
74
0
42
0.000000001
43
0.0000000001
44
0.0000000001
40
0
40
0
40
0
40
3.3451397902502231
40
3.3451397902502231
40
3.3451397902502231
10
-319.70671395700316
20
-21.804853882523059
30
0
10
-333.00225501675345
20
-7.9982439642983039
30
0
10
-345.92808693977634
20
-1.4539375376840047
30
0
0
SPLINE
5
109
100
AcDbEntity
8
0
100
AcDbSpline
70
12
71
2
41
1
41
3.0000000000000213
41
1
72
6
73
3
74
0
42
0.000000001
43
0.0000000001
44
0.0000000001
40
0
40
0
40
0
40
1.9899498433956602
40
1.9899498433956602
40
1.9899498433956602
10
-318.0022550167534
20
-62.998243964298325
30
0
10
-306.44143503958782
20
-66.545026593186208
30
0
10
-299.81399558033843
20
-60.520081630231282
30
0
0
LINE
5
110
100
AcDbEntity
8
0
100
AcDbLine
10
-473.00225501675345
20
22.001756035701696
30
0
11
-473.00225501675345
21
-127.9982439642983
31
0
0
LINE
5
111
100
AcDbEntity
8
0
100
AcDbLine
10
-280.9796446360217
20
-198.15411700929943
30
0
11
-295.9796446360217
21
-198.15411700929943
31
0
0
LINE
5
112
100
AcDbEntity
8
0
100
AcDbLine
10
-228.00225501675342
20
272.0017560357017
30
0
11
-258.00225501675345
21
272.0017560357017
31
0
0
SPLINE
5
113
100
AcDbEntity
8
0
100
AcDbSpline
70
1064
71
5
72
21
73
15
74
0
42
0.000000001
43
0.0000000001
44
0.0000000001
40
0
40
0
40
0
40
0
40
0
40
0
40
0.10000000000000001
40
0.20000000000000001
40
0.30000000000000004
40
0.40000000000000002
40
0.5
40
0.59999999999999998
40
0.69999999999999996
40
0.79999999999999993
40
0.89999999999999991
40
1
40
1
40
1
40
1
40
1
40
1
10
-420.9796446360217
20
-153.15411700929943
30
0
10
-420.83080759705513
20
-155.29842692136353
30
0
10
-420.3715248668646
20
-159.37717101359456
30
0
10
-419.19782219491833
20
-164.86572148721038
30
0
10
-416.64696236428074
20
-170.90340376498114
30
0
10
-411.72681700532479
20
-176.20177403654165
30
0
10
-404.98349259583421
20
-179.13244287475376
30
0
10
-396.40384151817415
20
-179.67833590997174
30
0
10
-386.11782616563431
20
-178.00823093987742
30
0
10
-374.30214657925063
20
-174.35160237640648
30
0
10
-361.13436390735478
20
-168.93904292262954
30
0
10
-349.63149434252921
20
-163.35105065561336
30
0
10
-340.49892576784714
20
-158.50368914092371
30
0
10
-334.1895686634283
20
-154.98513801595988
30
0
10
-330.9796446360217
20
-153.15411700929943
30
0
0
LINE
5
114
100
AcDbEntity
8
0
100
AcDbLine
10
-470.9796446360217
20
-198.15411700929943
30
0
11
-470.9796446360217
21
-153.15411700929943
31
0
0
LINE
5
115
100
AcDbEntity
8
0
100
AcDbLine
10
-470.9796446360217
20
-153.15411700929943
30
0
11
-420.9796446360217
21
-153.15411700929943
31
0
0
LINE
5
116
100
AcDbEntity
8
0
100
AcDbLine
10
-443.00225501675345
20
-52.998243964298304
30
0
11
-443.00225501675345
21
-127.9982439642983
31
0
0
LINE
5
117
100
AcDbEntity
8
0
100
AcDbLine
10
-398.00225501675345
20
-32.998243964298304
30
0
11
-428.00225501675345
21
-32.998243727534785
31
0
0
LINE
5
118
100
AcDbEntity
8
0
100
AcDbLine
10
-458.00225501675345
20
-127.9982439642983
30
0
11
-458.00225501675345
21
-52.998243964298304
31
0
0
LINE
5
119
100
AcDbEntity
8
0
100
AcDbLine
10
-295.97964463602165
20
-153.15411700929951
30
0
11
-245.97964463602167
21
-153.15411700929943
31
0
0
SPLINE
5
120
100
AcDbEntity
8
0
100
AcDbSpline
70
1064
71
5
72
21
73
15
74
0
42
0.000000001
43
0.0000000001
44
0.0000000001
40
0
40
0
40
0
40
0
40
0
40
0
40
0.10000000000000001
40
0.20000000000000001
40
0.30000000000000004
40
0.40000000000000002
40
0.5
40
0.59999999999999998
40
0.69999999999999996
40
0.79999999999999993
40
0.89999999999999991
40
1
40
1
40
1
40
1
40
1
40
1
10
-245.97964463602167
20
-153.15411700929943
30
0
10
-245.83080759709327
20
-155.29842692136353
30
0
10
-245.37152486696652
20
-159.37717101359456
30
0
10
-244.19782219507829
20
-164.86572148721038
30
0
10
-241.64696236444954
20
-170.90340376498114
30
0
10
-236.72681700542159
20
-176.20177403654165
30
0
10
-229.9834925958136
20
-179.13244287475376
30
0
10
-221.40384151802715
20
-179.67833590997174
30
0
10
-211.11782616538204
20
-178.00823093987742
30
0
10
-199.3021465789391
20
-174.35160237640648
30
0
10
-186.13436390705093
20
-168.93904292262954
30
0
10
-174.63149434229877
20
-163.35105065561336
30
0
10
-165.49892576771475
20
-158.50368914092371
30
0
10
-159.18956866338095
20
-154.98513801595988
30
0
10
-155.97964463602167
20
-153.15411700929943
30
0
0
SPLINE
5
121
100
AcDbEntity
8
0
100
AcDbSpline
70
12
71
2
41
1
41
1.8195364790837636
41
3.8470147760040128
41
7.9816920151055477
41
11.185379527674066
41
6.5829148562487445
41
2.7518570342740873
41
1.5668193424731556
41
1
72
12
73
9
74
0
42
0.000000001
43
0.0000000001
44
0.0000000001
40
0
40
0
40
0
40
0.15841992362593496
40
0.43118368632010456
40
1.2210330184471625
40
2.5082706945028339
40
3.2350078072107538
40
3.3699087457463186
40
3.4794773607330374
40
3.4794773607330374
40
3.4794773607330374
10
-393.00225501675345
20
-77.998243964298297
30
0
10
-383.35743458348179
20
-72.171088235388311
30
0
10
-377.11028231790613
20
-68.413451356756426
30
0
10
-374.10529433189492
20
-66.643344852847491
30
0
10
-372.81276855992644
20
-66.058317464507198
30
0
10
-371.73345493961813
20
-66.309843473094205
30
0
10
-369.38062176014
20
-67.460172001168516
30
0
10
-366.38461252009648
20
-68.969379910122143
30
0
10
-362.4734231950672
20
-70.963319566019436
30
0
0
LINE
5
122
100
AcDbEntity
8
0
100
AcDbLine
10
-295.9796446360217
20
-198.15411700929943
30
0
11
-295.97964463602165
21
-153.15411700929951
31
0
0
LINE
5
123
100
AcDbEntity
8
0
100
AcDbLine
10
-398.00225501675345
20
-32.998243964298304
30
0
11
-398.00225501675328
21
5.7215878075345046
31
0
0
SPLINE
5
124
100
AcDbEntity
8
0
100
AcDbSpline
70
12
71
2
41
1
41
3.0000000000000036
41
1
72
6
73
3
74
0
42
0.000000001
43
0.0000000001
44
0.0000000001
40
0
40
0
40
0
40
13.122962076399372
40
13.122962076399372
40
13.122962076399372
10
-265.9796446360217
20
-198.15411700929943
30
0
10
-205.17309698979773
20
-213.15411700929943
30
0
10
-155.97964463602167
20
-153.15411700929943
30
0
0
LINE
5
125
100
AcDbEntity
8
0
100
AcDbLine
10
-455.9796446360217
20
-198.15411700929943
30
0
11
-470.9796446360217
21
-198.15411700929943
31
0
0
SPLINE
5
126
100
AcDbEntity
8
0
100
AcDbSpline
70
12
71
2
41
1
41
3.0000000000000036
41
1
72
6
73
3
74
0
42
0.000000001
43
0.0000000001
44
0.0000000001
40
0
40
0
40
0
40
13.122962076399372
40
13.122962076399372
40
13.122962076399372
10
-440.9796446360217
20
-198.15411700929943
30
0
10
-380.17309698979773
20
-213.15411700929943
30
0
10
-330.9796446360217
20
-153.15411700929943
30
0
0
LINE
5
127
100
AcDbEntity
8
0
100
AcDbLine
10
-280.9796446360217
20
-178.15411700929943
30
0
11
-265.9796446360217
21
-178.15411700929943
31
0
0
LINE
5
128
100
AcDbEntity
8
0
100
AcDbLine
10
-458.00225501675345
20
-52.998243964298304
30
0
11
-443.00225501675345
21
-52.998243964298304
31
0
0
LINE
5
129
100
AcDbEntity
8
0
100
AcDbLine
10
-473.00225501675345
20
22.001756035701696
30
0
11
-443.00225501675345
21
22.001756035701696
31
0
0
SPLINE
5
130
100
AcDbEntity
8
0
100
AcDbSpline
70
12
71
2
41
1
41
3.0000000000000053
41
1
72
6
73
3
74
0
42
0.000000001
43
0.0000000001
44
0.0000000001
40
0
40
0
40
0
40
4.5227532725842776
40
4.5227532725842776
40
4.5227532725842776
10
-362.4734231950672
20
-70.963319566019436
30
0
10
-338.00225501675311
20
-67.998243964298425
30
0
10
-318.0022550167534
20
-62.998243964298325
30
0
0
SPLINE
5
131
100
AcDbEntity
8
0
100
AcDbSpline
70
12
71
2
41
1
41
3.0000000000000124
41
1
72
6
73
3
74
0
42
0.000000001
43
0.0000000001
44
0.0000000001
40
0
40
0
40
0
40
4.7733101817332662
40
4.7733101817332662
40
4.7733101817332662
10
-299.81399558033843
20
-60.520081630231282
30
0
10
-293.00225501675345
20
-47.998243964298304
30
0
10
-319.70671395700316
20
-21.804853882523059
30
0
0
SPLINE
5
132
100
AcDbEntity
8
0
100
AcDbSpline
70
12
71
2
41
1
41
2.9999999999999822
41
1
72
6
73
3
74
0
42
0.000000001
43
0.0000000001
44
0.0000000001
40
0
40
0
40
0
40
7.4501035411766487
40
7.4501035411766487
40
7.4501035411766487
10
-443.00225501675345
20
-127.9982439642983
30
0
10
-423.00225501675345
20
-127.99824396429833
30
0
10
-393.00225501675345
20
-77.998243964298297
30
0
0
SPLINE
5
133
100
AcDbEntity
8
0
100
AcDbSpline
70
12
71
2
41
1
41
3.0000000000000036
41
1
72
6
73
3
74
0
42
0.000000001
43
0.0000000001
44
0.0000000001
40
0
40
0
40
0
40
5.2694281180860871
40
5.2694281180860871
40
5.2694281180860871
10
-398.00225501675328
20
5.7215878075345046
30
0
10
-380.68728409872438
20
5.7215878075345046
30
0
10
-345.92808693977634
20
-1.4539375376840047
30
0
0
LINE
5
134
100
AcDbEntity
8
0
100
AcDbLine
10
-473.00225501675345
20
-127.9982439642983
30
0
11
-458.00225501675345
21
-127.9982439642983
31
0
0
LINE
5
135
100
AcDbEntity
8
0
100
AcDbLine
10
-265.9796446360217
20
-198.15411700929943
30
0
11
-265.9796446360217
21
-178.15411700929943
31
0
0
SPLINE
5
136
100
AcDbEntity
8
0
100
AcDbSpline
70
12
71
2
41
1
41
3.0000000000000266
41
1
72
6
73
3
74
0
42
0.000000001
43
0.0000000001
44
0.0000000001
40
0
40
0
40
0
40
7.3769579053117944
40
7.3769579053117944
40
7.3769579053117944
10
-228.00225501675342
20
340.51986772287978
30
0
10
-188.06262362072303
20
322.20602908617792
30
0
10
-157.49645862387226
20
322.20602908617792
30
0
0
LINE
5
137
100
AcDbEntity
8
0
100
AcDbLine
10
-228.00225501675342
20
272.0017560357017
30
0
11
-228.00225501675342
21
340.51986772287978
31
0
0
LINE
5
138
100
AcDbEntity
8
0
100
AcDbLine
10
-258.00225501675345
20
340.51986772287978
30
0
11
-258.00225501675345
21
272.0017560357017
31
0
0
LINE
5
139
100
AcDbEntity
8
0
100
AcDbLine
10
-438.00225501675345
20
340.51986772287978
30
0
11
-438.00225501675345
21
197.0017560357017
31
0
0
SPLINE
5
140
100
AcDbEntity
8
0
100
AcDbSpline
70
12
71
2
41
1
41
3
41
1
72
6
73
3
74
0
42
0.000000001
43
0.0000000001
44
0.0000000001
40
0
40
0
40
0
40
7.3752839835721424
40
7.3752839835721424
40
7.3752839835721424
10
-328.50805140963462
20
322.20602908617792
30
0
10
-298.24834029157489
20
322.20602908617792
30
0
10
-258.00225501675345
20
340.51986772287978
30
0
0
LINE
5
141
100
AcDbEntity
8
0
100
AcDbLine
10
-408.00225501675345
20
197.0017560357017
30
0
11
-408.00225255806185
21
340.51986772287978
31
0
0
LINE
5
142
100
AcDbEntity
8
0
100
AcDbLine
10
-455.9796446360217
20
-178.15411700929943
30
0
11
-455.9796446360217
21
-198.15411700929943
31
0
0
LINE
5
143
100
AcDbEntity
8
0
100
AcDbLine
10
-440.9796446360217
20
-198.15411700929943
30
0
11
-440.9796446360217
21
-178.15411700929943
31
0
0
LINE
5
144
100
AcDbEntity
8
0
100
AcDbLine
10
-408.00225501675345
20
197.0017560357017
30
0
11
-438.00225501675345
21
197.0017560357017
31
0
0
LINE
5
145
100
AcDbEntity
8
0
100
AcDbLine
10
-455.9796446360217
20
-178.15411700929943
30
0
11
-440.9796446360217
21
-178.15411700929943
31
0
0
SPLINE
5
146
100
AcDbEntity
8
0
100
AcDbSpline
70
12
71
2
41
1
41
2.9999999999999734
41
1
72
6
73
3
74
0
42
0.000000001
43
0.0000000001
44
0.0000000001
40
0
40
0
40
0
40
7.4080564223965837
40
7.4080564223965837
40
7.4080564223965837
10
-337.49645862387229
20
322.20602908617792
30
0
10
-373.19227325790308
20
322.20602908617792
30
0
10
-408.00225255806185
20
340.51986772287978
30
0
0
SPLINE
5
147
100
AcDbEntity
8
0
100
AcDbSpline
70
12
71
2
41
1
41
3
41
1
72
6
73
3
74
0
42
0.000000001
43
0.0000000001
44
0.0000000001
40
0
40
0
40
0
40
20.465935189808548
40
20.465935189808548
40
20.465935189808548
10
-328.50805140963462
20
322.20602908617792
30
0
10
-313.00225501675345
20
197.0017560357017
30
0
10
-243.00225501675342
20
147.0017560357017
30
0
0
SPLINE
5
148
100
AcDbEntity
8
0
100
AcDbSpline
70
12
71
2
41
1
41
3
41
1
72
6
73
3
74
0
42
0.000000001
43
0.0000000001
44
0.0000000001
40
0
40
0
40
0
40
20.465935189808548
40
20.465935189808548
40
20.465935189808548
10
-508.50805140963462
20
322.20602908617792
30
0
10
-493.00225501675334
20
197.0017560357017
30
0
10
-423.00225501675345
20
147.0017560357017
30
0
0
SPLINE
5
149
100
AcDbEntity
8
0
100
AcDbSpline
70
12
71
2
41
1
41
2.9999999999999716
41
1
72
6
73
3
74
0
42
0.000000001
43
0.0000000001
44
0.0000000001
40
0
40
0
40
0
40
7.4019238628974318
40
7.4019238628974318
40
7.4019238628974318
10
-508.50805140963462
20
322.20602908617792
30
0
10
-473.74718592520452
20
322.20602908617792
30
0
10
-438.00225501675345
20
340.51986772287978
30
0
0
SPLINE
5
150
100
AcDbEntity
8
0
100
AcDbSpline
70
12
71
2
41
1
41
3
41
1
72
6
73
3
74
0
42
0.000000001
43
0.0000000001
44
0.0000000001
40
0
40
0
40
0
40
20.465935189808548
40
20.465935189808548
40
20.465935189808548
10
-157.49645862387226
20
322.20602908617792
30
0
10
-173.00225501675342
20
197.0017560357017
30
0
10
-243.00225501675342
20
147.0017560357017
30
0
0
SPLINE
5
151
100
AcDbEntity
8
0
100
AcDbSpline
70
12
71
2
41
1
41
3
41
1
72
6
73
3
74
0
42
0.000000001
43
0.0000000001
44
0.0000000001
40
0
40
0
40
0
40
20.465935189808548
40
20.465935189808548
40
20.465935189808548
10
-337.49645862387229
20
322.20602908617792
30
0
10
-353.00225501675345
20
197.0017560357017
30
0
10
-423.00225501675345
20
147.0017560357017
30
0
0
LINE
5
152
100
AcDbEntity
8
0
100
AcDbLine
10
-220.36169772030229
20
68.513756583443936
30
0
11
-241.22062309386251
21
68.513756583443936
31
0
0
LINE
5
153
100
AcDbEntity
8
0
100
AcDbLine
10
-254.89278642197408
20
49.757219156868942
30
0
11
-241.22062309386251
21
38.513756583443936
31
0
0
LINE
5
154
100
AcDbEntity
8
0
100
AcDbLine
10
-241.22062309386251
20
38.513756583443936
30
0
11
-241.22062309386251
21
68.513756583443936
31
0
0
SPLINE
5
155
100
AcDbEntity
8
0
100
AcDbSpline
70
12
71
2
41
1
41
3
41
1
72
6
73
3
74
0
42
0.000000001
43
0.0000000001
44
0.0000000001
40
0
40
0
40
0
40
1.5053945631480228
40
1.5053945631480228
40
1.5053945631480228
10
-234.83911364706287
20
130.17080757027739
30
0
10
-228.51714825417514
20
131.96444192277403
30
0
10
-220.36169772030229
20
128.51375658344392
30
0
0
SPLINE
5
156
100
AcDbEntity
8
0
100
AcDbSpline
70
12
71
2
41
1
41
3.0000000000000178
41
1
72
6
73
3
74
0
42
0.000000001
43
0.0000000001
44
0.0000000001
40
0
40
0
40
0
40
3.3471115555065025
40
3.3471115555065025
40
3.3471115555065025
10
-268.7856779567943
20
90.335109374140089
30
0
10
-251.51714636172761
20
79.964439657797513
30
0
10
-255.83935166534752
20
64.188470043092622
30
0
0
LINE
5
157
100
AcDbEntity
8
0
100
AcDbLine
10
-241.62707949031127
20
109.94550860090293
30
0
11
-241.62707949031127
21
129.96444189297171
31
0
0
LINE
5
158
100
AcDbEntity
8
0
100
AcDbLine
10
-241.62707949031127
20
129.96444189297171
30
0
11
-234.83911364706287
21
130.17080757027739
31
0
0
SPLINE
5
159
100
AcDbEntity
8
0
100
AcDbSpline
70
12
71
2
41
1
41
2.9999999999999325
41
1
72
6
73
3
74
0
42
0.000000001
43
0.0000000001
44
0.0000000001
40
0
40
0
40
0
40
2.5813616522162492
40
2.5813616522162492
40
2.5813616522162492
10
-271.62707949031125
20
125.12715833934217
30
0
10
-281.51714904393663
20
114.96444166945429
30
0
10
-290.46697412753059
20
107.5091925433309
30
0
0
LINE
5
160
100
AcDbEntity
8
0
100
AcDbLine
10
-452.1058552719918
20
-245.66873163953488
30
0
11
-452.1058552719918
21
-265.66873163953488
31
0
0
SPLINE
5
161
100
AcDbEntity
8
0
100
AcDbSpline
70
12
71
2
41
1
41
3.0000000000000036
41
1
72
6
73
3
74
0
42
0.000000001
43
0.0000000001
44
0.0000000001
40
0
40
0
40
0
40
13.122962076399372
40
13.122962076399372
40
13.122962076399372
10
-262.1058552719918
20
-265.66873163953488
30
0
10
-201.29930762576782
20
-280.66873163953488
30
0
10
-152.1058552719918
20
-220.66873163953488
30
0
0
LINE
5
162
100
AcDbEntity
8
0
100
AcDbLine
10
-437.1058552719918
20
-265.66873163953488
30
0
11
-437.1058552719918
21
-245.66873163953488
31
0
0
LINE
5
163
100
AcDbEntity
8
0
100
AcDbLine
10
-262.1058552719918
20
-265.66873163953488
30
0
11
-262.1058552719918
21
-245.66873163953488
31
0
0
LINE
5
164
100
AcDbEntity
8
0
100
AcDbLine
10
-277.1058552719918
20
-245.66873163953488
30
0
11
-277.1058552719918
21
-265.66873163953488
31
0
0
LINE
5
165
100
AcDbEntity
8
0
100
AcDbLine
10
-277.1058552719918
20
-265.66873163953488
30
0
11
-292.1058552719918
21
-265.66873163953488
31
0
0
LINE
5
166
100
AcDbEntity
8
0
100
AcDbLine
10
-292.1058552719918
20
-265.66873163953488
30
0
11
-292.10585527199174
21
-220.66873163953494
31
0
0
SPLINE
5
167
100
AcDbEntity
8
0
100
AcDbSpline
70
12
71
2
41
1
41
3.0000000000000036
41
1
72
6
73
3
74
0
42
0.000000001
43
0.0000000001
44
0.0000000001
40
0
40
0
40
0
40
13.122962076399372
40
13.122962076399372
40
13.122962076399372
10
-437.1058552719918
20
-265.66873163953488
30
0
10
-376.29930762576782
20
-280.66873163953488
30
0
10
-327.1058552719918
20
-220.66873163953488
30
0
0
SPLINE
5
168
100
AcDbEntity
8
0
100
AcDbSpline
70
1064
71
5
72
21
73
15
74
0
42
0.000000001
43
0.0000000001
44
0.0000000001
40
0
40
0
40
0
40
0
40
0
40
0
40
0.10000000000000001
40
0.20000000000000001
40
0.30000000000000004
40
0.40000000000000002
40
0.5
40
0.59999999999999998
40
0.69999999999999996
40
0.79999999999999993
40
0.89999999999999991
40
1
40
1
40
1
40
1
40
1
40
1
10
-417.1058552719918
20
-220.66873163953488
30
0
10
-416.95701823303546
20
-222.81304155158017
30
0
10
-416.49773550286227
20
-226.89178564377985
30
0
10
-415.32403283093288
20
-232.38033611736745
30
0
10
-412.77317300029944
20
-238.41801839513525
30
0
10
-407.85302764132433
20
-243.71638866673254
30
0
10
-401.10970323179862
20
-246.64705750499962
30
0
10
-392.5300521540982
20
-247.19295054027188
30
0
10
-382.24403680152318
20
-245.52284557021821
30
0
10
-370.4283572151183
20
-241.86621700676582
30
0
10
-357.26057454322336
20
-236.45365755298059
30
0
10
-345.75770497842154
20
-230.86566528593394
30
0
10
-336.62513640377244
20
-226.01830377120723
30
0
10
-330.31577929938237
20
-222.49975264621241
30
0
10
-327.1058552719918
20
-220.66873163953488
30
0
0
LINE
5
169
100
AcDbEntity
8
0
100
AcDbLine
10
-277.1058552719918
20
-245.66873163953488
30
0
11
-262.1058552719918
21
-245.66873163953488
31
0
0
LINE
5
170
100
AcDbEntity
8
0
100
AcDbLine
10
-452.1058552719918
20
-245.66873163953488
30
0
11
-437.1058552719918
21
-245.66873163953488
31
0
0
LINE
5
171
100
AcDbEntity
8
0
100
AcDbLine
10
-292.10585527199174
20
-220.66873163953494
30
0
11
-242.1058552719918
21
-220.66873163953488
31
0
0
LINE
5
172
100
AcDbEntity
8
0
100
AcDbLine
10
-467.1058552719918
20
-220.66873163953488
30
0
11
-417.1058552719918
21
-220.66873163953488
31
0
0
SPLINE
5
173
100
AcDbEntity
8
0
100
AcDbSpline
70
1064
71
5
72
21
73
15
74
0
42
0.000000001
43
0.0000000001
44
0.0000000001
40
0
40
0
40
0
40
0
40
0
40
0
40
0.10000000000000001
40
0.20000000000000001
40
0.30000000000000004
40
0.40000000000000002
40
0.5
40
0.59999999999999998
40
0.69999999999999996
40
0.79999999999999993
40
0.89999999999999991
40
1
40
1
40
1
40
1
40
1
40
1
10
-242.1058552719918
20
-220.66873163953488
30
0
10
-241.9570182330352
20
-222.81304155158017
30
0
10
-241.49773550286147
20
-226.89178564377985
30
0
10
-240.32403283093123
20
-232.38033611736745
30
0
10
-237.77317300029785
20
-238.41801839513525
30
0
10
-232.8530276413241
20
-243.71638866673254
30
0
10
-226.10970323179924
20
-246.64705750499962
30
0
10
-217.53005215409672
20
-247.19295054027188
30
0
10
-207.24403680151636
20
-245.52284557021821
30
0
10
-195.42835721510522
20
-241.86621700676582
30
0
10
-182.26057454320647
20
-236.45365755298059
30
0
10
-170.75770497840668
20
-230.86566528593394
30
0
10
-161.62513640376312
20
-226.01830377120723
30
0
10
-155.31577929937893
20
-222.49975264621241
30
0
10
-152.1058552719918
20
-220.66873163953488
30
0
0
LINE
5
174
100
AcDbEntity
8
0
100
AcDbLine
10
-467.1058552719918
20
-265.66873163953488
30
0
11
-467.1058552719918
21
-220.66873163953488
31
0
0
LINE
5
175
100
AcDbEntity
8
0
100
AcDbLine
10
-452.1058552719918
20
-265.66873163953488
30
0
11
-467.1058552719918
21
-265.66873163953488
31
0
0
SPLINE
5
176
100
AcDbEntity
8
0
100
AcDbSpline
70
12
71
2
41
1
41
2.999999999999984
41
1
72
6
73
3
74
0
42
0.000000001
43
0.0000000001
44
0.0000000001
40
0
40
0
40
0
40
1.5102305608741311
40
1.5102305608741311
40
1.5102305608741311
10
-185.8306090186305
20
49.757219156868942
30
0
10
-188.00811775822581
20
59.570266907112313
30
0
10
-184.88404377525708
20
64.188470043092622
30
0
0
SPLINE
5
177
100
AcDbEntity
8
0
100
AcDbSpline
70
12
71
2
41
1
41
2.9999999999999982
41
1
72
6
73
3
74
0
42
0.000000001
43
0.0000000001
44
0.0000000001
40
0
40
0
40
0
40
1.3661651622249873
40
1.3661651622249873
40
1.3661651622249873
10
-131.98033539086146
20
94.850191719475561
30
0
10
-134.42650550824365
20
91.293771876390451
30
0
10
-142.87720625120153
20
86.924605994060698
30
0
0
LINE
5
178
100
AcDbEntity
8
0
100
AcDbLine
10
-199.09631595029333
20
109.94550860090293
30
0
11
-169.09631595029333
21
109.94550860090293
31
0
0
SPLINE
5
179
100
AcDbEntity
8
0
100
AcDbSpline
70
12
71
2
41
1
41
3.0000000000000284
41
1
72
6
73
3
74
0
42
0.000000001
43
0.0000000001
44
0.0000000001
40
0
40
0
40
0
40
0.7216229875475022
40
0.7216229875475022
40
0.7216229875475022
10
-133.81227177923472
20
99.118992755812471
30
0
10
-129.45702392222364
20
98.301294784014672
30
0
10
-131.98033539086146
20
94.850191719475561
30
0
0
SPLINE
5
180
100
AcDbEntity
8
0
100
AcDbSpline
70
12
71
2
41
1
41
3
41
1
72
6
73
3
74
0
42
0.000000001
43
0.0000000001
44
0.0000000001
40
0
40
0
40
0
40
3.0662007027072402
40
3.0662007027072402
40
3.0662007027072402
10
-142.87720625120153
20
86.924605994060698
30
0
10
-155.45703828556105
20
82.301317256467442
30
0
10
-171.93771748381027
20
90.335109374140089
30
0
0
SPLINE
5
181
100
AcDbEntity
8
0
100
AcDbSpline
70
12
71
2
41
1
41
3.0000000000002167
41
1
72
6
73
3
74
0
42
0.000000001
43
0.0000000001
44
0.0000000001
40
0
40
0
40
0
40
1.8548582907541302
40
1.8548582907541302
40
1.8548582907541302
10
-150.25642131307399
20
107.5091925433309
30
0
10
-145.7386628260553
20
103.91350307532939
30
0
10
-133.81227177923472
20
99.118992755812471
30
0
0
LINE
5
182
100
AcDbEntity
8
0
100
AcDbLine
10
-169.09631595029333
20
109.94550860090293
30
0
11
-169.09631595029333
21
125.12715833934217
31
0
0
LINE
5
183
100
AcDbEntity
8
0
100
AcDbLine
10
-185.8306090186305
20
49.757219156868942
30
0
11
-199.50277234674206
21
38.51375658344395
31
0
0
LINE
5
184
100
AcDbEntity
8
0
100
AcDbLine
10
-199.50277234674206
20
38.51375658344395
30
0
11
-199.50277234674206
21
68.51375658344395
31
0
0
LINE
5
185
100
AcDbEntity
8
0
100
AcDbLine
10
-199.09631595029333
20
109.94550860090293
30
0
11
-199.09631595029333
21
129.96444189297171
31
0
0
LINE
5
186
100
AcDbEntity
8
0
100
AcDbLine
10
-199.09631595029333
20
129.96444189297171
30
0
11
-205.8842817935417
21
130.17080757027739
31
0
0
SPLINE
5
187
100
AcDbEntity
8
0
100
AcDbSpline
70
12
71
2
41
1
41
3.0000000000000178
41
1
72
6
73
3
74
0
42
0.000000001
43
0.0000000001
44
0.0000000001
40
0
40
0
40
0
40
3.3471115555065025
40
3.3471115555065025
40
3.3471115555065025
10
-171.93771748381027
20
90.335109374140089
30
0
10
-189.20624907887697
20
79.964439657797513
30
0
10
-184.88404377525708
20
64.188470043092622
30
0
0
SPLINE
5
188
100
AcDbEntity
8
0
100
AcDbSpline
70
12
71
2
41
1
41
2.9999999999999325
41
1
72
6
73
3
74
0
42
0.000000001
43
0.0000000001
44
0.0000000001
40
0
40
0
40
0
40
2.5813616522162488
40
2.5813616522162488
40
2.5813616522162488
10
-169.09631595029333
20
125.12715833934217
30
0
10
-159.20624639666795
20
114.96444166945429
30
0
10
-150.25642131307399
20
107.5091925433309
30
0
0
LINE
5
189
100
AcDbEntity
8
0
100
AcDbLine
10
-220.36169772030229
20
68.513756583443936
30
0
11
-199.50277234674206
21
68.51375658344395
31
0
0
SPLINE
5
190
100
AcDbEntity
8
0
100
AcDbSpline
70
12
71
2
41
1
41
3
41
1
72
6
73
3
74
0
42
0.000000001
43
0.0000000001
44
0.0000000001
40
0
40
0
40
0
40
1.5053945631480192
40
1.5053945631480192
40
1.5053945631480192
10
-205.8842817935417
20
130.17080757027739
30
0
10
-212.20624718642949
20
131.96444192277403
30
0
10
-220.36169772030229
20
128.51375658344392
30
0
0
LINE
5
191
100
AcDbEntity
8
0
100
AcDbLine
10
-428.00225501675345
20
-32.998243727534785
30
0
11
-428.00225465292624
21
13.101829783990603
31
0
0
LINE
5
192
100
AcDbEntity
8
0
100
AcDbLine
10
-428.00225465292624
20
13.101829783990603
30
0
11
-443.00225501675345
21
22.001756035701696
31
0
0
SPLINE
5
193
100
AcDbEntity
8
0
100
AcDbSpline
70
12
71
2
41
1
41
3.0000000000000284
41
1
72
6
73
3
74
0
42
0.000000001
43
0.0000000001
44
0.0000000001
40
0
40
0
40
0
40
0.7216229875475022
40
0.7216229875475022
40
0.7216229875475022
10
-133.81227177923472
20
99.118992755812471
30
0
10
-129.45702392222364
20
98.301294784014672
30
0
10
-131.98033539086146
20
94.850191719475561
30
0
0
SPLINE
5
194
100
AcDbEntity
8
0
100
AcDbSpline
70
12
71
2
41
1
41
2.9999999999999982
41
1
72
6
73
3
74
0
42
0.000000001
43
0.0000000001
44
0.0000000001
40
0
40
0
40
0
40
1.3661651622249873
40
1.3661651622249873
40
1.3661651622249873
10
-131.98033539086146
20
94.850191719475561
30
0
10
-134.42650550824365
20
91.293771876390451
30
0
10
-142.87720625120153
20
86.924605994060698
30
0
0
LINE
5
195
100
AcDbEntity
8
0
100
AcDbLine
10
-254.89278642197408
20
49.757219156868942
30
0
11
-241.22062309386251
21
38.513756583444035
31
0
0
SPLINE
5
196
100
AcDbEntity
8
0
100
AcDbSpline
70
12
71
2
41
1
41
2.9999999999999325
41
1
72
6
73
3
74
0
42
0.000000001
43
0.0000000001
44
0.0000000001
40
0
40
0
40
0
40
2.5813616522162492
40
2.5813616522162492
40
2.5813616522162492
10
-271.62707949031125
20
125.12715833934217
30
0
10
-281.51714904393663
20
114.96444166945429
30
0
10
-290.46697412753059
20
107.5091925433309
30
0
0
SPLINE
5
197
100
AcDbEntity
8
0
100
AcDbSpline
70
12
71
2
41
1
41
3.0000000000002167
41
1
72
6
73
3
74
0
42
0.000000001
43
0.0000000001
44
0.0000000001
40
0
40
0
40
0
40
1.8548582907541302
40
1.8548582907541302
40
1.8548582907541302
10
-150.25642131307399
20
107.5091925433309
30
0
10
-145.7386628260553
20
103.91350307532939
30
0
10
-133.81227177923472
20
99.118992755812471
30
0
0
SPLINE
5
198
100
AcDbEntity
8
0
100
AcDbSpline
70
12
71
2
41
1
41
3
41
1
72
6
73
3
74
0
42
0.000000001
43
0.0000000001
44
0.0000000001
40
0
40
0
40
0
40
1.5053945631480192
40
1.5053945631480192
40
1.5053945631480192
10
-205.8842817935417
20
130.17080757027739
30
0
10
-212.20624718642949
20
131.96444192277403
30
0
10
-220.36169772030229
20
128.51375658344392
30
0
0
LINE
5
199
100
AcDbEntity
8
0
100
AcDbLine
10
-185.8306090186305
20
49.757219156868942
30
0
11
-199.50277234674206
21
38.51375658344395
31
0
0
SPLINE
5
200
100
AcDbEntity
8
0
100
AcDbSpline
70
12
71
2
41
1
41
2.999999999999984
41
1
72
6
73
3
74
0
42
0.000000001
43
0.0000000001
44
0.0000000001
40
0
40
0
40
0
40
1.5102305608741311
40
1.5102305608741311
40
1.5102305608741311
10
-185.8306090186305
20
49.757219156868942
30
0
10
-188.00811775822581
20
59.570266907112313
30
0
10
-184.88404377525708
20
64.188470043092622
30
0
0
SPLINE
5
201
100
AcDbEntity
8
0
100
AcDbSpline
70
12
71
2
41
1
41
3
41
1
72
6
73
3
74
0
42
0.000000001
43
0.0000000001
44
0.0000000001
40
0
40
0
40
0
40
3.0662007027072402
40
3.0662007027072402
40
3.0662007027072402
10
-142.87720625120153
20
86.924605994060698
30
0
10
-155.45703828556105
20
82.301317256467442
30
0
10
-171.93771748381027
20
90.335109374140089
30
0
0
SPLINE
5
202
100
AcDbEntity
8
0
100
AcDbSpline
70
12
71
2
41
1
41
3.0000000000000178
41
1
72
6
73
3
74
0
42
0.000000001
43
0.0000000001
44
0.0000000001
40
0
40
0
40
0
40
3.3471115555065025
40
3.3471115555065025
40
3.3471115555065025
10
-171.93771748381027
20
90.335109374140089
30
0
10
-189.20624907887697
20
79.964439657797513
30
0
10
-184.88404377525708
20
64.188470043092622
30
0
0
SPLINE
5
203
100
AcDbEntity
8
0
100
AcDbSpline
70
12
71
2
41
1
41
2.9999999999999325
41
1
72
6
73
3
74
0
42
0.000000001
43
0.0000000001
44
0.0000000001
40
0
40
0
40
0
40
2.5813616522162488
40
2.5813616522162488
40
2.5813616522162488
10
-169.09631595029333
20
125.12715833934217
30
0
10
-159.20624639666795
20
114.96444166945429
30
0
10
-150.25642131307399
20
107.5091925433309
30
0
0
LINE
5
204
100
AcDbEntity
8
0
100
AcDbLine
10
-241.62707949031127
20
129.96444189297171
30
0
11
-234.83911364706287
21
130.17080757027739
31
0
0
LINE
5
205
100
AcDbEntity
8
0
100
AcDbLine
10
-199.09631595029333
20
109.94550860090293
30
0
11
-199.09631595029333
21
129.96444189297171
31
0
0
LINE
5
206
100
AcDbEntity
8
0
100
AcDbLine
10
-199.09631595029333
20
129.96444189297171
30
0
11
-205.8842817935417
21
130.17080757027739
31
0
0
LINE
5
207
100
AcDbEntity
8
0
100
AcDbLine
10
-220.36169772030229
20
68.513756583443936
30
0
11
-199.50277234674206
21
68.51375658344395
31
0
0
LINE
5
208
100
AcDbEntity
8
0
100
AcDbLine
10
-241.62707949031127
20
109.94550860090293
30
0
11
-241.62707949031127
21
129.96444189297171
31
0
0
LINE
5
209
100
AcDbEntity
8
0
100
AcDbLine
10
-169.09631595029333
20
109.94550860090293
30
0
11
-169.09631595029333
21
125.12715833934217
31
0
0
LINE
5
210
100
AcDbEntity
8
0
100
AcDbLine
10
-199.09631595029333
20
109.94550860090293
30
0
11
-169.09631595029333
21
109.94550860090293
31
0
0
LINE
5
211
100
AcDbEntity
8
0
100
AcDbLine
10
-199.50277234674206
20
38.51375658344395
30
0
11
-199.50277234674206
21
68.51375658344395
31
0
0
LINE
5
212
100
AcDbEntity
8
0
100
AcDbLine
10
-220.36169772030229
20
68.513756583443936
30
0
11
-241.22062309386249
21
68.513756583444035
31
0
0
LINE
5
213
100
AcDbEntity
8
0
100
AcDbLine
10
-241.22062309386251
20
38.513756583444035
30
0
11
-241.22062309386249
21
68.513756583444035
31
0
0
LINE
5
214
100
AcDbEntity
8
0
100
AcDbLine
10
-241.62707949031127
20
109.94550860090293
30
0
11
-271.62707949031125
21
109.94550860090293
31
0
0
LINE
5
215
100
AcDbEntity
8
0
100
AcDbLine
10
-271.62707949031125
20
109.94550860090293
30
0
11
-271.62707949031125
21
125.12715833934217
31
0
0
SPLINE
5
216
100
AcDbEntity
8
0
100
AcDbSpline
70
12
71
2
41
1
41
3
41
1
72
6
73
3
74
0
42
0.000000001
43
0.0000000001
44
0.0000000001
40
0
40
0
40
0
40
1.5053945631480228
40
1.5053945631480228
40
1.5053945631480228
10
-234.83911364706287
20
130.17080757027739
30
0
10
-228.51714825417514
20
131.96444192277403
30
0
10
-220.36169772030229
20
128.51375658344392
30
0
0
SPLINE
5
217
100
AcDbEntity
8
0
100
AcDbSpline
70
12
71
2
41
1
41
2.9999999999999982
41
1
72
6
73
3
74
0
42
0.000000001
43
0.0000000001
44
0.0000000001
40
0
40
0
40
0
40
1.3661651622249877
40
1.3661651622249877
40
1.3661651622249877
10
-308.74306004974312
20
94.850191719475561
30
0
10
-306.29688993236095
20
91.293771876390451
30
0
10
-297.84618918940305
20
86.924605994060698
30
0
0
SPLINE
5
218
100
AcDbEntity
8
0
100
AcDbSpline
70
12
71
2
41
1
41
3.0000000000002167
41
1
72
6
73
3
74
0
42
0.000000001
43
0.0000000001
44
0.0000000001
40
0
40
0
40
0
40
1.8548582907541302
40
1.8548582907541302
40
1.8548582907541302
10
-290.46697412753059
20
107.5091925433309
30
0
10
-294.98473261454927
20
103.91350307532939
30
0
10
-306.91112366136986
20
99.118992755812471
30
0
0
SPLINE
5
219
100
AcDbEntity
8
0
100
AcDbSpline
70
12
71
2
41
1
41
2.999999999999984
41
1
72
6
73
3
74
0
42
0.000000001
43
0.0000000001
44
0.0000000001
40
0
40
0
40
0
40
1.5102305608741311
40
1.5102305608741311
40
1.5102305608741311
10
-254.89278642197408
20
49.757219156868942
30
0
10
-252.71527768237877
20
59.570266907112313
30
0
10
-255.83935166534752
20
64.188470043092622
30
0
0
SPLINE
5
220
100
AcDbEntity
8
0
100
AcDbSpline
70
12
71
2
41
1
41
3
41
1
72
6
73
3
74
0
42
0.000000001
43
0.0000000001
44
0.0000000001
40
0
40
0
40
0
40
3.0662007027072402
40
3.0662007027072402
40
3.0662007027072402
10
-297.84618918940305
20
86.924605994060698
30
0
10
-285.26635715504358
20
82.301317256467442
30
0
10
-268.7856779567943
20
90.335109374140089
30
0
0
SPLINE
5
221
100
AcDbEntity
8
0
100
AcDbSpline
70
12
71
2
41
1
41
3.0000000000000178
41
1
72
6
73
3
74
0
42
0.000000001
43
0.0000000001
44
0.0000000001
40
0
40
0
40
0
40
3.3471115555065025
40
3.3471115555065025
40
3.3471115555065025
10
-268.7856779567943
20
90.335109374140089
30
0
10
-251.51714636172761
20
79.964439657797513
30
0
10
-255.83935166534752
20
64.188470043092622
30
0
0
SPLINE
5
222
100
AcDbEntity
8
0
100
AcDbSpline
70
12
71
2
41
1
41
3.0000000000000284
41
1
72
6
73
3
74
0
42
0.000000001
43
0.0000000001
44
0.0000000001
40
0
40
0
40
0
40
0.72162298754750487
40
0.72162298754750487
40
0.72162298754750487
10
-306.91112366136986
20
99.118992755812471
30
0
10
-311.26637151838099
20
98.301294784014672
30
0
10
-308.74306004974312
20
94.850191719475561
30
0
0
LINE
5
223
100
AcDbEntity
8
0
100
AcDbLine
10
-209.53684183274731
20
-40.892083259963456
30
0
11
-209.53684183274717
21
-2.1722514881306476
31
0
0
SPLINE
5
224
100
AcDbEntity
8
0
100
AcDbSpline
70
12
71
2
41
1
41
3.0000000000000249
41
1
72
6
73
3
74
0
42
0.000000001
43
0.0000000001
44
0.0000000001
40
0
40
0
40
0
40
3.3451397902502231
40
3.3451397902502231
40
3.3451397902502231
10
-131.24130077299702
20
-29.698693178188211
30
0
10
-144.53684183274734
20
-15.892083259963455
30
0
10
-157.4626737557702
20
-9.3477768333491582
30
0
0
LINE
5
225
100
AcDbEntity
8
0
100
AcDbLine
10
-269.53684183274731
20
-60.892083259963456
30
0
11
-254.53684183274731
21
-60.892083259963456
31
0
0
LINE
5
226
100
AcDbEntity
8
0
100
AcDbLine
10
-284.53684183274731
20
-135.89208325996344
30
0
11
-269.53684183274731
21
-135.89208325996344
31
0
0
LINE
5
227
100
AcDbEntity
8
0
100
AcDbLine
10
-284.53684183274731
20
14.107916740036544
30
0
11
-254.53684183274731
21
14.107916740036544
31
0
0
LINE
5
228
100
AcDbEntity
8
0
100
AcDbLine
10
-239.53684146892016
20
5.2079904883254491
30
0
11
-254.53684183274731
21
14.107916740036544
31
0
0
LINE
5
229
100
AcDbEntity
8
0
100
AcDbLine
10
-209.53684183274731
20
-40.892083259963456
30
0
11
-239.53684183274731
21
-40.892083023199945
31
0
0
LINE
5
230
100
AcDbEntity
8
0
100
AcDbLine
10
-239.53684183274731
20
-40.892083023199945
30
0
11
-239.53684146892016
21
5.2079904883254491
31
0
0
SPLINE
5
231
100
AcDbEntity
8
0
100
AcDbSpline
70
12
71
2
41
1
41
3.0000000000000036
41
1
72
6
73
3
74
0
42
0.000000001
43
0.0000000001
44
0.0000000001
40
0
40
0
40
0
40
5.2694281180860871
40
5.2694281180860871
40
5.2694281180860871
10
-209.53684183274717
20
-2.1722514881306476
30
0
10
-192.22187091471824
20
-2.1722514881306476
30
0
10
-157.4626737557702
20
-9.3477768333491582
30
0
0
SPLINE
5
232
100
AcDbEntity
8
0
100
AcDbSpline
70
12
71
2
41
1
41
1.81953647908377
41
3.8470147760040128
41
7.9816920151055326
41
11.185379527674073
41
6.5829148562487427
41
2.7518570342740887
41
1.5668193424731556
41
1
72
12
73
9
74
0
42
0.000000001
43
0.0000000001
44
0.0000000001
40
0
40
0
40
0
40
0.15841992362593624
40
0.43118368632010345
40
1.2210330184471594
40
2.5082706945028344
40
3.2350078072107533
40
3.3699087457463186
40
3.4794773607330374
40
3.4794773607330374
40
3.4794773607330374
10
-204.53684183274731
20
-85.892083259963456
30
0
10
-194.89202139947562
20
-80.064927531053428
30
0
10
-188.64486913390004
20
-76.307290652421585
30
0
10
-185.63988114788884
20
-74.537184148512651
30
0
10
-184.34735537592033
20
-73.952156760172343
30
0
10
-183.26804175561199
20
-74.20368276875935
30
0
10
-180.91520857613386
20
-75.354011296833662
30
0
10
-177.91919933609037
20
-76.863219205787303
30
0
10
-174.00801001106112
20
-78.857158861684582
30
0
0
SPLINE
5
233
100
AcDbEntity
8
0
100
AcDbSpline
70
12
71
2
41
1
41
3.0000000000000213
41
1
72
6
73
3
74
0
42
0.000000001
43
0.0000000001
44
0.0000000001
40
0
40
0
40
0
40
1.9899498433956611
40
1.9899498433956611
40
1.9899498433956611
10
-129.53684183274729
20
-70.892083259963471
30
0
10
-117.97602185558173
20
-74.438865888851367
30
0
10
-111.34858239633232
20
-68.413920925896434
30
0
0
SPLINE
5
234
100
AcDbEntity
8
0
100
AcDbSpline
70
12
71
2
41
1
41
3.0000000000000053
41
1
72
6
73
3
74
0
42
0.000000001
43
0.0000000001
44
0.0000000001
40
0
40
0
40
0
40
4.5227532725842776
40
4.5227532725842776
40
4.5227532725842776
10
-174.00801001106112
20
-78.857158861684582
30
0
10
-149.53684183274703
20
-75.892083259963584
30
0
10
-129.53684183274729
20
-70.892083259963471
30
0
0
SPLINE
5
235
100
AcDbEntity
8
0
100
AcDbSpline
70
12
71
2
41
1
41
2.9999999999999822
41
1
72
6
73
3
74
0
42
0.000000001
43
0.0000000001
44
0.0000000001
40
0
40
0
40
0
40
7.4501035411766487
40
7.4501035411766487
40
7.4501035411766487
10
-254.53684183274731
20
-135.89208325996344
30
0
10
-234.53684183274731
20
-135.89208325996344
30
0
10
-204.53684183274731
20
-85.892083259963456
30
0
0
SPLINE
5
236
100
AcDbEntity
8
0
100
AcDbSpline
70
12
71
2
41
1
41
3.0000000000000124
41
1
72
6
73
3
74
0
42
0.000000001
43
0.0000000001
44
0.0000000001
40
0
40
0
40
0
40
4.7733101817332644
40
4.7733101817332644
40
4.7733101817332644
10
-111.34858239633232
20
-68.413920925896434
30
0
10
-104.53684183274731
20
-55.892083259963464
30
0
10
-131.24130077299702
20
-29.698693178188211
30
0
0
LINE
5
237
100
AcDbEntity
8
0
100
AcDbLine
10
-269.53684183274731
20
-135.89208325996344
30
0
11
-269.53684183274731
21
-60.892083259963456
31
0
0
LINE
5
238
100
AcDbEntity
8
0
100
AcDbLine
10
-284.53684183274731
20
14.107916740036544
30
0
11
-284.53684183274731
21
-135.89208325996344
31
0
0
LINE
5
239
100
AcDbEntity
8
0
100
AcDbLine
10
-254.53684183274731
20
-60.892083259963456
30
0
11
-254.53684183274731
21
-135.89208325996344
31
0
0
LINE
5
240
100
AcDbEntity
8
0
100
AcDbLine
10
-465.3839151247372
20
51.634062558974286
30
0
11
-451.71175179662561
21
40.390599985549386
31
0
0
LINE
5
241
100
AcDbEntity
8
0
100
AcDbLine
10
-465.3839151247372
20
51.634062558974286
30
0
11
-451.71175179662561
21
40.390599985549386
31
0
0
SPLINE
5
242
100
AcDbEntity
8
0
100
AcDbSpline
70
12
71
2
41
1
41
3.0000000000002167
41
1
72
6
73
3
74
0
42
0.000000001
43
0.0000000001
44
0.0000000001
40
0
40
0
40
0
40
1.8548582907541307
40
1.8548582907541307
40
1.8548582907541307
10
-500.95810283029368
20
109.38603594543623
30
0
10
-505.47586131731231
20
105.79034647743472
30
0
10
-517.40225236413289
20
100.99583615791781
30
0
0
LINE
5
243
100
AcDbEntity
8
0
100
AcDbLine
10
-430.85282642306538
20
70.390599985549272
30
0
11
-409.99390104950521
21
70.390599985549301
31
0
0
LINE
5
244
100
AcDbEntity
8
0
100
AcDbLine
10
-482.11820819307434
20
111.82235200300826
30
0
11
-482.11820819307434
21
127.00400174144752
31
0
0
LINE
5
245
100
AcDbEntity
8
0
100
AcDbLine
10
-396.32173772139362
20
51.634062558974286
30
0
11
-409.99390104950521
21
40.390599985549294
31
0
0
SPLINE
5
246
100
AcDbEntity
8
0
100
AcDbSpline
70
12
71
2
41
1
41
3.0000000000002167
41
1
72
6
73
3
74
0
42
0.000000001
43
0.0000000001
44
0.0000000001
40
0
40
0
40
0
40
1.8548582907541307
40
1.8548582907541307
40
1.8548582907541307
10
-500.95810283029368
20
109.38603594543623
30
0
10
-505.47586131731231
20
105.79034647743472
30
0
10
-517.40225236413289
20
100.99583615791781
30
0
0
SPLINE
5
247
100
AcDbEntity
8
0
100
AcDbSpline
70
12
71
2
41
1
41
3.0000000000000284
41
1
72
6
73
3
74
0
42
0.000000001
43
0.0000000001
44
0.0000000001
40
0
40
0
40
0
40
0.72162298754750975
40
0.72162298754750975
40
0.72162298754750975
10
-517.40225236413289
20
100.99583615791781
30
0
10
-521.75750022114403
20
100.17813818612001
30
0
10
-519.23418875250616
20
96.727035121580911
30
0
0
LINE
5
248
100
AcDbEntity
8
0
100
AcDbLine
10
-409.99390104950521
20
40.390599985549294
30
0
11
-409.99390104950521
21
70.390599985549301
31
0
0
LINE
5
249
100
AcDbEntity
8
0
100
AcDbLine
10
-379.58744465305642
20
111.82235200300826
30
0
11
-379.58744465305642
21
127.00400174144752
31
0
0
SPLINE
5
250
100
AcDbEntity
8
0
100
AcDbSpline
70
12
71
2
41
1
41
2.9999999999999982
41
1
72
6
73
3
74
0
42
0.000000001
43
0.0000000001
44
0.0000000001
40
0
40
0
40
0
40
1.3661651622249884
40
1.3661651622249884
40
1.3661651622249884
10
-519.23418875250616
20
96.727035121580911
30
0
10
-516.78801863512399
20
93.170615278495802
30
0
10
-508.33731789216614
20
88.801449396166049
30
0
0
LINE
5
251
100
AcDbEntity
8
0
100
AcDbLine
10
-409.58744465305642
20
131.84128529507706
30
0
11
-416.37541049630488
21
132.04765097238274
31
0
0
LINE
5
252
100
AcDbEntity
8
0
100
AcDbLine
10
-409.58744465305642
20
131.84128529507706
30
0
11
-416.37541049630488
21
132.04765097238274
31
0
0
SPLINE
5
253
100
AcDbEntity
8
0
100
AcDbSpline
70
12
71
2
41
1
41
3.0000000000000284
41
1
72
6
73
3
74
0
42
0.000000001
43
0.0000000001
44
0.0000000001
40
0
40
0
40
0
40
0.72162298754750975
40
0.72162298754750975
40
0.72162298754750975
10
-517.40225236413289
20
100.99583615791781
30
0
10
-521.75750022114403
20
100.17813818612001
30
0
10
-519.23418875250616
20
96.727035121580911
30
0
0
LINE
5
254
100
AcDbEntity
8
0
100
AcDbLine
10
-409.58744465305642
20
111.82235200300826
30
0
11
-409.58744465305642
21
131.84128529507706
31
0
0
LINE
5
255
100
AcDbEntity
8
0
100
AcDbLine
10
-452.11820819307434
20
111.82235200300826
30
0
11
-482.11820819307434
21
111.82235200300826
31
0
0
LINE
5
256
100
AcDbEntity
8
0
100
AcDbLine
10
-409.58744465305642
20
111.82235200300826
30
0
11
-379.58744465305642
21
111.82235200300826
31
0
0
LINE
5
257
100
AcDbEntity
8
0
100
AcDbLine
10
-409.58744465305642
20
111.82235200300826
30
0
11
-379.58744465305642
21
111.82235200300826
31
0
0
SPLINE
5
258
100
AcDbEntity
8
0
100
AcDbSpline
70
12
71
2
41
1
41
3
41
1
72
6
73
3
74
0
42
0.000000001
43
0.0000000001
44
0.0000000001
40
0
40
0
40
0
40
1.5053945631480157
40
1.5053945631480157
40
1.5053945631480157
10
-416.37541049630488
20
132.04765097238274
30
0
10
-422.69737588919259
20
133.84128532487938
30
0
10
-430.85282642306538
20
130.39059998554927
30
0
0
LINE
5
259
100
AcDbEntity
8
0
100
AcDbLine
10
-452.11820819307434
20
131.84128529507706
30
0
11
-445.33024234982599
21
132.04765097238274
31
0
0
LINE
5
260
100
AcDbEntity
8
0
100
AcDbLine
10
-379.58744465305642
20
111.82235200300826
30
0
11
-379.58744465305642
21
127.00400174144752
31
0
0
LINE
5
261
100
AcDbEntity
8
0
100
AcDbLine
10
-452.11820819307434
20
111.82235200300826
30
0
11
-482.11820819307434
21
111.82235200300826
31
0
0
SPLINE
5
262
100
AcDbEntity
8
0
100
AcDbSpline
70
12
71
2
41
1
41
3
41
1
72
6
73
3
74
0
42
0.000000001
43
0.0000000001
44
0.0000000001
40
0
40
0
40
0
40
3.0662007027072447
40
3.0662007027072447
40
3.0662007027072447
10
-353.36833495396462
20
88.801449396166049
30
0
10
-365.94816698832415
20
84.178160658572793
30
0
10
-382.42884618657342
20
92.21195277624544
30
0
0
LINE
5
263
100
AcDbEntity
8
0
100
AcDbLine
10
-430.85282642306538
20
70.390599985549272
30
0
11
-451.71175179662555
21
70.390599985549386
31
0
0
SPLINE
5
264
100
AcDbEntity
8
0
100
AcDbSpline
70
12
71
2
41
1
41
3.0000000000002167
41
1
72
6
73
3
74
0
42
0.000000001
43
0.0000000001
44
0.0000000001
40
0
40
0
40
0
40
1.8548582907541307
40
1.8548582907541307
40
1.8548582907541307
10
-360.74755001583708
20
109.38603594543623
30
0
10
-356.2297915288184
20
105.79034647743472
30
0
10
-344.30340048199781
20
100.99583615791781
30
0
0
SPLINE
5
265
100
AcDbEntity
8
0
100
AcDbSpline
70
12
71
2
41
1
41
2.999999999999984
41
1
72
6
73
3
74
0
42
0.000000001
43
0.0000000001
44
0.0000000001
40
0
40
0
40
0
40
1.5102305608741324
40
1.5102305608741324
40
1.5102305608741324
10
-396.32173772139362
20
51.634062558974286
30
0
10
-398.4992464609889
20
61.447110309217656
30
0
10
-395.37517247802015
20
66.065313445197958
30
0
0
SPLINE
5
266
100
AcDbEntity
8
0
100
AcDbSpline
70
12
71
2
41
1
41
3.0000000000000178
41
1
72
6
73
3
74
0
42
0.000000001
43
0.0000000001
44
0.0000000001
40
0
40
0
40
0
40
3.3471115555064976
40
3.3471115555064976
40
3.3471115555064976
10
-382.42884618657342
20
92.21195277624544
30
0
10
-399.69737778164006
20
81.841283059902864
30
0
10
-395.37517247802015
20
66.065313445197958
30
0
0
LINE
5
267
100
AcDbEntity
8
0
100
AcDbLine
10
-430.85282642306538
20
70.390599985549272
30
0
11
-409.99390104950521
21
70.390599985549301
31
0
0
SPLINE
5
268
100
AcDbEntity
8
0
100
AcDbSpline
70
12
71
2
41
1
41
2.9999999999999982
41
1
72
6
73
3
74
0
42
0.000000001
43
0.0000000001
44
0.0000000001
40
0
40
0
40
0
40
1.3661651622249884
40
1.3661651622249884
40
1.3661651622249884
10
-342.4714640936246
20
96.727035121580911
30
0
10
-344.91763421100671
20
93.170615278495802
30
0
10
-353.36833495396462
20
88.801449396166049
30
0
0
LINE
5
269
100
AcDbEntity
8
0
100
AcDbLine
10
-452.11820819307434
20
131.84128529507706
30
0
11
-445.33024234982599
21
132.04765097238274
31
0
0
SPLINE
5
270
100
AcDbEntity
8
0
100
AcDbSpline
70
12
71
2
41
1
41
3
41
1
72
6
73
3
74
0
42
0.000000001
43
0.0000000001
44
0.0000000001
40
0
40
0
40
0
40
1.5053945631480228
40
1.5053945631480228
40
1.5053945631480228
10
-445.33024234982599
20
132.04765097238274
30
0
10
-439.00827695693829
20
133.84128532487938
30
0
10
-430.85282642306538
20
130.39059998554927
30
0
0
SPLINE
5
271
100
AcDbEntity
8
0
100
AcDbSpline
70
12
71
2
41
1
41
3.0000000000000284
41
1
72
6
73
3
74
0
42
0.000000001
43
0.0000000001
44
0.0000000001
40
0
40
0
40
0
40
0.72162298754749976
40
0.72162298754749976
40
0.72162298754749976
10
-344.30340048199781
20
100.99583615791781
30
0
10
-339.94815262498673
20
100.17813818612001
30
0
10
-342.4714640936246
20
96.727035121580911
30
0
0
SPLINE
5
272
100
AcDbEntity
8
0
100
AcDbSpline
70
12
71
2
41
1
41
2.999999999999984
41
1
72
6
73
3
74
0
42
0.000000001
43
0.0000000001
44
0.0000000001
40
0
40
0
40
0
40
1.5102305608741324
40
1.5102305608741324
40
1.5102305608741324
10
-396.32173772139362
20
51.634062558974286
30
0
10
-398.4992464609889
20
61.447110309217656
30
0
10
-395.37517247802015
20
66.065313445197958
30
0
0
LINE
5
273
100
AcDbEntity
8
0
100
AcDbLine
10
-451.71175179662561
20
40.390599985549386
30
0
11
-451.71175179662555
21
70.390599985549386
31
0
0
LINE
5
274
100
AcDbEntity
8
0
100
AcDbLine
10
-409.99390104950521
20
40.390599985549294
30
0
11
-409.99390104950521
21
70.390599985549301
31
0
0
SPLINE
5
275
100
AcDbEntity
8
0
100
AcDbSpline
70
12
71
2
41
1
41
2.999999999999984
41
1
72
6
73
3
74
0
42
0.000000001
43
0.0000000001
44
0.0000000001
40
0
40
0
40
0
40
1.5102305608741335
40
1.5102305608741335
40
1.5102305608741335
10
-465.3839151247372
20
51.634062558974286
30
0
10
-463.20640638514192
20
61.447110309217656
30
0
10
-466.33048036811061
20
66.065313445197958
30
0
0
SPLINE
5
276
100
AcDbEntity
8
0
100
AcDbSpline
70
12
71
2
41
1
41
2.9999999999999982
41
1
72
6
73
3
74
0
42
0.000000001
43
0.0000000001
44
0.0000000001
40
0
40
0
40
0
40
1.3661651622249884
40
1.3661651622249884
40
1.3661651622249884
10
-342.4714640936246
20
96.727035121580911
30
0
10
-344.91763421100671
20
93.170615278495802
30
0
10
-353.36833495396462
20
88.801449396166049
30
0
0
SPLINE
5
277
100
AcDbEntity
8
0
100
AcDbSpline
70
12
71
2
41
1
41
3
41
1
72
6
73
3
74
0
42
0.000000001
43
0.0000000001
44
0.0000000001
40
0
40
0
40
0
40
3.066200702707238
40
3.066200702707238
40
3.066200702707238
10
-508.33731789216614
20
88.801449396166049
30
0
10
-495.75748585780667
20
84.178160658572793
30
0
10
-479.27680665955739
20
92.21195277624544
30
0
0
LINE
5
278
100
AcDbEntity
8
0
100
AcDbLine
10
-482.11820819307434
20
111.82235200300826
30
0
11
-482.11820819307434
21
127.00400174144752
31
0
0
SPLINE
5
279
100
AcDbEntity
8
0
100
AcDbSpline
70
12
71
2
41
1
41
3.0000000000000178
41
1
72
6
73
3
74
0
42
0.000000001
43
0.0000000001
44
0.0000000001
40
0
40
0
40
0
40
3.347111555506503
40
3.347111555506503
40
3.347111555506503
10
-479.27680665955739
20
92.21195277624544
30
0
10
-462.00827506449065
20
81.841283059902864
30
0
10
-466.33048036811061
20
66.065313445197958
30
0
0
LINE
5
280
100
AcDbEntity
8
0
100
AcDbLine
10
-452.11820819307434
20
111.82235200300826
30
0
11
-452.11820819307434
21
131.84128529507706
31
0
0
SPLINE
5
281
100
AcDbEntity
8
0
100
AcDbSpline
70
12
71
2
41
1
41
2.9999999999999325
41
1
72
6
73
3
74
0
42
0.000000001
43
0.0000000001
44
0.0000000001
40
0
40
0
40
0
40
2.5813616522162492
40
2.5813616522162492
40
2.5813616522162492
10
-379.58744465305642
20
127.00400174144752
30
0
10
-369.69737509943104
20
116.84128507155962
30
0
10
-360.74755001583708
20
109.38603594543623
30
0
0
SPLINE
5
282
100
AcDbEntity
8
0
100
AcDbSpline
70
12
71
2
41
1
41
3
41
1
72
6
73
3
74
0
42
0.000000001
43
0.0000000001
44
0.0000000001
40
0
40
0
40
0
40
1.5053945631480157
40
1.5053945631480157
40
1.5053945631480157
10
-416.37541049630488
20
132.04765097238274
30
0
10
-422.69737588919259
20
133.84128532487938
30
0
10
-430.85282642306538
20
130.39059998554927
30
0
0
SPLINE
5
283
100
AcDbEntity
8
0
100
AcDbSpline
70
12
71
2
41
1
41
3
41
1
72
6
73
3
74
0
42
0.000000001
43
0.0000000001
44
0.0000000001
40
0
40
0
40
0
40
1.5053945631480228
40
1.5053945631480228
40
1.5053945631480228
10
-445.33024234982599
20
132.04765097238274
30
0
10
-439.00827695693829
20
133.84128532487938
30
0
10
-430.85282642306538
20
130.39059998554927
30
0
0
SPLINE
5
284
100
AcDbEntity
8
0
100
AcDbSpline
70
12
71
2
41
1
41
2.9999999999999325
41
1
72
6
73
3
74
0
42
0.000000001
43
0.0000000001
44
0.0000000001
40
0
40
0
40
0
40
2.5813616522162492
40
2.5813616522162492
40
2.5813616522162492
10
-482.11820819307434
20
127.00400174144752
30
0
10
-492.00827774669972
20
116.84128507155962
30
0
10
-500.95810283029368
20
109.38603594543623
30
0
0
SPLINE
5
285
100
AcDbEntity
8
0
100
AcDbSpline
70
12
71
2
41
1
41
3
41
1
72
6
73
3
74
0
42
0.000000001
43
0.0000000001
44
0.0000000001
40
0
40
0
40
0
40
3.0662007027072447
40
3.0662007027072447
40
3.0662007027072447
10
-353.36833495396462
20
88.801449396166049
30
0
10
-365.94816698832415
20
84.178160658572793
30
0
10
-382.42884618657342
20
92.21195277624544
30
0
0
SPLINE
5
286
100
AcDbEntity
8
0
100
AcDbSpline
70
12
71
2
41
1
41
3
41
1
72
6
73
3
74
0
42
0.000000001
43
0.0000000001
44
0.0000000001
40
0
40
0
40
0
40
3.066200702707238
40
3.066200702707238
40
3.066200702707238
10
-508.33731789216614
20
88.801449396166049
30
0
10
-495.75748585780667
20
84.178160658572793
30
0
10
-479.27680665955739
20
92.21195277624544
30
0
0
SPLINE
5
287
100
AcDbEntity
8
0
100
AcDbSpline
70
12
71
2
41
1
41
3.0000000000000178
41
1
72
6
73
3
74
0
42
0.000000001
43
0.0000000001
44
0.0000000001
40
0
40
0
40
0
40
3.347111555506503
40
3.347111555506503
40
3.347111555506503
10
-479.27680665955739
20
92.21195277624544
30
0
10
-462.00827506449065
20
81.841283059902864
30
0
10
-466.33048036811061
20
66.065313445197958
30
0
0
SPLINE
5
288
100
AcDbEntity
8
0
100
AcDbSpline
70
12
71
2
41
1
41
2.999999999999984
41
1
72
6
73
3
74
0
42
0.000000001
43
0.0000000001
44
0.0000000001
40
0
40
0
40
0
40
1.5102305608741335
40
1.5102305608741335
40
1.5102305608741335
10
-465.3839151247372
20
51.634062558974286
30
0
10
-463.20640638514192
20
61.447110309217656
30
0
10
-466.33048036811061
20
66.065313445197958
30
0
0
SPLINE
5
289
100
AcDbEntity
8
0
100
AcDbSpline
70
12
71
2
41
1
41
3.0000000000000178
41
1
72
6
73
3
74
0
42
0.000000001
43
0.0000000001
44
0.0000000001
40
0
40
0
40
0
40
3.3471115555064976
40
3.3471115555064976
40
3.3471115555064976
10
-382.42884618657342
20
92.21195277624544
30
0
10
-399.69737778164006
20
81.841283059902864
30
0
10
-395.37517247802015
20
66.065313445197958
30
0
0
SPLINE
5
290
100
AcDbEntity
8
0
100
AcDbSpline
70
12
71
2
41
1
41
3.0000000000002167
41
1
72
6
73
3
74
0
42
0.000000001
43
0.0000000001
44
0.0000000001
40
0
40
0
40
0
40
1.8548582907541307
40
1.8548582907541307
40
1.8548582907541307
10
-360.74755001583708
20
109.38603594543623
30
0
10
-356.2297915288184
20
105.79034647743472
30
0
10
-344.30340048199781
20
100.99583615791781
30
0
0
SPLINE
5
291
100
AcDbEntity
8
0
100
AcDbSpline
70
12
71
2
41
1
41
2.9999999999999325
41
1
72
6
73
3
74
0
42
0.000000001
43
0.0000000001
44
0.0000000001
40
0
40
0
40
0
40
2.5813616522162492
40
2.5813616522162492
40
2.5813616522162492
10
-379.58744465305642
20
127.00400174144752
30
0
10
-369.69737509943104
20
116.84128507155962
30
0
10
-360.74755001583708
20
109.38603594543623
30
0
0
SPLINE
5
292
100
AcDbEntity
8
0
100
AcDbSpline
70
12
71
2
41
1
41
3.0000000000000284
41
1
72
6
73
3
74
0
42
0.000000001
43
0.0000000001
44
0.0000000001
40
0
40
0
40
0
40
0.72162298754749976
40
0.72162298754749976
40
0.72162298754749976
10
-344.30340048199781
20
100.99583615791781
30
0
10
-339.94815262498673
20
100.17813818612001
30
0
10
-342.4714640936246
20
96.727035121580911
30
0
0
SPLINE
5
293
100
AcDbEntity
8
0
100
AcDbSpline
70
12
71
2
41
1
41
2.9999999999999325
41
1
72
6
73
3
74
0
42
0.000000001
43
0.0000000001
44
0.0000000001
40
0
40
0
40
0
40
2.5813616522162492
40
2.5813616522162492
40
2.5813616522162492
10
-482.11820819307434
20
127.00400174144752
30
0
10
-492.00827774669972
20
116.84128507155962
30
0
10
-500.95810283029368
20
109.38603594543623
30
0
0
LINE
5
294
100
AcDbEntity
8
0
100
AcDbLine
10
-430.85282642306538
20
70.390599985549272
30
0
11
-451.71175179662555
21
70.390599985549386
31
0
0
SPLINE
5
295
100
AcDbEntity
8
0
100
AcDbSpline
70
12
71
2
41
1
41
2.9999999999999982
41
1
72
6
73
3
74
0
42
0.000000001
43
0.0000000001
44
0.0000000001
40
0
40
0
40
0
40
1.3661651622249884
40
1.3661651622249884
40
1.3661651622249884
10
-519.23418875250616
20
96.727035121580911
30
0
10
-516.78801863512399
20
93.170615278495802
30
0
10
-508.33731789216614
20
88.801449396166049
30
0
0
LINE
5
296
100
AcDbEntity
8
0
100
AcDbLine
10
-451.71175179662561
20
40.390599985549386
30
0
11
-451.71175179662555
21
70.390599985549386
31
0
0
LINE
5
297
100
AcDbEntity
8
0
100
AcDbLine
10
-452.11820819307434
20
111.82235200300826
30
0
11
-452.11820819307434
21
131.84128529507706
31
0
0
LINE
5
298
100
AcDbEntity
8
0
100
AcDbLine
10
-396.32173772139362
20
51.634062558974286
30
0
11
-409.99390104950521
21
40.390599985549294
31
0
0
LINE
5
299
100
AcDbEntity
8
0
100
AcDbLine
10
-409.58744465305642
20
111.82235200300826
30
0
11
-409.58744465305642
21
131.84128529507706
31
0
0
ENDSEC
0
SECTION
2
OBJECTS
0
DICTIONARY
5
C
100
AcDbDictionary
3
ACAD_GROUP
350
D
3
ACAD_MLINESTYLE
350
17
0
DICTIONARY
5
D
100
AcDbDictionary
0
DICTIONARY
5
1A
330
C
100
AcDbDictionary
0
DICTIONARY
5
17
100
AcDbDictionary
0
ENDSEC
0
EOF
