0
SECTION
2
HEADER
9
$INSUNITS
70
4
9
$ACADVER
1
AC1014
9
$HANDSEED
5
FFFF
0
ENDSEC
0
SECTION
2
TABLES
0
TABLE
2
VPORT
5
8
100
AcDbSymbolTable
0
ENDTAB
0
TABLE
2
LTYPE
5
5
100
AcDbSymbolTable
0
LTYPE
5
14
100
AcDbSymbolTableRecord
100
AcDbLinetypeTableRecord
2
BYBLOCK
70
0
0
LTYPE
5
15
100
AcDbSymbolTableRecord
100
AcDbLinetypeTableRecord
2
BYLAYER
70
0
0
ENDTAB
0
TABLE
2
LAYER
5
2
100
AcDbSymbolTable
70
2
0
LAYER
5
50
100
AcDbSymbolTableRecord
100
AcDbLayerTableRecord
2
0
70
0
6
CONTINUOUS
0
ENDTAB
0
TABLE
2
STYLE
5
3
100
AcDbSymbolTable
70
1
0
STYLE
5
11
100
AcDbSymbolTableRecord
100
AcDbTextStyleTableRecord
2
STANDARD
70
0
0
ENDTAB
0
TABLE
2
VIEW
5
6
100
AcDbSymbolTable
70
0
0
ENDTAB
0
TABLE
2
UCS
5
7
100
AcDbSymbolTable
70
0
0
ENDTAB
0
TABLE
2
APPID
5
9
100
AcDbSymbolTable
70
2
0
APPID
5
12
100
AcDbSymbolTableRecord
100
AcDbRegAppTableRecord
2
ACAD
70
0
0
ENDTAB
0
TABLE
2
DIMSTYLE
5
A
100
AcDbSymbolTable
70
1
0
ENDTAB
0
TABLE
2
BLOCK_RECORD
5
1
100
AcDbSymbolTable
70
1
0
BLOCK_RECORD
5
1F
100
AcDbSymbolTableRecord
100
AcDbBlockTableRecord
2
*MODEL_SPACE
0
BLOCK_RECORD
5
1B
100
AcDbSymbolTableRecord
100
AcDbBlockTableRecord
2
*PAPER_SPACE
0
ENDTAB
0
ENDSEC
0
SECTION
2
BLOCKS
0
BLOCK
5
20
100
AcDbEntity
100
AcDbBlockBegin
2
*MODEL_SPACE
0
ENDBLK
5
21
100
AcDbEntity
100
AcDbBlockEnd
0
BLOCK
5
1C
100
AcDbEntity
100
AcDbBlockBegin
2
*PAPER_SPACE
0
ENDBLK
5
1D
100
AcDbEntity
100
AcDbBlockEnd
0
ENDSEC
0
SECTION
2
ENTITIES
0
ARC
5
100
100
AcDbEntity
8
0
100
AcDbCircle
10
255
20
161.09843499235393
30
0
40
200.00301637583476
100
AcDbArc
50
-0.31467528172866682
51
180.31467528172865
0
LINE
5
101
100
AcDbEntity
8
0
100
AcDbLine
10
75
20
45
30
0
11
75
21
160
31
0
0
ARC
5
102
100
AcDbEntity
8
0
100
AcDbCircle
10
258.9422639834242
20
147.97923941993707
30
0
40
178.94595697977647
100
AcDbArc
50
10.308079559802328
51
166.41876635696389
0
LINE
5
103
100
AcDbEntity
8
0
100
AcDbLine
10
85
20
190
30
0
11
75
21
160
31
0
0
LINE
5
104
100
AcDbEntity
8
0
100
AcDbLine
10
75
20
45
30
0
11
75
21
40
31
0
0
LINE
5
105
100
AcDbEntity
8
0
100
AcDbLine
10
75
20
40
30
0
11
55
21
40
31
0
0
LINE
5
106
100
AcDbEntity
8
0
100
AcDbLine
10
55
20
40
30
0
11
55
21
160
31
0
0
LINE
5
107
100
AcDbEntity
8
0
100
AcDbLine
10
455
20
160
30
0
11
435
21
180
31
0
0
ARC
5
108
100
AcDbEntity
8
0
100
AcDbCircle
10
284.28572603348329
20
11.207229436844699
30
-2.3751077280669145e-14
40
178.94595697977644
100
AcDbArc
50
13.581233643036077
51
207.02945796952559
0
ARC
5
109
100
AcDbEntity
8
0
100
AcDbCircle
10
288.22799001690754
20
24.326425009261499
30
-2.326828918379971e-14
40
200.00301637583473
100
AcDbArc
50
-0.31467528172866682
51
210.90087824452158
0
LINE
5
110
100
AcDbEntity
8
0
100
AcDbLine
10
468.22799001690754
20
-91.772009983092474
30
-1.2246467991473525e-15
11
468.22799001690754
21
-96.772009983092474
31
-1.2246467991473525e-15
0
LINE
5
111
100
AcDbEntity
8
0
100
AcDbLine
10
488.22799001690754
20
-96.772009983092474
30
1.2246467991473535e-15
11
488.22799001690754
21
23.22799001690754
31
1.2246467991473535e-15
0
LINE
5
112
100
AcDbEntity
8
0
100
AcDbLine
10
468.22799001690754
20
-96.772009983092474
30
-1.2246467991473525e-15
11
488.22799001690754
21
-96.772009983092474
31
1.2246467991473535e-15
0
LINE
5
113
100
AcDbEntity
8
0
100
AcDbLine
10
116.61399500845377
20
-78.386004991546173
30
-4.7761225166746777e-14
11
124.88550045429363
21
-70.114499545706167
31
-4.5311931568452068e-14
0
LINE
5
114
100
AcDbEntity
8
0
100
AcDbLine
10
468.22799001690754
20
-91.772009983092474
30
-1.2246467991473525e-15
11
468.22799001690754
21
23.22799001690754
31
-1.2246467991473525e-15
0
LINE
5
115
100
AcDbEntity
8
0
100
AcDbLine
10
458.22799001690754
20
53.22799001690754
30
-2.4492935982947061e-15
11
468.22799001690754
21
23.22799001690754
31
-1.2246467991473525e-15
0
ARC
5
116
100
AcDbEntity
8
0
100
AcDbCircle
10
759.28572603348334
20
11.207229436844699
30
-2.3751077280669145e-14
40
178.94595697977644
100
AcDbArc
50
13.581233643036077
51
207.02945796952559
0
LINE
5
117
100
AcDbEntity
8
0
100
AcDbLine
10
943.2279900169076
20
-96.772009983092474
30
-1.2246467991473525e-15
11
963.2279900169076
21
-96.772009983092474
31
1.2246467991473535e-15
0
LINE
5
118
100
AcDbEntity
8
0
100
AcDbLine
10
930
20
160
30
0
11
910
21
180
31
0
0
LINE
5
119
100
AcDbEntity
8
0
100
AcDbLine
10
963.2279900169076
20
23.22799001690754
30
1.2246467991473535e-15
11
943.2279900169076
21
23.22799001690754
31
-1.2246467991473525e-15
0
LINE
5
120
100
AcDbEntity
8
0
100
AcDbLine
10
591.6139950084538
20
-78.386004991546173
30
-4.7761225166746777e-14
11
599.88550045429361
21
-70.114499545706167
31
-4.5311931568452068e-14
0
LINE
5
121
100
AcDbEntity
8
0
100
AcDbLine
10
550
20
45
30
0
11
550
21
160
31
0
0
LINE
5
122
100
AcDbEntity
8
0
100
AcDbLine
10
963.2279900169076
20
-96.772009983092474
30
1.2246467991473535e-15
11
963.2279900169076
21
23.22799001690754
31
1.2246467991473535e-15
0
LINE
5
123
100
AcDbEntity
8
0
100
AcDbLine
10
530
20
40
30
0
11
530
21
160
31
0
0
CIRCLE
5
124
100
AcDbEntity
8
0
100
AcDbCircle
10
953.2279900169076
20
-36.772009983092474
30
0
40
5.9999999999999964
0
ARC
5
125
100
AcDbEntity
8
0
100
AcDbCircle
10
733.94226398342425
20
147.97923941993707
30
0
40
178.94595697977638
100
AcDbArc
50
10.308079559802328
51
166.41876635696389
0
LINE
5
126
100
AcDbEntity
8
0
100
AcDbLine
10
530
20
160
30
0
11
550
21
160
31
0
0
CIRCLE
5
127
100
AcDbEntity
8
0
100
AcDbCircle
10
540
20
70
30
0
40
5.9999999999999964
0
CIRCLE
5
128
100
AcDbEntity
8
0
100
AcDbCircle
10
953.2279900169076
20
-6.7720099830924596
30
0
40
6.0000000000000009
0
LINE
5
129
100
AcDbEntity
8
0
100
AcDbLine
10
550
20
45
30
0
11
550
21
40
31
0
0
CIRCLE
5
130
100
AcDbEntity
8
0
100
AcDbCircle
10
540
20
130
30
0
40
6.0000000000000009
0
LINE
5
131
100
AcDbEntity
8
0
100
AcDbLine
10
943.2279900169076
20
-91.772009983092474
30
-1.2246467991473525e-15
11
943.2279900169076
21
-96.772009983092474
31
-1.2246467991473525e-15
0
LINE
5
132
100
AcDbEntity
8
0
100
AcDbLine
10
560
20
190
30
0
11
550
21
160
31
0
0
ARC
5
133
100
AcDbEntity
8
0
100
AcDbCircle
10
730
20
161.09843499235393
30
0
40
200.00301637583476
100
AcDbArc
50
-0.31467528172866682
51
180.31467528172865
0
LINE
5
134
100
AcDbEntity
8
0
100
AcDbLine
10
943.2279900169076
20
-91.772009983092474
30
-1.2246467991473525e-15
11
943.2279900169076
21
23.22799001690754
31
-1.2246467991473525e-15
0
LINE
5
135
100
AcDbEntity
8
0
100
AcDbLine
10
933.2279900169076
20
53.22799001690754
30
-2.4492935982947061e-15
11
943.2279900169076
21
23.22799001690754
31
-1.2246467991473525e-15
0
ARC
5
136
100
AcDbEntity
8
0
100
AcDbCircle
10
763.2279900169076
20
24.326425009261499
30
-2.326828918379971e-14
40
200.00301637583473
100
AcDbArc
50
-0.31467528172866682
51
210.90087824452158
0
CIRCLE
5
137
100
AcDbEntity
8
0
100
AcDbCircle
10
540
20
100
30
0
40
5.9999999999999964
0
LINE
5
138
100
AcDbEntity
8
0
100
AcDbLine
10
550
20
40
30
0
11
530
21
40
31
0
0
CIRCLE
5
139
100
AcDbEntity
8
0
100
AcDbCircle
10
953.2279900169076
20
-66.772009983092474
30
0
40
5.9999999999999964
0
LINE
5
140
100
AcDbEntity
8
0
100
AcDbLine
10
943.2279900169076
20
-571.7720099830924
30
-1.2246467991473525e-15
11
963.2279900169076
21
-571.7720099830924
31
1.2246467991473535e-15
0
CIRCLE
5
141
100
AcDbEntity
8
0
100
AcDbCircle
10
953.2279900169076
20
-541.7720099830924
30
0
40
5.9999999999999964
0
LINE
5
142
100
AcDbEntity
8
0
100
AcDbLine
10
75
20
-435
30
0
11
55
21
-435
31
0
0
CIRCLE
5
143
100
AcDbEntity
8
0
100
AcDbCircle
10
953.2279900169076
20
-481.77200998309246
30
0
40
6.0000000000000009
0
CIRCLE
5
144
100
AcDbEntity
8
0
100
AcDbCircle
10
953.2279900169076
20
-511.77200998309246
30
0
40
5.9999999999999964
0
LINE
5
145
100
AcDbEntity
8
0
100
AcDbLine
10
530
20
-315
30
0
11
550
21
-315
31
0
0
LINE
5
146
100
AcDbEntity
8
0
100
AcDbLine
10
591.6139950084538
20
-553.3860049915462
30
-4.7761225166746777e-14
11
599.88550045429361
21
-545.11449954570617
31
-4.5311931568452068e-14
0
ARC
5
147
100
AcDbEntity
8
0
100
AcDbCircle
10
759.28572603348334
20
-463.79277056315527
30
-2.3751077280669145e-14
40
178.94595697977644
100
AcDbArc
50
13.581233643036077
51
207.02945796952559
0
ARC
5
148
100
AcDbEntity
8
0
100
AcDbCircle
10
763.2279900169076
20
-450.67357499073853
30
-2.326828918379971e-14
40
200.00301637583473
100
AcDbArc
50
-0.31467528172866682
51
210.90087824452158
0
LINE
5
149
100
AcDbEntity
8
0
100
AcDbLine
10
85
20
-285
30
0
11
75
21
-315
31
0
0
LINE
5
150
100
AcDbEntity
8
0
100
AcDbLine
10
468.22799001690754
20
-566.7720099830924
30
-1.2246467991473525e-15
11
468.22799001690754
21
-571.7720099830924
31
-1.2246467991473525e-15
0
LINE
5
151
100
AcDbEntity
8
0
100
AcDbLine
10
550
20
-430
30
0
11
550
21
-315
31
0
0
LINE
5
152
100
AcDbEntity
8
0
100
AcDbLine
10
458.22799001690754
20
-421.77200998309246
30
-2.4492935982947061e-15
11
468.22799001690754
21
-451.77200998309246
31
-1.2246467991473525e-15
0
LINE
5
153
100
AcDbEntity
8
0
100
AcDbLine
10
943.2279900169076
20
-566.7720099830924
30
-1.2246467991473525e-15
11
943.2279900169076
21
-571.7720099830924
31
-1.2246467991473525e-15
0
LINE
5
154
100
AcDbEntity
8
0
100
AcDbLine
10
963.2279900169076
20
-451.77200998309246
30
1.2246467991473535e-15
11
943.2279900169076
21
-451.77200998309246
31
-1.2246467991473525e-15
0
LINE
5
155
100
AcDbEntity
8
0
100
AcDbLine
10
468.22799001690754
20
-566.7720099830924
30
-1.2246467991473525e-15
11
468.22799001690754
21
-451.77200998309246
31
-1.2246467991473525e-15
0
LINE
5
156
100
AcDbEntity
8
0
100
AcDbLine
10
963.2279900169076
20
-571.7720099830924
30
1.2246467991473535e-15
11
963.2279900169076
21
-451.77200998309246
31
1.2246467991473535e-15
0
LINE
5
157
100
AcDbEntity
8
0
100
AcDbLine
10
468.22799001690754
20
-571.7720099830924
30
-1.2246467991473525e-15
11
488.22799001690754
21
-571.7720099830924
31
1.2246467991473535e-15
0
LINE
5
158
100
AcDbEntity
8
0
100
AcDbLine
10
55
20
-435
30
0
11
55
21
-315
31
0
0
LINE
5
159
100
AcDbEntity
8
0
100
AcDbLine
10
933.2279900169076
20
-421.77200998309246
30
-2.4492935982947061e-15
11
943.2279900169076
21
-451.77200998309246
31
-1.2246467991473525e-15
0
CIRCLE
5
160
100
AcDbEntity
8
0
100
AcDbCircle
10
65
20
-405
30
0
40
5.9999999999999964
0
ARC
5
161
100
AcDbEntity
8
0
100
AcDbCircle
10
733.94226398342425
20
-327.02076058006293
30
0
40
178.94595697977638
100
AcDbArc
50
10.308079559802328
51
166.41876635696389
0
LINE
5
162
100
AcDbEntity
8
0
100
AcDbLine
10
75
20
-430
30
0
11
75
21
-315
31
0
0
LINE
5
163
100
AcDbEntity
8
0
100
AcDbLine
10
930
20
-315
30
0
11
910
21
-295
31
0
0
LINE
5
164
100
AcDbEntity
8
0
100
AcDbLine
10
530
20
-435
30
0
11
530
21
-315
31
0
0
ARC
5
165
100
AcDbEntity
8
0
100
AcDbCircle
10
258.9422639834242
20
-327.02076058006293
30
0
40
178.94595697977647
100
AcDbArc
50
10.308079559802328
51
166.41876635696389
0
LINE
5
166
100
AcDbEntity
8
0
100
AcDbLine
10
55
20
-315
30
0
11
75
21
-315
31
0
0
ARC
5
167
100
AcDbEntity
8
0
100
AcDbCircle
10
284.28572603348329
20
-463.79277056315527
30
-2.3751077280669145e-14
40
178.94595697977644
100
AcDbArc
50
13.581233643036077
51
207.02945796952559
0
LINE
5
168
100
AcDbEntity
8
0
100
AcDbLine
10
75
20
-430
30
0
11
75
21
-435
31
0
0
LINE
5
169
100
AcDbEntity
8
0
100
AcDbLine
10
943.2279900169076
20
-566.7720099830924
30
-1.2246467991473525e-15
11
943.2279900169076
21
-451.77200998309246
31
-1.2246467991473525e-15
0
CIRCLE
5
170
100
AcDbEntity
8
0
100
AcDbCircle
10
65
20
-345
30
0
40
6.0000000000000009
0
LINE
5
171
100
AcDbEntity
8
0
100
AcDbLine
10
488.22799001690754
20
-571.7720099830924
30
1.2246467991473535e-15
11
488.22799001690754
21
-451.77200998309246
31
1.2246467991473535e-15
0
LINE
5
172
100
AcDbEntity
8
0
100
AcDbLine
10
488.22799001690754
20
-451.77200998309246
30
1.2246467991473535e-15
11
468.22799001690754
21
-451.77200998309246
31
-1.2246467991473525e-15
0
LINE
5
173
100
AcDbEntity
8
0
100
AcDbLine
10
455
20
-315
30
0
11
435
21
-295
31
0
0
ARC
5
174
100
AcDbEntity
8
0
100
AcDbCircle
10
730
20
-313.90156500764607
30
0
40
200.00301637583476
100
AcDbArc
50
-0.31467528172866682
51
180.31467528172865
0
ARC
5
175
100
AcDbEntity
8
0
100
AcDbCircle
10
255
20
-313.90156500764607
30
0
40
200.00301637583476
100
AcDbArc
50
-0.31467528172866682
51
180.31467528172865
0
CIRCLE
5
176
100
AcDbEntity
8
0
100
AcDbCircle
10
478.22799001690754
20
-541.7720099830924
30
0
40
5.9999999999999964
0
LINE
5
177
100
AcDbEntity
8
0
100
AcDbLine
10
550
20
-430
30
0
11
550
21
-435
31
0
0
CIRCLE
5
178
100
AcDbEntity
8
0
100
AcDbCircle
10
65
20
-375
30
0
40
5.9999999999999964
0
LINE
5
179
100
AcDbEntity
8
0
100
AcDbLine
10
116.61399500845377
20
-553.3860049915462
30
-4.7761225166746777e-14
11
124.88550045429363
21
-545.11449954570617
31
-4.5311931568452068e-14
0
CIRCLE
5
180
100
AcDbEntity
8
0
100
AcDbCircle
10
478.22799001690754
20
-511.77200998309246
30
0
40
5.9999999999999964
0
CIRCLE
5
181
100
AcDbEntity
8
0
100
AcDbCircle
10
478.22799001690754
20
-481.77200998309246
30
0
40
6.0000000000000009
0
CIRCLE
5
182
100
AcDbEntity
8
0
100
AcDbCircle
10
540
20
-405
30
0
40
5.9999999999999964
0
CIRCLE
5
183
100
AcDbEntity
8
0
100
AcDbCircle
10
540
20
-345
30
0
40
6.0000000000000009
0
CIRCLE
5
184
100
AcDbEntity
8
0
100
AcDbCircle
10
540
20
-375
30
0
40
5.9999999999999964
0
ARC
5
185
100
AcDbEntity
8
0
100
AcDbCircle
10
288.22799001690754
20
-450.67357499073853
30
-2.326828918379971e-14
40
200.00301637583473
100
AcDbArc
50
-0.31467528172866682
51
210.90087824452158
0
LINE
5
186
100
AcDbEntity
8
0
100
AcDbLine
10
550
20
-435
30
0
11
530
21
-435
31
0
0
LINE
5
187
100
AcDbEntity
8
0
100
AcDbLine
10
560
20
-285
30
0
11
550
21
-315
31
0
0
ENDSEC
0
SECTION
2
OBJECTS
0
DICTIONARY
5
C
100
AcDbDictionary
3
ACAD_GROUP
350
D
3
ACAD_MLINESTYLE
350
17
0
DICTIONARY
5
D
100
AcDbDictionary
0
DICTIONARY
5
1A
330
C
100
AcDbDictionary
0
DICTIONARY
5
17
100
AcDbDictionary
0
ENDSEC
0
EOF
