0
SECTION
2
HEADER
9
$INSUNITS
70
4
9
$ACADVER
1
AC1014
9
$HANDSEED
5
FFFF
0
ENDSEC
0
SECTION
2
TABLES
0
TABLE
2
VPORT
5
8
100
AcDbSymbolTable
0
ENDTAB
0
TABLE
2
LTYPE
5
5
100
AcDbSymbolTable
0
LTYPE
5
14
100
AcDbSymbolTableRecord
100
AcDbLinetypeTableRecord
2
BYBLOCK
70
0
0
LTYPE
5
15
100
AcDbSymbolTableRecord
100
AcDbLinetypeTableRecord
2
BYLAYER
70
0
0
ENDTAB
0
TABLE
2
LAYER
5
2
100
AcDbSymbolTable
70
2
0
LAYER
5
50
100
AcDbSymbolTableRecord
100
AcDbLayerTableRecord
2
0
70
0
6
CONTINUOUS
0
ENDTAB
0
TABLE
2
STYLE
5
3
100
AcDbSymbolTable
70
1
0
STYLE
5
11
100
AcDbSymbolTableRecord
100
AcDbTextStyleTableRecord
2
STANDARD
70
0
0
ENDTAB
0
TABLE
2
VIEW
5
6
100
AcDbSymbolTable
70
0
0
ENDTAB
0
TABLE
2
UCS
5
7
100
AcDbSymbolTable
70
0
0
ENDTAB
0
TABLE
2
APPID
5
9
100
AcDbSymbolTable
70
2
0
APPID
5
12
100
AcDbSymbolTableRecord
100
AcDbRegAppTableRecord
2
ACAD
70
0
0
ENDTAB
0
TABLE
2
DIMSTYLE
5
A
100
AcDbSymbolTable
70
1
0
ENDTAB
0
TABLE
2
BLOCK_RECORD
5
1
100
AcDbSymbolTable
70
1
0
BLOCK_RECORD
5
1F
100
AcDbSymbolTableRecord
100
AcDbBlockTableRecord
2
*MODEL_SPACE
0
BLOCK_RECORD
5
1B
100
AcDbSymbolTableRecord
100
AcDbBlockTableRecord
2
*PAPER_SPACE
0
ENDTAB
0
ENDSEC
0
SECTION
2
BLOCKS
0
BLOCK
5
20
100
AcDbEntity
100
AcDbBlockBegin
2
*MODEL_SPACE
0
ENDBLK
5
21
100
AcDbEntity
100
AcDbBlockEnd
0
BLOCK
5
1C
100
AcDbEntity
100
AcDbBlockBegin
2
*PAPER_SPACE
0
ENDBLK
5
1D
100
AcDbEntity
100
AcDbBlockEnd
0
ENDSEC
0
SECTION
2
ENTITIES
0
LINE
5
100
100
AcDbEntity
8
0
100
AcDbLine
10
6.0877713474246464
20
9.199999999999994
30
0
11
6.0877713474246464
21
12.819999999999993
31
0
0
LINE
5
101
100
AcDbEntity
8
0
100
AcDbLine
10
10.89777134742466
20
5.4082352941176426
30
0
11
7.2777713474246593
21
5.4082352941176426
31
0
0
LINE
5
102
100
AcDbEntity
8
0
100
AcDbLine
10
7.2777713474246593
20
5.4082352941176426
30
0
11
7.2777713474246557
21
9.199999999999994
31
0
0
LINE
5
103
100
AcDbEntity
8
0
100
AcDbLine
10
7.2777713474246557
20
9.199999999999994
30
0
11
6.0877713474246464
21
9.199999999999994
31
0
0
LINE
5
104
100
AcDbEntity
8
0
100
AcDbLine
10
6.0877713474246464
20
12.819999999999993
30
0
11
0.087771347424645402
21
12.820000000000007
31
0
0
LINE
5
105
100
AcDbEntity
8
0
100
AcDbLine
10
0.087771347424645402
20
12.820000000000007
30
0
11
0.087771347424637131
21
9.2000000000000064
31
0
0
LINE
5
106
100
AcDbEntity
8
0
100
AcDbLine
10
0.087771347424637131
20
9.2000000000000064
30
0
11
-3.5322286525753626
21
9.2000000000000064
31
0
0
LINE
5
107
100
AcDbEntity
8
0
100
AcDbLine
10
-3.5322286525753626
20
9.2000000000000064
30
0
11
-3.5322286525753706
21
3.0308758738674433
31
0
0
LINE
5
108
100
AcDbEntity
8
0
100
AcDbLine
10
-3.5322286525753706
20
3.0308758738674433
30
0
11
0.087771347424628943
21
3.0308758738674384
31
0
0
LINE
5
109
100
AcDbEntity
8
0
100
AcDbLine
10
0.087771347424628943
20
3.0308758738674384
30
0
11
0.087771347424628485
21
1.8408758738674402
31
0
0
LINE
5
110
100
AcDbEntity
8
0
100
AcDbLine
10
0.087771347424628485
20
1.8408758738674402
30
0
11
4.4677713474246321
21
1.840875873867438
31
0
0
LINE
5
111
100
AcDbEntity
8
0
100
AcDbLine
10
4.4677713474246321
20
1.840875873867438
30
0
11
4.4677713474246303
21
0.030875873867437946
31
0
0
LINE
5
112
100
AcDbEntity
8
0
100
AcDbLine
10
0.10575679241663138
20
-1.9068704568028942
30
0
11
4.4677713474246428
21
-1.9063404395277928
31
0
0
LINE
5
113
100
AcDbEntity
8
0
100
AcDbLine
10
4.4677713474246428
20
-1.9063404395277928
30
0
11
4.4677713474246303
21
0.030875873867437946
31
0
0
LINE
5
114
100
AcDbEntity
8
0
100
AcDbLine
10
7.1957567924166526
20
-8.9999999999999947
30
0
11
6.10575679241665
21
-8.9999999999999947
31
0
0
LINE
5
115
100
AcDbEntity
8
0
100
AcDbLine
10
6.10575679241665
20
-12.819999999999997
30
0
11
0.10575679241664915
21
-12.820000000000009
31
0
0
LINE
5
116
100
AcDbEntity
8
0
100
AcDbLine
10
7.1957567924166543
20
-6.8199999999999941
30
0
11
7.1957567924166526
21
-8.9999999999999947
31
0
0
LINE
5
117
100
AcDbEntity
8
0
100
AcDbLine
10
0.10575679241664915
20
-12.820000000000009
30
0
11
0.10575679241664027
21
-9.0000000000000071
31
0
0
LINE
5
118
100
AcDbEntity
8
0
100
AcDbLine
10
0.10575679241664027
20
-9.0000000000000071
30
0
11
-3.71424320758336
21
-9.0000000000000071
31
0
0
LINE
5
119
100
AcDbEntity
8
0
100
AcDbLine
10
6.10575679241665
20
-8.9999999999999947
30
0
11
6.10575679241665
21
-12.819999999999997
31
0
0
LINE
5
120
100
AcDbEntity
8
0
100
AcDbLine
10
11.015756792416658
20
-6.8199999999999941
30
0
11
7.1957567924166543
21
-6.8199999999999941
31
0
0
LINE
5
121
100
AcDbEntity
8
0
100
AcDbLine
10
-3.71424320758336
20
-9.0000000000000071
30
0
11
-3.7142432075833676
21
-3.0000000000000062
31
0
0
LINE
5
122
100
AcDbEntity
8
0
100
AcDbLine
10
-3.7142432075833676
20
-3.0000000000000062
30
0
11
0.10575679241663249
21
-3.0000000000000004
31
0
0
LINE
5
123
100
AcDbEntity
8
0
100
AcDbLine
10
0.10575679241663249
20
-3.0000000000000004
30
0
11
0.10575679241663138
21
-1.9068704568028942
31
0
0
LINE
5
124
100
AcDbEntity
8
0
100
AcDbLine
10
15.087771347424647
20
17.516477127068363
30
0
11
15.087771347424647
21
-6.4835232305595056
31
0
0
LINE
5
125
100
AcDbEntity
8
0
100
AcDbLine
10
18.087771347424649
20
13.408235294117643
30
0
11
15.087771347424647
21
13.408235294117643
31
0
0
LINE
5
126
100
AcDbEntity
8
0
100
AcDbLine
10
22.897771347424644
20
9.199999999999994
30
0
11
24.087771347424649
21
9.199999999999994
31
0
0
LINE
5
127
100
AcDbEntity
8
0
100
AcDbLine
10
18.087771347424649
20
9.199999999999994
30
0
11
19.277771347424657
21
9.199999999999994
31
0
0
LINE
5
128
100
AcDbEntity
8
0
100
AcDbLine
10
22.897771347424634
20
5.4082352941176426
30
0
11
22.897771347424644
21
9.199999999999994
31
0
0
LINE
5
129
100
AcDbEntity
8
0
100
AcDbLine
10
19.277771347424636
20
5.4082352941176426
30
0
11
22.897771347424634
21
5.4082352941176426
31
0
0
LINE
5
130
100
AcDbEntity
8
0
100
AcDbLine
10
19.277771347424657
20
9.199999999999994
30
0
11
19.277771347424636
21
5.4082352941176426
31
0
0
LINE
5
131
100
AcDbEntity
8
0
100
AcDbLine
10
24.087771347424649
20
9.199999999999994
30
0
11
24.087771347424649
21
12.819999999999993
31
0
0
LINE
5
132
100
AcDbEntity
8
0
100
AcDbLine
10
18.087771347424649
20
13.408235294117643
30
0
11
18.087771347424649
21
9.199999999999994
31
0
0
LINE
5
133
100
AcDbEntity
8
0
100
AcDbLine
10
24.087771347424649
20
12.819999999999993
30
0
11
30.087771347424649
21
12.820000000000007
31
0
0
LINE
5
134
100
AcDbEntity
8
0
100
AcDbLine
10
30.087771347424649
20
12.820000000000007
30
0
11
30.08777134742466
21
9.2000000000000064
31
0
0
LINE
5
135
100
AcDbEntity
8
0
100
AcDbLine
10
30.08777134742466
20
9.2000000000000064
30
0
11
33.707771347424654
21
9.2000000000000064
31
0
0
LINE
5
136
100
AcDbEntity
8
0
100
AcDbLine
10
33.707771347424654
20
9.2000000000000064
30
0
11
33.707771347424668
21
3.0308758738674459
31
0
0
LINE
5
137
100
AcDbEntity
8
0
100
AcDbLine
10
12.087771347424647
20
13.408235294117643
30
0
11
15.087771347424647
21
13.408235294117643
31
0
0
LINE
5
138
100
AcDbEntity
8
0
100
AcDbLine
10
12.087771347424647
20
9.199999999999994
30
0
11
10.897771347424639
21
9.199999999999994
31
0
0
LINE
5
139
100
AcDbEntity
8
0
100
AcDbLine
10
10.897771347424639
20
9.199999999999994
30
0
11
10.89777134742466
21
5.4082352941176426
31
0
0
LINE
5
140
100
AcDbEntity
8
0
100
AcDbLine
10
12.087771347424647
20
13.408235294117643
30
0
11
12.087771347424647
21
9.199999999999994
31
0
0
LINE
5
141
100
AcDbEntity
8
0
100
AcDbLine
10
12.105756792416649
20
-12.819999999999997
30
0
11
12.105756792416649
21
-8.9999999999999947
31
0
0
LINE
5
142
100
AcDbEntity
8
0
100
AcDbLine
10
11.015756792416649
20
-8.9999999999999947
30
0
11
11.015756792416658
21
-6.8199999999999941
31
0
0
LINE
5
143
100
AcDbEntity
8
0
100
AcDbLine
10
25.707771347424668
20
1.8408758738674393
30
0
11
25.707771347424668
21
0.030875873867439247
31
0
0
LINE
5
144
100
AcDbEntity
8
0
100
AcDbLine
10
30.087771347424667
20
1.8408758738674422
30
0
11
25.707771347424668
21
1.8408758738674393
31
0
0
LINE
5
145
100
AcDbEntity
8
0
100
AcDbLine
10
30.087771347424663
20
3.0308758738674402
30
0
11
30.087771347424667
21
1.8408758738674422
31
0
0
LINE
5
146
100
AcDbEntity
8
0
100
AcDbLine
10
33.707771347424668
20
3.0308758738674459
30
0
11
30.087771347424663
21
3.0308758738674402
31
0
0
LINE
5
147
100
AcDbEntity
8
0
100
AcDbLine
10
30.047200643791374
20
-2.9999999999999987
30
0
11
30.047200643930108
21
-1.9058455833539152
31
0
0
LINE
5
148
100
AcDbEntity
8
0
100
AcDbLine
10
30.047200643930108
20
-1.9058455833539152
30
0
11
25.707771347424654
21
-1.9063404395277914
31
0
0
LINE
5
149
100
AcDbEntity
8
0
100
AcDbLine
10
25.707771347424654
20
-1.9063404395277914
30
0
11
25.707771347424668
21
0.030875873867439247
31
0
0
LINE
5
150
100
AcDbEntity
8
0
100
AcDbLine
10
18.047200660158961
20
-12.819999999999991
30
0
11
15.047200660158959
21
-12.819999999999991
31
0
0
LINE
5
151
100
AcDbEntity
8
0
100
AcDbLine
10
22.957200660158961
20
-8.9999999999999929
30
0
11
24.047200660158961
21
-8.9999999999999929
31
0
0
LINE
5
152
100
AcDbEntity
8
0
100
AcDbLine
10
18.047200660158961
20
-8.9999999999999929
30
0
11
19.13720066015896
21
-8.9999999999999929
31
0
0
LINE
5
153
100
AcDbEntity
8
0
100
AcDbLine
10
22.957200660158954
20
-6.8199999999999905
30
0
11
22.957200660158961
21
-8.9999999999999929
31
0
0
LINE
5
154
100
AcDbEntity
8
0
100
AcDbLine
10
19.137200660158953
20
-6.8199999999999914
30
0
11
22.957200660158954
21
-6.8199999999999905
31
0
0
LINE
5
155
100
AcDbEntity
8
0
100
AcDbLine
10
19.13720066015896
20
-8.9999999999999929
30
0
11
19.137200660158953
21
-6.8199999999999914
31
0
0
LINE
5
156
100
AcDbEntity
8
0
100
AcDbLine
10
24.047200660158961
20
-8.9999999999999929
30
0
11
24.047200660158961
21
-12.819999999999991
31
0
0
LINE
5
157
100
AcDbEntity
8
0
100
AcDbLine
10
18.047200660158961
20
-12.819999999999991
30
0
11
18.047200660158961
21
-8.9999999999999929
31
0
0
LINE
5
158
100
AcDbEntity
8
0
100
AcDbLine
10
24.047200660158961
20
-12.819999999999991
30
0
11
30.047200660158964
21
-12.820000000000004
31
0
0
LINE
5
159
100
AcDbEntity
8
0
100
AcDbLine
10
30.047200660158964
20
-12.820000000000004
30
0
11
30.047200660158975
21
-9.0000000000000071
31
0
0
LINE
5
160
100
AcDbEntity
8
0
100
AcDbLine
10
30.047200660158975
20
-9.0000000000000071
30
0
11
33.867200660158971
21
-9.0000000000000071
31
0
0
LINE
5
161
100
AcDbEntity
8
0
100
AcDbLine
10
33.867200660158971
20
-9.0000000000000071
30
0
11
33.867200660158979
21
-3.0000000000000036
31
0
0
LINE
5
162
100
AcDbEntity
8
0
100
AcDbLine
10
33.867200660158979
20
-3.0000000000000036
30
0
11
30.047200643791374
21
-2.9999999999999987
31
0
0
LINE
5
163
100
AcDbEntity
8
0
100
AcDbLine
10
12.105756792416649
20
-12.819999999999997
30
0
11
15.105756792416651
21
-12.819999999999997
31
0
0
LINE
5
164
100
AcDbEntity
8
0
100
AcDbLine
10
12.105756792416649
20
-8.9999999999999947
30
0
11
11.015756792416649
21
-8.9999999999999947
31
0
0
ENDSEC
0
SECTION
2
OBJECTS
0
DICTIONARY
5
C
100
AcDbDictionary
3
ACAD_GROUP
350
D
3
ACAD_MLINESTYLE
350
17
0
DICTIONARY
5
D
100
AcDbDictionary
0
DICTIONARY
5
1A
330
C
100
AcDbDictionary
0
DICTIONARY
5
17
100
AcDbDictionary
0
ENDSEC
0
EOF
