  0
SECTION
  2
HEADER
  9
$ACADVER
  1
AC1012
  9
$DWGCODEPAGE
  3
ansi_932
  9
$INSBASE
 10
0.0
 20
0.0
 30
0.0
  9
$EXTMIN
 10
1.000000000000000E+20
 20
1.000000000000000E+20
 30
1.000000000000000E+20
  9
$EXTMAX
 10
-1.000000000000000E+20
 20
-1.000000000000000E+20
 30
-1.000000000000000E+20
  9
$LIMMIN
 10
0.0
 20
0.0
  9
$LIMMAX
 10
12.0
 20
9.0
  9
$ORTHOMODE
 70
     0
  9
$REGENMODE
 70
     1
  9
$FILLMODE
 70
     1
  9
$QTEXTMODE
 70
     0
  9
$MIRRTEXT
 70
     1
  9
$DRAGMODE
 70
     2
  9
$LTSCALE
 40
1.0
  9
$OSMODE
 70
    37
  9
$ATTMODE
 70
     1
  9
$TEXTSIZE
 40
0.2
  9
$TRACEWID
 40
0.05
  9
$TEXTSTYLE
  7
STANDARD
  9
$CLAYER
  8
0
  9
$CELTYPE
  6
BYLAYER
  9
$CECOLOR
 62
   256
  9
$CELTSCALE
 40
1.0
  9
$DELOBJ
 70
     1
  9
$DISPSILH
 70
     0
  9
$DIMSCALE
 40
1.0
  9
$DIMASZ
 40
0.18
  9
$DIMEXO
 40
0.0625
  9
$DIMDLI
 40
0.38
  9
$DIMRND
 40
0.0
  9
$DIMDLE
 40
0.0
  9
$DIMEXE
 40
0.18
  9
$DIMTP
 40
0.0
  9
$DIMTM
 40
0.0
  9
$DIMTXT
 40
0.18
  9
$DIMCEN
 40
0.09
  9
$DIMTSZ
 40
0.0
  9
$DIMTOL
 70
     0
  9
$DIMLIM
 70
     0
  9
$DIMTIH
 70
     1
  9
$DIMTOH
 70
     1
  9
$DIMSE1
 70
     0
  9
$DIMSE2
 70
     0
  9
$DIMTAD
 70
     0
  9
$DIMZIN
 70
     0
  9
$DIMBLK
  1

  9
$DIMASO
 70
     1
  9
$DIMSHO
 70
     1
  9
$DIMPOST
  1

  9
$DIMAPOST
  1

  9
$DIMALT
 70
     0
  9
$DIMALTD
 70
     2
  9
$DIMALTF
 40
25.4
  9
$DIMLFAC
 40
1.0
  9
$DIMTOFL
 70
     0
  9
$DIMTVP
 40
0.0
  9
$DIMTIX
 70
     0
  9
$DIMSOXD
 70
     0
  9
$DIMSAH
 70
     0
  9
$DIMBLK1
  1

  9
$DIMBLK2
  1

  9
$DIMSTYLE
  2
STANDARD
  9
$DIMCLRD
 70
     0
  9
$DIMCLRE
 70
     0
  9
$DIMCLRT
 70
     0
  9
$DIMTFAC
 40
1.0
  9
$DIMGAP
 40
0.09
  9
$DIMJUST
 70
     0
  9
$DIMSD1
 70
     0
  9
$DIMSD2
 70
     0
  9
$DIMTOLJ
 70
     1
  9
$DIMTZIN
 70
     0
  9
$DIMALTZ
 70
     0
  9
$DIMALTTZ
 70
     0
  9
$DIMFIT
 70
     3
  9
$DIMUPT
 70
     0
  9
$DIMUNIT
 70
     2
  9
$DIMDEC
 70
     4
  9
$DIMTDEC
 70
     4
  9
$DIMALTU
 70
     2
  9
$DIMALTTD
 70
     2
  9
$DIMTXSTY
  7
STANDARD
  9
$DIMAUNIT
 70
     0
  9
$LUNITS
 70
     2
  9
$LUPREC
 70
     4
  9
$SKETCHINC
 40
0.1
  9
$FILLETRAD
 40
0.5
  9
$AUNITS
 70
     0
  9
$AUPREC
 70
     0
  9
$MENU
  1
.
  9
$ELEVATION
 40
0.0
  9
$PELEVATION
 40
0.0
  9
$THICKNESS
 40
0.0
  9
$LIMCHECK
 70
     0
  9
$CHAMFERA
 40
0.5
  9
$CHAMFERB
 40
0.5
  9
$CHAMFERC
 40
1.0
  9
$CHAMFERD
 40
0.0
  9
$SKPOLY
 70
     0
  9
$TDCREATE
 40
2457925.524398148
  9
$TDUPDATE
 40
2457925.52439816
  9
$TDINDWG
 40
0.0000000116
  9
$TDUSRTIMER
 40
0.0000000116
  9
$USRTIMER
 70
     1
  9
$ANGBASE
 50
0.0
  9
$ANGDIR
 70
     0
  9
$PDMODE
 70
     0
  9
$PDSIZE
 40
0.0
  9
$PLINEWID
 40
0.0
  9
$COORDS
 70
     1
  9
$SPLFRAME
 70
     0
  9
$SPLINETYPE
 70
     6
  9
$SPLINESEGS
 70
     8
  9
$ATTDIA
 70
     0
  9
$ATTREQ
 70
     1
  9
$HANDLING
 70
     1
  9
$HANDSEED
  5
317
  9
$SURFTAB1
 70
     6
  9
$SURFTAB2
 70
     6
  9
$SURFTYPE
 70
     6
  9
$SURFU
 70
     6
  9
$SURFV
 70
     6
  9
$UCSNAME
  2

  9
$UCSORG
 10
0.0
 20
0.0
 30
0.0
  9
$UCSXDIR
 10
1.0
 20
0.0
 30
0.0
  9
$UCSYDIR
 10
0.0
 20
1.0
 30
0.0
  9
$PUCSNAME
  2

  9
$PUCSORG
 10
0.0
 20
0.0
 30
0.0
  9
$PUCSXDIR
 10
1.0
 20
0.0
 30
0.0
  9
$PUCSYDIR
 10
0.0
 20
1.0
 30
0.0
  9
$USERI1
 70
     0
  9
$USERI2
 70
     0
  9
$USERI3
 70
     0
  9
$USERI4
 70
     0
  9
$USERI5
 70
     0
  9
$USERR1
 40
0.0
  9
$USERR2
 40
0.0
  9
$USERR3
 40
0.0
  9
$USERR4
 40
0.0
  9
$USERR5
 40
0.0
  9
$WORLDVIEW
 70
     1
  9
$SHADEDGE
 70
     3
  9
$SHADEDIF
 70
    70
  9
$TILEMODE
 70
     1
  9
$MAXACTVP
 70
    64
  9
$PINSBASE
 10
0.0
 20
0.0
 30
0.0
  9
$PLIMCHECK
 70
     0
  9
$PEXTMIN
 10
1.000000000000000E+20
 20
1.000000000000000E+20
 30
1.000000000000000E+20
  9
$PEXTMAX
 10
-1.000000000000000E+20
 20
-1.000000000000000E+20
 30
-1.000000000000000E+20
  9
$PLIMMIN
 10
0.0
 20
0.0
  9
$PLIMMAX
 10
12.0
 20
9.0
  9
$UNITMODE
 70
     0
  9
$VISRETAIN
 70
     1
  9
$PLINEGEN
 70
     0
  9
$PSLTSCALE
 70
     1
  9
$TREEDEPTH
 70
  3020
  9
$PICKSTYLE
 70
     1
  9
$CMLSTYLE
  2
STANDARD
  9
$CMLJUST
 70
     0
  9
$CMLSCALE
 40
1.0
  9
$SAVEIMAGES
 70
     1
  0
ENDSEC
  0
SECTION
  2
CLASSES
  0
CLASS
  1
ACDBDICTIONARYWDFLT
  2
AcDbDictionaryWithDefault
  3
ObjectDBX Classes
 90
    32768
280
     0
281
     0
  0
CLASS
  1
VISUALSTYLE
  2
AcDbVisualStyle
  3
ObjectDBX Classes
 90
     4095
280
     0
281
     0
  0
CLASS
  1
XRECORD
  2
AcDbXrecord
  3
AutoCAD 2000
 90
    32768
280
     0
281
     0
  0
CLASS
  1
LWPOLYLINE
  2
AcDbPolyline
  3
AutoCAD 2000
 90
    32768
280
     0
281
     1
  0
CLASS
  1
HATCH
  2
AcDbHatch
  3
AutoCAD 2000
 90
    32768
280
     0
281
     1
  0
CLASS
  1
ACDBPLACEHOLDER
  2
AcDbPlaceHolder
  3
ObjectDBX Classes
 90
        0
280
     0
281
     0
  0
CLASS
  1
LAYOUT
  2
AcDbLayout
  3
ObjectDBX Classes
 90
        0
280
     0
281
     0
  0
ENDSEC
  0
SECTION
  2
TABLES
  0
TABLE
  2
VPORT
  5
8
330
0
100
AcDbSymbolTable
 70
     1
  0
VPORT
  5
29
330
8
100
AcDbSymbolTableRecord
100
AcDbViewportTableRecord
  2
*ACTIVE
 70
     0
 10
0.0
 20
0.0
 11
1.0
 21
1.0
 12
0.0
 22
0.0
 13
0.0
 23
0.0
 14
0.5
 24
0.5
 15
0.5
 25
0.5
 16
0.0
 26
0.0
 36
1.0
 17
500.0008326657984
 27
-355.000208787118
 37
0.0
 40
710.000417574236
 41
1.408452221405967
 42
50.0
 43
0.0
 44
0.0
 50
0.0
 51
0.0
 71
     0
 72
   100
 73
     1
 74
     3
 75
     0
 76
     0
 77
     0
 78
     0
  0
ENDTAB
  0
TABLE
  2
LTYPE
  5
5
330
0
100
AcDbSymbolTable
 70
     1
  0
LTYPE
  5
14
330
5
100
AcDbSymbolTableRecord
100
AcDbLinetypeTableRecord
  2
BYBLOCK
 70
     0
  3

 72
    65
 73
     0
 40
0.0
  0
LTYPE
  5
15
330
5
100
AcDbSymbolTableRecord
100
AcDbLinetypeTableRecord
  2
BYLAYER
 70
     0
  3

 72
    65
 73
     0
 40
0.0
  0
LTYPE
  5
16
330
5
100
AcDbSymbolTableRecord
100
AcDbLinetypeTableRecord
  2
CONTINUOUS
 70
     0
  3
Solid line
 72
    65
 73
     0
 40
0.0
  0
ENDTAB
  0
TABLE
  2
LAYER
  5
2
330
0
100
AcDbSymbolTable
 70
     2
  0
LAYER
  5
10
330
2
100
AcDbSymbolTableRecord
100
AcDbLayerTableRecord
  2
0
 70
     0
 62
     7
  6
CONTINUOUS
  0
LAYER
  5
3B
330
2
100
AcDbSymbolTableRecord
100
AcDbLayerTableRecord
  2
LAYER_1
 70
     0
 62
     7
  6
CONTINUOUS
  0
ENDTAB
  0
TABLE
  2
STYLE
  5
3
330
0
100
AcDbSymbolTable
 70
     1
  0
STYLE
  5
11
330
3
100
AcDbSymbolTableRecord
100
AcDbTextStyleTableRecord
  2
STANDARD
 70
     0
 40
0.0
 41
1.0
 50
0.0
 71
     0
 42
0.2
  3
txt
  4

  0
ENDTAB
  0
TABLE
  2
VIEW
  5
6
330
0
100
AcDbSymbolTable
 70
     0
  0
ENDTAB
  0
TABLE
  2
UCS
  5
7
330
0
100
AcDbSymbolTable
 70
     0
  0
ENDTAB
  0
TABLE
  2
APPID
  5
9
330
0
100
AcDbSymbolTable
 70
     1
  0
APPID
  5
12
330
9
100
AcDbSymbolTableRecord
100
AcDbRegAppTableRecord
  2
ACAD
 70
     0
  0
ENDTAB
  0
TABLE
  2
DIMSTYLE
  5
A
330
0
100
AcDbSymbolTable
 70
     1
  0
DIMSTYLE
105
27
330
A
100
AcDbSymbolTableRecord
100
AcDbDimStyleTableRecord
  2
STANDARD
 70
     0
  3

  4

  5

  6

  7

 40
1.0
 41
0.18
 42
0.0625
 43
0.38
 44
0.18
 45
0.0
 46
0.0
 47
0.0
 48
0.0
140
0.18
141
0.09
142
0.0
143
25.4
144
1.0
145
0.0
146
1.0
147
0.09
 71
     0
 72
     0
 73
     1
 74
     1
 75
     0
 76
     0
 77
     0
 78
     0
170
     0
171
     2
172
     0
173
     0
174
     0
175
     0
176
     0
177
     0
178
     0
270
     2
271
     4
272
     4
273
     2
274
     2
340
11
275
     0
280
     0
281
     0
282
     0
283
     1
284
     0
285
     0
286
     0
287
     3
288
     0
  0
ENDTAB
  0
TABLE
  2
BLOCK_RECORD
  5
1
330
0
100
AcDbSymbolTable
 70
   102
  0
BLOCK_RECORD
  5
1F
330
1
100
AcDbSymbolTableRecord
100
AcDbBlockTableRecord
  2
*MODEL_SPACE
  0
BLOCK_RECORD
  5
1B
330
1
100
AcDbSymbolTableRecord
100
AcDbBlockTableRecord
  2
*PAPER_SPACE
  0
BLOCK_RECORD
  5
3C
330
1
100
AcDbSymbolTableRecord
100
AcDbBlockTableRecord
  2
BLOCK_2
  0
BLOCK_RECORD
  5
44
330
1
100
AcDbSymbolTableRecord
100
AcDbBlockTableRecord
  2
BLOCK_3
  0
BLOCK_RECORD
  5
4C
330
1
100
AcDbSymbolTableRecord
100
AcDbBlockTableRecord
  2
BLOCK_4
  0
BLOCK_RECORD
  5
51
330
1
100
AcDbSymbolTableRecord
100
AcDbBlockTableRecord
  2
BLOCK_5
  0
BLOCK_RECORD
  5
59
330
1
100
AcDbSymbolTableRecord
100
AcDbBlockTableRecord
  2
BLOCK_6
  0
BLOCK_RECORD
  5
61
330
1
100
AcDbSymbolTableRecord
100
AcDbBlockTableRecord
  2
BLOCK_7
  0
BLOCK_RECORD
  5
69
330
1
100
AcDbSymbolTableRecord
100
AcDbBlockTableRecord
  2
BLOCK_8
  0
BLOCK_RECORD
  5
6E
330
1
100
AcDbSymbolTableRecord
100
AcDbBlockTableRecord
  2
BLOCK_9
  0
BLOCK_RECORD
  5
76
330
1
100
AcDbSymbolTableRecord
100
AcDbBlockTableRecord
  2
BLOCK_10
  0
BLOCK_RECORD
  5
7E
330
1
100
AcDbSymbolTableRecord
100
AcDbBlockTableRecord
  2
BLOCK_11
  0
BLOCK_RECORD
  5
86
330
1
100
AcDbSymbolTableRecord
100
AcDbBlockTableRecord
  2
BLOCK_12
  0
BLOCK_RECORD
  5
8E
330
1
100
AcDbSymbolTableRecord
100
AcDbBlockTableRecord
  2
BLOCK_13
  0
BLOCK_RECORD
  5
96
330
1
100
AcDbSymbolTableRecord
100
AcDbBlockTableRecord
  2
BLOCK_14
  0
BLOCK_RECORD
  5
9E
330
1
100
AcDbSymbolTableRecord
100
AcDbBlockTableRecord
  2
BLOCK_15
  0
BLOCK_RECORD
  5
A6
330
1
100
AcDbSymbolTableRecord
100
AcDbBlockTableRecord
  2
BLOCK_16
  0
BLOCK_RECORD
  5
AE
330
1
100
AcDbSymbolTableRecord
100
AcDbBlockTableRecord
  2
BLOCK_17
  0
BLOCK_RECORD
  5
B6
330
1
100
AcDbSymbolTableRecord
100
AcDbBlockTableRecord
  2
BLOCK_18
  0
BLOCK_RECORD
  5
BE
330
1
100
AcDbSymbolTableRecord
100
AcDbBlockTableRecord
  2
BLOCK_19
  0
BLOCK_RECORD
  5
C6
330
1
100
AcDbSymbolTableRecord
100
AcDbBlockTableRecord
  2
BLOCK_20
  0
BLOCK_RECORD
  5
CE
330
1
100
AcDbSymbolTableRecord
100
AcDbBlockTableRecord
  2
BLOCK_21
  0
BLOCK_RECORD
  5
D6
330
1
100
AcDbSymbolTableRecord
100
AcDbBlockTableRecord
  2
BLOCK_22
  0
BLOCK_RECORD
  5
DE
330
1
100
AcDbSymbolTableRecord
100
AcDbBlockTableRecord
  2
BLOCK_23
  0
BLOCK_RECORD
  5
E6
330
1
100
AcDbSymbolTableRecord
100
AcDbBlockTableRecord
  2
BLOCK_24
  0
BLOCK_RECORD
  5
EE
330
1
100
AcDbSymbolTableRecord
100
AcDbBlockTableRecord
  2
BLOCK_25
  0
BLOCK_RECORD
  5
F6
330
1
100
AcDbSymbolTableRecord
100
AcDbBlockTableRecord
  2
BLOCK_26
  0
BLOCK_RECORD
  5
FE
330
1
100
AcDbSymbolTableRecord
100
AcDbBlockTableRecord
  2
BLOCK_27
  0
BLOCK_RECORD
  5
106
330
1
100
AcDbSymbolTableRecord
100
AcDbBlockTableRecord
  2
BLOCK_28
  0
BLOCK_RECORD
  5
10E
330
1
100
AcDbSymbolTableRecord
100
AcDbBlockTableRecord
  2
BLOCK_29
  0
BLOCK_RECORD
  5
116
330
1
100
AcDbSymbolTableRecord
100
AcDbBlockTableRecord
  2
BLOCK_30
  0
BLOCK_RECORD
  5
11E
330
1
100
AcDbSymbolTableRecord
100
AcDbBlockTableRecord
  2
BLOCK_31
  0
BLOCK_RECORD
  5
126
330
1
100
AcDbSymbolTableRecord
100
AcDbBlockTableRecord
  2
BLOCK_32
  0
BLOCK_RECORD
  5
12E
330
1
100
AcDbSymbolTableRecord
100
AcDbBlockTableRecord
  2
BLOCK_33
  0
BLOCK_RECORD
  5
136
330
1
100
AcDbSymbolTableRecord
100
AcDbBlockTableRecord
  2
BLOCK_34
  0
BLOCK_RECORD
  5
13E
330
1
100
AcDbSymbolTableRecord
100
AcDbBlockTableRecord
  2
BLOCK_35
  0
BLOCK_RECORD
  5
146
330
1
100
AcDbSymbolTableRecord
100
AcDbBlockTableRecord
  2
BLOCK_36
  0
BLOCK_RECORD
  5
14E
330
1
100
AcDbSymbolTableRecord
100
AcDbBlockTableRecord
  2
BLOCK_37
  0
BLOCK_RECORD
  5
156
330
1
100
AcDbSymbolTableRecord
100
AcDbBlockTableRecord
  2
BLOCK_38
  0
BLOCK_RECORD
  5
15E
330
1
100
AcDbSymbolTableRecord
100
AcDbBlockTableRecord
  2
BLOCK_39
  0
BLOCK_RECORD
  5
166
330
1
100
AcDbSymbolTableRecord
100
AcDbBlockTableRecord
  2
BLOCK_40
  0
BLOCK_RECORD
  5
16E
330
1
100
AcDbSymbolTableRecord
100
AcDbBlockTableRecord
  2
BLOCK_41
  0
BLOCK_RECORD
  5
176
330
1
100
AcDbSymbolTableRecord
100
AcDbBlockTableRecord
  2
BLOCK_42
  0
BLOCK_RECORD
  5
17E
330
1
100
AcDbSymbolTableRecord
100
AcDbBlockTableRecord
  2
BLOCK_43
  0
BLOCK_RECORD
  5
186
330
1
100
AcDbSymbolTableRecord
100
AcDbBlockTableRecord
  2
BLOCK_44
  0
BLOCK_RECORD
  5
18E
330
1
100
AcDbSymbolTableRecord
100
AcDbBlockTableRecord
  2
BLOCK_45
  0
BLOCK_RECORD
  5
196
330
1
100
AcDbSymbolTableRecord
100
AcDbBlockTableRecord
  2
BLOCK_46
  0
BLOCK_RECORD
  5
19E
330
1
100
AcDbSymbolTableRecord
100
AcDbBlockTableRecord
  2
BLOCK_47
  0
BLOCK_RECORD
  5
1A6
330
1
100
AcDbSymbolTableRecord
100
AcDbBlockTableRecord
  2
BLOCK_48
  0
BLOCK_RECORD
  5
1AE
330
1
100
AcDbSymbolTableRecord
100
AcDbBlockTableRecord
  2
BLOCK_49
  0
BLOCK_RECORD
  5
1B6
330
1
100
AcDbSymbolTableRecord
100
AcDbBlockTableRecord
  2
BLOCK_50
  0
BLOCK_RECORD
  5
1BE
330
1
100
AcDbSymbolTableRecord
100
AcDbBlockTableRecord
  2
BLOCK_51
  0
BLOCK_RECORD
  5
1C6
330
1
100
AcDbSymbolTableRecord
100
AcDbBlockTableRecord
  2
BLOCK_52
  0
BLOCK_RECORD
  5
1CE
330
1
100
AcDbSymbolTableRecord
100
AcDbBlockTableRecord
  2
BLOCK_53
  0
BLOCK_RECORD
  5
1D6
330
1
100
AcDbSymbolTableRecord
100
AcDbBlockTableRecord
  2
BLOCK_54
  0
BLOCK_RECORD
  5
1DE
330
1
100
AcDbSymbolTableRecord
100
AcDbBlockTableRecord
  2
BLOCK_55
  0
BLOCK_RECORD
  5
1E6
330
1
100
AcDbSymbolTableRecord
100
AcDbBlockTableRecord
  2
BLOCK_56
  0
BLOCK_RECORD
  5
1EE
330
1
100
AcDbSymbolTableRecord
100
AcDbBlockTableRecord
  2
BLOCK_57
  0
BLOCK_RECORD
  5
1F6
330
1
100
AcDbSymbolTableRecord
100
AcDbBlockTableRecord
  2
BLOCK_58
  0
BLOCK_RECORD
  5
1FE
330
1
100
AcDbSymbolTableRecord
100
AcDbBlockTableRecord
  2
BLOCK_59
  0
BLOCK_RECORD
  5
206
330
1
100
AcDbSymbolTableRecord
100
AcDbBlockTableRecord
  2
BLOCK_60
  0
BLOCK_RECORD
  5
20E
330
1
100
AcDbSymbolTableRecord
100
AcDbBlockTableRecord
  2
BLOCK_61
  0
BLOCK_RECORD
  5
216
330
1
100
AcDbSymbolTableRecord
100
AcDbBlockTableRecord
  2
BLOCK_62
  0
BLOCK_RECORD
  5
21B
330
1
100
AcDbSymbolTableRecord
100
AcDbBlockTableRecord
  2
BLOCK_63
  0
BLOCK_RECORD
  5
220
330
1
100
AcDbSymbolTableRecord
100
AcDbBlockTableRecord
  2
BLOCK_64
  0
BLOCK_RECORD
  5
225
330
1
100
AcDbSymbolTableRecord
100
AcDbBlockTableRecord
  2
BLOCK_65
  0
BLOCK_RECORD
  5
22A
330
1
100
AcDbSymbolTableRecord
100
AcDbBlockTableRecord
  2
BLOCK_66
  0
BLOCK_RECORD
  5
22F
330
1
100
AcDbSymbolTableRecord
100
AcDbBlockTableRecord
  2
BLOCK_67
  0
BLOCK_RECORD
  5
234
330
1
100
AcDbSymbolTableRecord
100
AcDbBlockTableRecord
  2
BLOCK_68
  0
BLOCK_RECORD
  5
239
330
1
100
AcDbSymbolTableRecord
100
AcDbBlockTableRecord
  2
BLOCK_69
  0
BLOCK_RECORD
  5
23E
330
1
100
AcDbSymbolTableRecord
100
AcDbBlockTableRecord
  2
BLOCK_70
  0
BLOCK_RECORD
  5
243
330
1
100
AcDbSymbolTableRecord
100
AcDbBlockTableRecord
  2
BLOCK_71
  0
BLOCK_RECORD
  5
248
330
1
100
AcDbSymbolTableRecord
100
AcDbBlockTableRecord
  2
BLOCK_72
  0
BLOCK_RECORD
  5
250
330
1
100
AcDbSymbolTableRecord
100
AcDbBlockTableRecord
  2
BLOCK_73
  0
BLOCK_RECORD
  5
255
330
1
100
AcDbSymbolTableRecord
100
AcDbBlockTableRecord
  2
BLOCK_74
  0
BLOCK_RECORD
  5
25A
330
1
100
AcDbSymbolTableRecord
100
AcDbBlockTableRecord
  2
BLOCK_75
  0
BLOCK_RECORD
  5
25F
330
1
100
AcDbSymbolTableRecord
100
AcDbBlockTableRecord
  2
BLOCK_76
  0
BLOCK_RECORD
  5
264
330
1
100
AcDbSymbolTableRecord
100
AcDbBlockTableRecord
  2
BLOCK_77
  0
BLOCK_RECORD
  5
269
330
1
100
AcDbSymbolTableRecord
100
AcDbBlockTableRecord
  2
BLOCK_78
  0
BLOCK_RECORD
  5
26E
330
1
100
AcDbSymbolTableRecord
100
AcDbBlockTableRecord
  2
BLOCK_79
  0
BLOCK_RECORD
  5
273
330
1
100
AcDbSymbolTableRecord
100
AcDbBlockTableRecord
  2
BLOCK_80
  0
BLOCK_RECORD
  5
278
330
1
100
AcDbSymbolTableRecord
100
AcDbBlockTableRecord
  2
BLOCK_81
  0
BLOCK_RECORD
  5
27D
330
1
100
AcDbSymbolTableRecord
100
AcDbBlockTableRecord
  2
BLOCK_82
  0
BLOCK_RECORD
  5
282
330
1
100
AcDbSymbolTableRecord
100
AcDbBlockTableRecord
  2
BLOCK_83
  0
BLOCK_RECORD
  5
287
330
1
100
AcDbSymbolTableRecord
100
AcDbBlockTableRecord
  2
BLOCK_84
  0
BLOCK_RECORD
  5
28C
330
1
100
AcDbSymbolTableRecord
100
AcDbBlockTableRecord
  2
BLOCK_85
  0
BLOCK_RECORD
  5
291
330
1
100
AcDbSymbolTableRecord
100
AcDbBlockTableRecord
  2
BLOCK_86
  0
BLOCK_RECORD
  5
296
330
1
100
AcDbSymbolTableRecord
100
AcDbBlockTableRecord
  2
BLOCK_87
  0
BLOCK_RECORD
  5
29E
330
1
100
AcDbSymbolTableRecord
100
AcDbBlockTableRecord
  2
BLOCK_88
  0
BLOCK_RECORD
  5
2A6
330
1
100
AcDbSymbolTableRecord
100
AcDbBlockTableRecord
  2
BLOCK_89
  0
BLOCK_RECORD
  5
2AE
330
1
100
AcDbSymbolTableRecord
100
AcDbBlockTableRecord
  2
BLOCK_90
  0
BLOCK_RECORD
  5
2B6
330
1
100
AcDbSymbolTableRecord
100
AcDbBlockTableRecord
  2
BLOCK_91
  0
BLOCK_RECORD
  5
2BE
330
1
100
AcDbSymbolTableRecord
100
AcDbBlockTableRecord
  2
BLOCK_92
  0
BLOCK_RECORD
  5
2C6
330
1
100
AcDbSymbolTableRecord
100
AcDbBlockTableRecord
  2
BLOCK_93
  0
BLOCK_RECORD
  5
2CE
330
1
100
AcDbSymbolTableRecord
100
AcDbBlockTableRecord
  2
BLOCK_94
  0
BLOCK_RECORD
  5
2D6
330
1
100
AcDbSymbolTableRecord
100
AcDbBlockTableRecord
  2
BLOCK_95
  0
BLOCK_RECORD
  5
2DE
330
1
100
AcDbSymbolTableRecord
100
AcDbBlockTableRecord
  2
BLOCK_96
  0
BLOCK_RECORD
  5
2E6
330
1
100
AcDbSymbolTableRecord
100
AcDbBlockTableRecord
  2
BLOCK_97
  0
BLOCK_RECORD
  5
2EE
330
1
100
AcDbSymbolTableRecord
100
AcDbBlockTableRecord
  2
BLOCK_98
  0
BLOCK_RECORD
  5
2F6
330
1
100
AcDbSymbolTableRecord
100
AcDbBlockTableRecord
  2
BLOCK_99
  0
BLOCK_RECORD
  5
2FE
330
1
100
AcDbSymbolTableRecord
100
AcDbBlockTableRecord
  2
BLOCK_100
  0
BLOCK_RECORD
  5
306
330
1
100
AcDbSymbolTableRecord
100
AcDbBlockTableRecord
  2
BLOCK_101
  0
BLOCK_RECORD
  5
30E
330
1
100
AcDbSymbolTableRecord
100
AcDbBlockTableRecord
  2
BLOCK_102
  0
ENDTAB
  0
ENDSEC
  0
SECTION
  2
BLOCKS
  0
BLOCK
  5
20
330
1F
100
AcDbEntity
  8
0
100
AcDbBlockBegin
  2
*MODEL_SPACE
 70
     0
 71
     0
 10
0.0
 20
0.0
 30
0.0
  3
*MODEL_SPACE
  1

  0
ENDBLK
  5
21
330
1F
100
AcDbEntity
  8
0
100
AcDbBlockEnd
  0
BLOCK
  5
1C
330
1B
100
AcDbEntity
 67
     1
  8
0
100
AcDbBlockBegin
  2
*PAPER_SPACE
 70
     0
 71
     0
 10
0.0
 20
0.0
 30
0.0
  3
*PAPER_SPACE
  1

  0
ENDBLK
  5
1D
330
1B
100
AcDbEntity
 67
     1
  8
0
100
AcDbBlockEnd
  0
BLOCK
  5
3E
330
3C
100
AcDbEntity
  8
0
100
AcDbBlockBegin
  2
BLOCK_2
 70
     0
 71
     0
 10
0.0
 20
0.0
 30
0.0
  3
BLOCK_2
  1

  0
POLYLINE
  5
40
330
3C
100
AcDbEntity
  8
LAYER_1
 62
     5
100
AcDb2dPolyline
 66
     1
 10
0.0
 20
0.0
 30
0.0
  0
VERTEX
  5
41
330
40
100
AcDbEntity
  8
LAYER_1
 62
     5
100
AcDbVertex
100
AcDb2dVertex
 10
390.5746092773564
 20
-18.57406005395024
 30
0.0
  0
VERTEX
  5
42
330
40
100
AcDbEntity
  8
LAYER_1
 62
     5
100
AcDbVertex
100
AcDb2dVertex
 10
390.5746092773564
 20
-229.6481702442373
 30
0.0
  0
SEQEND
  5
43
330
40
100
AcDbEntity
  8
LAYER_1
  0
ENDBLK
  5
3F
330
3C
100
AcDbEntity
  8
0
100
AcDbBlockEnd
  0
BLOCK
  5
46
330
44
100
AcDbEntity
  8
0
100
AcDbBlockBegin
  2
BLOCK_3
 70
     0
 71
     0
 10
0.0
 20
0.0
 30
0.0
  3
BLOCK_3
  1

  0
POLYLINE
  5
48
330
44
100
AcDbEntity
  8
LAYER_1
 62
     5
100
AcDb2dPolyline
 66
     1
 10
0.0
 20
0.0
 30
0.0
  0
VERTEX
  5
49
330
48
100
AcDbEntity
  8
LAYER_1
 62
     5
100
AcDbVertex
100
AcDb2dVertex
 10
390.5746092773564
 20
-229.6481702442373
 30
0.0
  0
VERTEX
  5
4A
330
48
100
AcDbEntity
  8
LAYER_1
 62
     5
100
AcDbVertex
100
AcDb2dVertex
 10
460.4246092598939
 20
-229.6481702442373
 30
0.0
  0
SEQEND
  5
4B
330
48
100
AcDbEntity
  8
LAYER_1
  0
ENDBLK
  5
47
330
44
100
AcDbEntity
  8
0
100
AcDbBlockEnd
  0
BLOCK
  5
4E
330
4C
100
AcDbEntity
  8
0
100
AcDbBlockBegin
  2
BLOCK_4
 70
     0
 71
     0
 10
0.0
 20
0.0
 30
0.0
  3
BLOCK_4
  1

  0
SPLINE
  5
50
330
4C
100
AcDbEntity
  8
LAYER_1
 62
     5
100
AcDbSpline
210
0.0
220
0.0
230
1.0
 70
     8
 71
     3
 72
     8
 73
     4
 74
     0
 42
0.0000000001
 43
0.0000000001
 40
0.0
 40
0.0
 40
0.0
 40
0.0
 40
1.0
 40
1.0
 40
1.0
 40
1.0
 10
460.4246092598939
 20
-229.6481702442373
 30
0.0
 10
477.9594562607185
 20
-229.6481702442373
 30
0.0
 10
492.1746092519564
 20
-215.4330172529994
 30
0.0
 10
492.1746092519564
 20
-197.8981702521748
 30
0.0
  0
ENDBLK
  5
4F
330
4C
100
AcDbEntity
  8
0
100
AcDbBlockEnd
  0
BLOCK
  5
53
330
51
100
AcDbEntity
  8
0
100
AcDbBlockBegin
  2
BLOCK_5
 70
     0
 71
     0
 10
0.0
 20
0.0
 30
0.0
  3
BLOCK_5
  1

  0
POLYLINE
  5
55
330
51
100
AcDbEntity
  8
LAYER_1
 62
     5
100
AcDb2dPolyline
 66
     1
 10
0.0
 20
0.0
 30
0.0
  0
VERTEX
  5
56
330
55
100
AcDbEntity
  8
LAYER_1
 62
     5
100
AcDbVertex
100
AcDb2dVertex
 10
492.1746092519564
 20
-197.8981702521748
 30
0.0
  0
VERTEX
  5
57
330
55
100
AcDbEntity
  8
LAYER_1
 62
     5
100
AcDbVertex
100
AcDb2dVertex
 10
492.1746092519564
 20
-166.1481702601123
 30
0.0
  0
SEQEND
  5
58
330
55
100
AcDbEntity
  8
LAYER_1
  0
ENDBLK
  5
54
330
51
100
AcDbEntity
  8
0
100
AcDbBlockEnd
  0
BLOCK
  5
5B
330
59
100
AcDbEntity
  8
0
100
AcDbBlockBegin
  2
BLOCK_6
 70
     0
 71
     0
 10
0.0
 20
0.0
 30
0.0
  3
BLOCK_6
  1

  0
POLYLINE
  5
5D
330
59
100
AcDbEntity
  8
LAYER_1
 62
     5
100
AcDb2dPolyline
 66
     1
 10
0.0
 20
0.0
 30
0.0
  0
VERTEX
  5
5E
330
5D
100
AcDbEntity
  8
LAYER_1
 62
     5
100
AcDbVertex
100
AcDb2dVertex
 10
492.1746092519564
 20
-166.1481702601123
 30
0.0
  0
VERTEX
  5
5F
330
5D
100
AcDbEntity
  8
LAYER_1
 62
     5
100
AcDbVertex
100
AcDb2dVertex
 10
492.1746092519564
 20
-82.07406003807525
 30
0.0
  0
SEQEND
  5
60
330
5D
100
AcDbEntity
  8
LAYER_1
  0
ENDBLK
  5
5C
330
59
100
AcDbEntity
  8
0
100
AcDbBlockEnd
  0
BLOCK
  5
63
330
61
100
AcDbEntity
  8
0
100
AcDbBlockBegin
  2
BLOCK_7
 70
     0
 71
     0
 10
0.0
 20
0.0
 30
0.0
  3
BLOCK_7
  1

  0
POLYLINE
  5
65
330
61
100
AcDbEntity
  8
LAYER_1
 62
     5
100
AcDb2dPolyline
 66
     1
 10
0.0
 20
0.0
 30
0.0
  0
VERTEX
  5
66
330
65
100
AcDbEntity
  8
LAYER_1
 62
     5
100
AcDbVertex
100
AcDb2dVertex
 10
492.1746092519564
 20
-82.07406003807525
 30
0.0
  0
VERTEX
  5
67
330
65
100
AcDbEntity
  8
LAYER_1
 62
     5
100
AcDbVertex
100
AcDb2dVertex
 10
492.1746092519564
 20
-50.32406004601274
 30
0.0
  0
SEQEND
  5
68
330
65
100
AcDbEntity
  8
LAYER_1
  0
ENDBLK
  5
64
330
61
100
AcDbEntity
  8
0
100
AcDbBlockEnd
  0
BLOCK
  5
6B
330
69
100
AcDbEntity
  8
0
100
AcDbBlockBegin
  2
BLOCK_8
 70
     0
 71
     0
 10
0.0
 20
0.0
 30
0.0
  3
BLOCK_8
  1

  0
SPLINE
  5
6D
330
69
100
AcDbEntity
  8
LAYER_1
 62
     5
100
AcDbSpline
210
0.0
220
0.0
230
1.0
 70
     8
 71
     3
 72
     8
 73
     4
 74
     0
 42
0.0000000001
 43
0.0000000001
 40
0.0
 40
0.0
 40
0.0
 40
0.0
 40
1.0
 40
1.0
 40
1.0
 40
1.0
 10
492.1746092519564
 20
-50.32406004601274
 30
0.0
 10
492.1746092519564
 20
-32.78921304518811
 30
0.0
 10
477.9594562607185
 20
-18.57406005395024
 30
0.0
 10
460.4246092598939
 20
-18.57406005395024
 30
0.0
  0
ENDBLK
  5
6C
330
69
100
AcDbEntity
  8
0
100
AcDbBlockEnd
  0
BLOCK
  5
70
330
6E
100
AcDbEntity
  8
0
100
AcDbBlockBegin
  2
BLOCK_9
 70
     0
 71
     0
 10
0.0
 20
0.0
 30
0.0
  3
BLOCK_9
  1

  0
POLYLINE
  5
72
330
6E
100
AcDbEntity
  8
LAYER_1
 62
     5
100
AcDb2dPolyline
 66
     1
 10
0.0
 20
0.0
 30
0.0
  0
VERTEX
  5
73
330
72
100
AcDbEntity
  8
LAYER_1
 62
     5
100
AcDbVertex
100
AcDb2dVertex
 10
460.4246092598939
 20
-18.57406005395024
 30
0.0
  0
VERTEX
  5
74
330
72
100
AcDbEntity
  8
LAYER_1
 62
     5
100
AcDbVertex
100
AcDb2dVertex
 10
390.5746092773564
 20
-18.57406005395024
 30
0.0
  0
SEQEND
  5
75
330
72
100
AcDbEntity
  8
LAYER_1
  0
ENDBLK
  5
71
330
6E
100
AcDbEntity
  8
0
100
AcDbBlockEnd
  0
BLOCK
  5
78
330
76
100
AcDbEntity
  8
0
100
AcDbBlockBegin
  2
BLOCK_10
 70
     0
 71
     0
 10
0.0
 20
0.0
 30
0.0
  3
BLOCK_10
  1

  0
POLYLINE
  5
7A
330
76
100
AcDbEntity
  8
LAYER_1
 62
     5
100
AcDb2dPolyline
 66
     1
 10
0.0
 20
0.0
 30
0.0
  0
VERTEX
  5
7B
330
7A
100
AcDbEntity
  8
LAYER_1
 62
     5
100
AcDbVertex
100
AcDb2dVertex
 10
479.4746092551314
 20
-111.4111151522687
 30
0.0
  0
VERTEX
  5
7C
330
7A
100
AcDbEntity
  8
LAYER_1
 62
     5
100
AcDbVertex
100
AcDb2dVertex
 10
454.0746092614814
 20
-111.4111151522687
 30
0.0
  0
SEQEND
  5
7D
330
7A
100
AcDbEntity
  8
LAYER_1
  0
ENDBLK
  5
79
330
76
100
AcDbEntity
  8
0
100
AcDbBlockEnd
  0
BLOCK
  5
80
330
7E
100
AcDbEntity
  8
0
100
AcDbBlockBegin
  2
BLOCK_11
 70
     0
 71
     0
 10
0.0
 20
0.0
 30
0.0
  3
BLOCK_11
  1

  0
POLYLINE
  5
82
330
7E
100
AcDbEntity
  8
LAYER_1
 62
     5
100
AcDb2dPolyline
 66
     1
 10
0.0
 20
0.0
 30
0.0
  0
VERTEX
  5
83
330
82
100
AcDbEntity
  8
LAYER_1
 62
     5
100
AcDbVertex
100
AcDb2dVertex
 10
454.0746092614814
 20
-111.4111151522687
 30
0.0
  0
VERTEX
  5
84
330
82
100
AcDbEntity
  8
LAYER_1
 62
     5
100
AcDbVertex
100
AcDb2dVertex
 10
454.0746092614814
 20
-114.3322116142121
 30
0.0
  0
SEQEND
  5
85
330
82
100
AcDbEntity
  8
LAYER_1
  0
ENDBLK
  5
81
330
7E
100
AcDbEntity
  8
0
100
AcDbBlockEnd
  0
BLOCK
  5
88
330
86
100
AcDbEntity
  8
0
100
AcDbBlockBegin
  2
BLOCK_12
 70
     0
 71
     0
 10
0.0
 20
0.0
 30
0.0
  3
BLOCK_12
  1

  0
POLYLINE
  5
8A
330
86
100
AcDbEntity
  8
LAYER_1
 62
     5
100
AcDb2dPolyline
 66
     1
 10
0.0
 20
0.0
 30
0.0
  0
VERTEX
  5
8B
330
8A
100
AcDbEntity
  8
LAYER_1
 62
     5
100
AcDbVertex
100
AcDb2dVertex
 10
454.0746092614814
 20
-114.3322116142121
 30
0.0
  0
VERTEX
  5
8C
330
8A
100
AcDbEntity
  8
LAYER_1
 62
     5
100
AcDbVertex
100
AcDb2dVertex
 10
479.4746092551314
 20
-114.3322116142121
 30
0.0
  0
SEQEND
  5
8D
330
8A
100
AcDbEntity
  8
LAYER_1
  0
ENDBLK
  5
89
330
86
100
AcDbEntity
  8
0
100
AcDbBlockEnd
  0
BLOCK
  5
90
330
8E
100
AcDbEntity
  8
0
100
AcDbBlockBegin
  2
BLOCK_13
 70
     0
 71
     0
 10
0.0
 20
0.0
 30
0.0
  3
BLOCK_13
  1

  0
POLYLINE
  5
92
330
8E
100
AcDbEntity
  8
LAYER_1
 62
     5
100
AcDb2dPolyline
 66
     1
 10
0.0
 20
0.0
 30
0.0
  0
VERTEX
  5
93
330
92
100
AcDbEntity
  8
LAYER_1
 62
     5
100
AcDbVertex
100
AcDb2dVertex
 10
479.4746092551314
 20
-114.3322116142121
 30
0.0
  0
VERTEX
  5
94
330
92
100
AcDbEntity
  8
LAYER_1
 62
     5
100
AcDbVertex
100
AcDb2dVertex
 10
479.4746092551314
 20
-111.4111151522687
 30
0.0
  0
SEQEND
  5
95
330
92
100
AcDbEntity
  8
LAYER_1
  0
ENDBLK
  5
91
330
8E
100
AcDbEntity
  8
0
100
AcDbBlockEnd
  0
BLOCK
  5
98
330
96
100
AcDbEntity
  8
0
100
AcDbBlockBegin
  2
BLOCK_14
 70
     0
 71
     0
 10
0.0
 20
0.0
 30
0.0
  3
BLOCK_14
  1

  0
POLYLINE
  5
9A
330
96
100
AcDbEntity
  8
LAYER_1
 62
     5
100
AcDb2dPolyline
 66
     1
 10
0.0
 20
0.0
 30
0.0
  0
VERTEX
  5
9B
330
9A
100
AcDbEntity
  8
LAYER_1
 62
     5
100
AcDbVertex
100
AcDb2dVertex
 10
428.6746092678314
 20
-111.4111151522687
 30
0.0
  0
VERTEX
  5
9C
330
9A
100
AcDbEntity
  8
LAYER_1
 62
     5
100
AcDbVertex
100
AcDb2dVertex
 10
403.2746092741814
 20
-111.4111151522687
 30
0.0
  0
SEQEND
  5
9D
330
9A
100
AcDbEntity
  8
LAYER_1
  0
ENDBLK
  5
99
330
96
100
AcDbEntity
  8
0
100
AcDbBlockEnd
  0
BLOCK
  5
A0
330
9E
100
AcDbEntity
  8
0
100
AcDbBlockBegin
  2
BLOCK_15
 70
     0
 71
     0
 10
0.0
 20
0.0
 30
0.0
  3
BLOCK_15
  1

  0
POLYLINE
  5
A2
330
9E
100
AcDbEntity
  8
LAYER_1
 62
     5
100
AcDb2dPolyline
 66
     1
 10
0.0
 20
0.0
 30
0.0
  0
VERTEX
  5
A3
330
A2
100
AcDbEntity
  8
LAYER_1
 62
     5
100
AcDbVertex
100
AcDb2dVertex
 10
403.2746092741814
 20
-111.4111151522687
 30
0.0
  0
VERTEX
  5
A4
330
A2
100
AcDbEntity
  8
LAYER_1
 62
     5
100
AcDbVertex
100
AcDb2dVertex
 10
403.2746092741814
 20
-114.3322116142121
 30
0.0
  0
SEQEND
  5
A5
330
A2
100
AcDbEntity
  8
LAYER_1
  0
ENDBLK
  5
A1
330
9E
100
AcDbEntity
  8
0
100
AcDbBlockEnd
  0
BLOCK
  5
A8
330
A6
100
AcDbEntity
  8
0
100
AcDbBlockBegin
  2
BLOCK_16
 70
     0
 71
     0
 10
0.0
 20
0.0
 30
0.0
  3
BLOCK_16
  1

  0
POLYLINE
  5
AA
330
A6
100
AcDbEntity
  8
LAYER_1
 62
     5
100
AcDb2dPolyline
 66
     1
 10
0.0
 20
0.0
 30
0.0
  0
VERTEX
  5
AB
330
AA
100
AcDbEntity
  8
LAYER_1
 62
     5
100
AcDbVertex
100
AcDb2dVertex
 10
403.2746092741814
 20
-114.3322116142121
 30
0.0
  0
VERTEX
  5
AC
330
AA
100
AcDbEntity
  8
LAYER_1
 62
     5
100
AcDbVertex
100
AcDb2dVertex
 10
428.6746092678314
 20
-114.3322116142121
 30
0.0
  0
SEQEND
  5
AD
330
AA
100
AcDbEntity
  8
LAYER_1
  0
ENDBLK
  5
A9
330
A6
100
AcDbEntity
  8
0
100
AcDbBlockEnd
  0
BLOCK
  5
B0
330
AE
100
AcDbEntity
  8
0
100
AcDbBlockBegin
  2
BLOCK_17
 70
     0
 71
     0
 10
0.0
 20
0.0
 30
0.0
  3
BLOCK_17
  1

  0
POLYLINE
  5
B2
330
AE
100
AcDbEntity
  8
LAYER_1
 62
     5
100
AcDb2dPolyline
 66
     1
 10
0.0
 20
0.0
 30
0.0
  0
VERTEX
  5
B3
330
B2
100
AcDbEntity
  8
LAYER_1
 62
     5
100
AcDbVertex
100
AcDb2dVertex
 10
428.6746092678314
 20
-114.3322116142121
 30
0.0
  0
VERTEX
  5
B4
330
B2
100
AcDbEntity
  8
LAYER_1
 62
     5
100
AcDbVertex
100
AcDb2dVertex
 10
428.6746092678314
 20
-111.4111151522687
 30
0.0
  0
SEQEND
  5
B5
330
B2
100
AcDbEntity
  8
LAYER_1
  0
ENDBLK
  5
B1
330
AE
100
AcDbEntity
  8
0
100
AcDbBlockEnd
  0
BLOCK
  5
B8
330
B6
100
AcDbEntity
  8
0
100
AcDbBlockBegin
  2
BLOCK_18
 70
     0
 71
     0
 10
0.0
 20
0.0
 30
0.0
  3
BLOCK_18
  1

  0
POLYLINE
  5
BA
330
B6
100
AcDbEntity
  8
LAYER_1
 62
     5
100
AcDb2dPolyline
 66
     1
 10
0.0
 20
0.0
 30
0.0
  0
VERTEX
  5
BB
330
BA
100
AcDbEntity
  8
LAYER_1
 62
     5
100
AcDbVertex
100
AcDb2dVertex
 10
479.4746092551314
 20
-136.8111151459188
 30
0.0
  0
VERTEX
  5
BC
330
BA
100
AcDbEntity
  8
LAYER_1
 62
     5
100
AcDbVertex
100
AcDb2dVertex
 10
454.0746092614814
 20
-136.8111151459188
 30
0.0
  0
SEQEND
  5
BD
330
BA
100
AcDbEntity
  8
LAYER_1
  0
ENDBLK
  5
B9
330
B6
100
AcDbEntity
  8
0
100
AcDbBlockEnd
  0
BLOCK
  5
C0
330
BE
100
AcDbEntity
  8
0
100
AcDbBlockBegin
  2
BLOCK_19
 70
     0
 71
     0
 10
0.0
 20
0.0
 30
0.0
  3
BLOCK_19
  1

  0
POLYLINE
  5
C2
330
BE
100
AcDbEntity
  8
LAYER_1
 62
     5
100
AcDb2dPolyline
 66
     1
 10
0.0
 20
0.0
 30
0.0
  0
VERTEX
  5
C3
330
C2
100
AcDbEntity
  8
LAYER_1
 62
     5
100
AcDbVertex
100
AcDb2dVertex
 10
454.0746092614814
 20
-136.8111151459188
 30
0.0
  0
VERTEX
  5
C4
330
C2
100
AcDbEntity
  8
LAYER_1
 62
     5
100
AcDbVertex
100
AcDb2dVertex
 10
454.0746092614814
 20
-133.8900186839754
 30
0.0
  0
SEQEND
  5
C5
330
C2
100
AcDbEntity
  8
LAYER_1
  0
ENDBLK
  5
C1
330
BE
100
AcDbEntity
  8
0
100
AcDbBlockEnd
  0
BLOCK
  5
C8
330
C6
100
AcDbEntity
  8
0
100
AcDbBlockBegin
  2
BLOCK_20
 70
     0
 71
     0
 10
0.0
 20
0.0
 30
0.0
  3
BLOCK_20
  1

  0
POLYLINE
  5
CA
330
C6
100
AcDbEntity
  8
LAYER_1
 62
     5
100
AcDb2dPolyline
 66
     1
 10
0.0
 20
0.0
 30
0.0
  0
VERTEX
  5
CB
330
CA
100
AcDbEntity
  8
LAYER_1
 62
     5
100
AcDbVertex
100
AcDb2dVertex
 10
454.0746092614814
 20
-133.8900186839754
 30
0.0
  0
VERTEX
  5
CC
330
CA
100
AcDbEntity
  8
LAYER_1
 62
     5
100
AcDbVertex
100
AcDb2dVertex
 10
479.4746092551314
 20
-133.8900186839754
 30
0.0
  0
SEQEND
  5
CD
330
CA
100
AcDbEntity
  8
LAYER_1
  0
ENDBLK
  5
C9
330
C6
100
AcDbEntity
  8
0
100
AcDbBlockEnd
  0
BLOCK
  5
D0
330
CE
100
AcDbEntity
  8
0
100
AcDbBlockBegin
  2
BLOCK_21
 70
     0
 71
     0
 10
0.0
 20
0.0
 30
0.0
  3
BLOCK_21
  1

  0
POLYLINE
  5
D2
330
CE
100
AcDbEntity
  8
LAYER_1
 62
     5
100
AcDb2dPolyline
 66
     1
 10
0.0
 20
0.0
 30
0.0
  0
VERTEX
  5
D3
330
D2
100
AcDbEntity
  8
LAYER_1
 62
     5
100
AcDbVertex
100
AcDb2dVertex
 10
479.4746092551314
 20
-133.8900186839754
 30
0.0
  0
VERTEX
  5
D4
330
D2
100
AcDbEntity
  8
LAYER_1
 62
     5
100
AcDbVertex
100
AcDb2dVertex
 10
479.4746092551314
 20
-136.8111151459188
 30
0.0
  0
SEQEND
  5
D5
330
D2
100
AcDbEntity
  8
LAYER_1
  0
ENDBLK
  5
D1
330
CE
100
AcDbEntity
  8
0
100
AcDbBlockEnd
  0
BLOCK
  5
D8
330
D6
100
AcDbEntity
  8
0
100
AcDbBlockBegin
  2
BLOCK_22
 70
     0
 71
     0
 10
0.0
 20
0.0
 30
0.0
  3
BLOCK_22
  1

  0
POLYLINE
  5
DA
330
D6
100
AcDbEntity
  8
LAYER_1
 62
     5
100
AcDb2dPolyline
 66
     1
 10
0.0
 20
0.0
 30
0.0
  0
VERTEX
  5
DB
330
DA
100
AcDbEntity
  8
LAYER_1
 62
     5
100
AcDbVertex
100
AcDb2dVertex
 10
428.6746092678314
 20
-136.8111151459188
 30
0.0
  0
VERTEX
  5
DC
330
DA
100
AcDbEntity
  8
LAYER_1
 62
     5
100
AcDbVertex
100
AcDb2dVertex
 10
403.2746092741814
 20
-136.8111151459188
 30
0.0
  0
SEQEND
  5
DD
330
DA
100
AcDbEntity
  8
LAYER_1
  0
ENDBLK
  5
D9
330
D6
100
AcDbEntity
  8
0
100
AcDbBlockEnd
  0
BLOCK
  5
E0
330
DE
100
AcDbEntity
  8
0
100
AcDbBlockBegin
  2
BLOCK_23
 70
     0
 71
     0
 10
0.0
 20
0.0
 30
0.0
  3
BLOCK_23
  1

  0
POLYLINE
  5
E2
330
DE
100
AcDbEntity
  8
LAYER_1
 62
     5
100
AcDb2dPolyline
 66
     1
 10
0.0
 20
0.0
 30
0.0
  0
VERTEX
  5
E3
330
E2
100
AcDbEntity
  8
LAYER_1
 62
     5
100
AcDbVertex
100
AcDb2dVertex
 10
403.2746092741814
 20
-136.8111151459188
 30
0.0
  0
VERTEX
  5
E4
330
E2
100
AcDbEntity
  8
LAYER_1
 62
     5
100
AcDbVertex
100
AcDb2dVertex
 10
403.2746092741814
 20
-133.8900186839754
 30
0.0
  0
SEQEND
  5
E5
330
E2
100
AcDbEntity
  8
LAYER_1
  0
ENDBLK
  5
E1
330
DE
100
AcDbEntity
  8
0
100
AcDbBlockEnd
  0
BLOCK
  5
E8
330
E6
100
AcDbEntity
  8
0
100
AcDbBlockBegin
  2
BLOCK_24
 70
     0
 71
     0
 10
0.0
 20
0.0
 30
0.0
  3
BLOCK_24
  1

  0
POLYLINE
  5
EA
330
E6
100
AcDbEntity
  8
LAYER_1
 62
     5
100
AcDb2dPolyline
 66
     1
 10
0.0
 20
0.0
 30
0.0
  0
VERTEX
  5
EB
330
EA
100
AcDbEntity
  8
LAYER_1
 62
     5
100
AcDbVertex
100
AcDb2dVertex
 10
403.2746092741814
 20
-133.8900186839754
 30
0.0
  0
VERTEX
  5
EC
330
EA
100
AcDbEntity
  8
LAYER_1
 62
     5
100
AcDbVertex
100
AcDb2dVertex
 10
428.6746092678314
 20
-133.8900186839754
 30
0.0
  0
SEQEND
  5
ED
330
EA
100
AcDbEntity
  8
LAYER_1
  0
ENDBLK
  5
E9
330
E6
100
AcDbEntity
  8
0
100
AcDbBlockEnd
  0
BLOCK
  5
F0
330
EE
100
AcDbEntity
  8
0
100
AcDbBlockBegin
  2
BLOCK_25
 70
     0
 71
     0
 10
0.0
 20
0.0
 30
0.0
  3
BLOCK_25
  1

  0
POLYLINE
  5
F2
330
EE
100
AcDbEntity
  8
LAYER_1
 62
     5
100
AcDb2dPolyline
 66
     1
 10
0.0
 20
0.0
 30
0.0
  0
VERTEX
  5
F3
330
F2
100
AcDbEntity
  8
LAYER_1
 62
     5
100
AcDbVertex
100
AcDb2dVertex
 10
428.6746092678314
 20
-133.8900186839754
 30
0.0
  0
VERTEX
  5
F4
330
F2
100
AcDbEntity
  8
LAYER_1
 62
     5
100
AcDbVertex
100
AcDb2dVertex
 10
428.6746092678314
 20
-136.8111151459188
 30
0.0
  0
SEQEND
  5
F5
330
F2
100
AcDbEntity
  8
LAYER_1
  0
ENDBLK
  5
F1
330
EE
100
AcDbEntity
  8
0
100
AcDbBlockEnd
  0
BLOCK
  5
F8
330
F6
100
AcDbEntity
  8
0
100
AcDbBlockBegin
  2
BLOCK_26
 70
     0
 71
     0
 10
0.0
 20
0.0
 30
0.0
  3
BLOCK_26
  1

  0
POLYLINE
  5
FA
330
F6
100
AcDbEntity
  8
LAYER_1
 62
     5
100
AcDb2dPolyline
 66
     1
 10
0.0
 20
0.0
 30
0.0
  0
VERTEX
  5
FB
330
FA
100
AcDbEntity
  8
LAYER_1
 62
     5
100
AcDbVertex
100
AcDb2dVertex
 10
206.1710502956795
 20
-82.51847735567247
 30
0.0
  0
VERTEX
  5
FC
330
FA
100
AcDbEntity
  8
LAYER_1
 62
     5
100
AcDbVertex
100
AcDb2dVertex
 10
206.1710502956795
 20
-107.9184773493225
 30
0.0
  0
SEQEND
  5
FD
330
FA
100
AcDbEntity
  8
LAYER_1
  0
ENDBLK
  5
F9
330
F6
100
AcDbEntity
  8
0
100
AcDbBlockEnd
  0
BLOCK
  5
100
330
FE
100
AcDbEntity
  8
0
100
AcDbBlockBegin
  2
BLOCK_27
 70
     0
 71
     0
 10
0.0
 20
0.0
 30
0.0
  3
BLOCK_27
  1

  0
POLYLINE
  5
102
330
FE
100
AcDbEntity
  8
LAYER_1
 62
     5
100
AcDb2dPolyline
 66
     1
 10
0.0
 20
0.0
 30
0.0
  0
VERTEX
  5
103
330
102
100
AcDbEntity
  8
LAYER_1
 62
     5
100
AcDbVertex
100
AcDb2dVertex
 10
206.1710502956795
 20
-107.9184773493225
 30
0.0
  0
VERTEX
  5
104
330
102
100
AcDbEntity
  8
LAYER_1
 62
     5
100
AcDbVertex
100
AcDb2dVertex
 10
203.2502983432847
 20
-107.9184773493225
 30
0.0
  0
SEQEND
  5
105
330
102
100
AcDbEntity
  8
LAYER_1
  0
ENDBLK
  5
101
330
FE
100
AcDbEntity
  8
0
100
AcDbBlockEnd
  0
BLOCK
  5
108
330
106
100
AcDbEntity
  8
0
100
AcDbBlockBegin
  2
BLOCK_28
 70
     0
 71
     0
 10
0.0
 20
0.0
 30
0.0
  3
BLOCK_28
  1

  0
POLYLINE
  5
10A
330
106
100
AcDbEntity
  8
LAYER_1
 62
     5
100
AcDb2dPolyline
 66
     1
 10
0.0
 20
0.0
 30
0.0
  0
VERTEX
  5
10B
330
10A
100
AcDbEntity
  8
LAYER_1
 62
     5
100
AcDbVertex
100
AcDb2dVertex
 10
203.2502983432847
 20
-107.9184773493225
 30
0.0
  0
VERTEX
  5
10C
330
10A
100
AcDbEntity
  8
LAYER_1
 62
     5
100
AcDbVertex
100
AcDb2dVertex
 10
203.2502983432847
 20
-82.51847735567247
 30
0.0
  0
SEQEND
  5
10D
330
10A
100
AcDbEntity
  8
LAYER_1
  0
ENDBLK
  5
109
330
106
100
AcDbEntity
  8
0
100
AcDbBlockEnd
  0
BLOCK
  5
110
330
10E
100
AcDbEntity
  8
0
100
AcDbBlockBegin
  2
BLOCK_29
 70
     0
 71
     0
 10
0.0
 20
0.0
 30
0.0
  3
BLOCK_29
  1

  0
POLYLINE
  5
112
330
10E
100
AcDbEntity
  8
LAYER_1
 62
     5
100
AcDb2dPolyline
 66
     1
 10
0.0
 20
0.0
 30
0.0
  0
VERTEX
  5
113
330
112
100
AcDbEntity
  8
LAYER_1
 62
     5
100
AcDbVertex
100
AcDb2dVertex
 10
203.2502983432847
 20
-82.51847735567247
 30
0.0
  0
VERTEX
  5
114
330
112
100
AcDbEntity
  8
LAYER_1
 62
     5
100
AcDbVertex
100
AcDb2dVertex
 10
206.1710502956795
 20
-82.51847735567247
 30
0.0
  0
SEQEND
  5
115
330
112
100
AcDbEntity
  8
LAYER_1
  0
ENDBLK
  5
111
330
10E
100
AcDbEntity
  8
0
100
AcDbBlockEnd
  0
BLOCK
  5
118
330
116
100
AcDbEntity
  8
0
100
AcDbBlockBegin
  2
BLOCK_30
 70
     0
 71
     0
 10
0.0
 20
0.0
 30
0.0
  3
BLOCK_30
  1

  0
POLYLINE
  5
11A
330
116
100
AcDbEntity
  8
LAYER_1
 62
     5
100
AcDb2dPolyline
 66
     1
 10
0.0
 20
0.0
 30
0.0
  0
VERTEX
  5
11B
330
11A
100
AcDbEntity
  8
LAYER_1
 62
     5
100
AcDbVertex
100
AcDb2dVertex
 10
206.1710502956795
 20
-133.3184773429725
 30
0.0
  0
VERTEX
  5
11C
330
11A
100
AcDbEntity
  8
LAYER_1
 62
     5
100
AcDbVertex
100
AcDb2dVertex
 10
206.1710502956795
 20
-158.7184773366225
 30
0.0
  0
SEQEND
  5
11D
330
11A
100
AcDbEntity
  8
LAYER_1
  0
ENDBLK
  5
119
330
116
100
AcDbEntity
  8
0
100
AcDbBlockEnd
  0
BLOCK
  5
120
330
11E
100
AcDbEntity
  8
0
100
AcDbBlockBegin
  2
BLOCK_31
 70
     0
 71
     0
 10
0.0
 20
0.0
 30
0.0
  3
BLOCK_31
  1

  0
POLYLINE
  5
122
330
11E
100
AcDbEntity
  8
LAYER_1
 62
     5
100
AcDb2dPolyline
 66
     1
 10
0.0
 20
0.0
 30
0.0
  0
VERTEX
  5
123
330
122
100
AcDbEntity
  8
LAYER_1
 62
     5
100
AcDbVertex
100
AcDb2dVertex
 10
206.1710502956795
 20
-158.7184773366225
 30
0.0
  0
VERTEX
  5
124
330
122
100
AcDbEntity
  8
LAYER_1
 62
     5
100
AcDbVertex
100
AcDb2dVertex
 10
203.2502983432847
 20
-158.7184773366225
 30
0.0
  0
SEQEND
  5
125
330
122
100
AcDbEntity
  8
LAYER_1
  0
ENDBLK
  5
121
330
11E
100
AcDbEntity
  8
0
100
AcDbBlockEnd
  0
BLOCK
  5
128
330
126
100
AcDbEntity
  8
0
100
AcDbBlockBegin
  2
BLOCK_32
 70
     0
 71
     0
 10
0.0
 20
0.0
 30
0.0
  3
BLOCK_32
  1

  0
POLYLINE
  5
12A
330
126
100
AcDbEntity
  8
LAYER_1
 62
     5
100
AcDb2dPolyline
 66
     1
 10
0.0
 20
0.0
 30
0.0
  0
VERTEX
  5
12B
330
12A
100
AcDbEntity
  8
LAYER_1
 62
     5
100
AcDbVertex
100
AcDb2dVertex
 10
203.2502983432847
 20
-158.7184773366225
 30
0.0
  0
VERTEX
  5
12C
330
12A
100
AcDbEntity
  8
LAYER_1
 62
     5
100
AcDbVertex
100
AcDb2dVertex
 10
203.2502983432847
 20
-133.3184773429725
 30
0.0
  0
SEQEND
  5
12D
330
12A
100
AcDbEntity
  8
LAYER_1
  0
ENDBLK
  5
129
330
126
100
AcDbEntity
  8
0
100
AcDbBlockEnd
  0
BLOCK
  5
130
330
12E
100
AcDbEntity
  8
0
100
AcDbBlockBegin
  2
BLOCK_33
 70
     0
 71
     0
 10
0.0
 20
0.0
 30
0.0
  3
BLOCK_33
  1

  0
POLYLINE
  5
132
330
12E
100
AcDbEntity
  8
LAYER_1
 62
     5
100
AcDb2dPolyline
 66
     1
 10
0.0
 20
0.0
 30
0.0
  0
VERTEX
  5
133
330
132
100
AcDbEntity
  8
LAYER_1
 62
     5
100
AcDbVertex
100
AcDb2dVertex
 10
203.2502983432847
 20
-133.3184773429725
 30
0.0
  0
VERTEX
  5
134
330
132
100
AcDbEntity
  8
LAYER_1
 62
     5
100
AcDbVertex
100
AcDb2dVertex
 10
206.1710502956795
 20
-133.3184773429725
 30
0.0
  0
SEQEND
  5
135
330
132
100
AcDbEntity
  8
LAYER_1
  0
ENDBLK
  5
131
330
12E
100
AcDbEntity
  8
0
100
AcDbBlockEnd
  0
BLOCK
  5
138
330
136
100
AcDbEntity
  8
0
100
AcDbBlockBegin
  2
BLOCK_34
 70
     0
 71
     0
 10
0.0
 20
0.0
 30
0.0
  3
BLOCK_34
  1

  0
POLYLINE
  5
13A
330
136
100
AcDbEntity
  8
LAYER_1
 62
     5
100
AcDb2dPolyline
 66
     1
 10
0.0
 20
0.0
 30
0.0
  0
VERTEX
  5
13B
330
13A
100
AcDbEntity
  8
LAYER_1
 62
     5
100
AcDbVertex
100
AcDb2dVertex
 10
180.7710503020295
 20
-82.51847735567247
 30
0.0
  0
VERTEX
  5
13C
330
13A
100
AcDbEntity
  8
LAYER_1
 62
     5
100
AcDbVertex
100
AcDb2dVertex
 10
180.7710503020295
 20
-107.9184773493225
 30
0.0
  0
SEQEND
  5
13D
330
13A
100
AcDbEntity
  8
LAYER_1
  0
ENDBLK
  5
139
330
136
100
AcDbEntity
  8
0
100
AcDbBlockEnd
  0
BLOCK
  5
140
330
13E
100
AcDbEntity
  8
0
100
AcDbBlockBegin
  2
BLOCK_35
 70
     0
 71
     0
 10
0.0
 20
0.0
 30
0.0
  3
BLOCK_35
  1

  0
POLYLINE
  5
142
330
13E
100
AcDbEntity
  8
LAYER_1
 62
     5
100
AcDb2dPolyline
 66
     1
 10
0.0
 20
0.0
 30
0.0
  0
VERTEX
  5
143
330
142
100
AcDbEntity
  8
LAYER_1
 62
     5
100
AcDbVertex
100
AcDb2dVertex
 10
180.7710503020295
 20
-107.9184773493225
 30
0.0
  0
VERTEX
  5
144
330
142
100
AcDbEntity
  8
LAYER_1
 62
     5
100
AcDbVertex
100
AcDb2dVertex
 10
183.6921467639728
 20
-107.9184773493225
 30
0.0
  0
SEQEND
  5
145
330
142
100
AcDbEntity
  8
LAYER_1
  0
ENDBLK
  5
141
330
13E
100
AcDbEntity
  8
0
100
AcDbBlockEnd
  0
BLOCK
  5
148
330
146
100
AcDbEntity
  8
0
100
AcDbBlockBegin
  2
BLOCK_36
 70
     0
 71
     0
 10
0.0
 20
0.0
 30
0.0
  3
BLOCK_36
  1

  0
POLYLINE
  5
14A
330
146
100
AcDbEntity
  8
LAYER_1
 62
     5
100
AcDb2dPolyline
 66
     1
 10
0.0
 20
0.0
 30
0.0
  0
VERTEX
  5
14B
330
14A
100
AcDbEntity
  8
LAYER_1
 62
     5
100
AcDbVertex
100
AcDb2dVertex
 10
183.6921467639728
 20
-107.9184773493225
 30
0.0
  0
VERTEX
  5
14C
330
14A
100
AcDbEntity
  8
LAYER_1
 62
     5
100
AcDbVertex
100
AcDb2dVertex
 10
183.6921467639728
 20
-82.51847735567247
 30
0.0
  0
SEQEND
  5
14D
330
14A
100
AcDbEntity
  8
LAYER_1
  0
ENDBLK
  5
149
330
146
100
AcDbEntity
  8
0
100
AcDbBlockEnd
  0
BLOCK
  5
150
330
14E
100
AcDbEntity
  8
0
100
AcDbBlockBegin
  2
BLOCK_37
 70
     0
 71
     0
 10
0.0
 20
0.0
 30
0.0
  3
BLOCK_37
  1

  0
POLYLINE
  5
152
330
14E
100
AcDbEntity
  8
LAYER_1
 62
     5
100
AcDb2dPolyline
 66
     1
 10
0.0
 20
0.0
 30
0.0
  0
VERTEX
  5
153
330
152
100
AcDbEntity
  8
LAYER_1
 62
     5
100
AcDbVertex
100
AcDb2dVertex
 10
183.6921467639728
 20
-82.51847735567247
 30
0.0
  0
VERTEX
  5
154
330
152
100
AcDbEntity
  8
LAYER_1
 62
     5
100
AcDbVertex
100
AcDb2dVertex
 10
180.7710503020295
 20
-82.51847735567247
 30
0.0
  0
SEQEND
  5
155
330
152
100
AcDbEntity
  8
LAYER_1
  0
ENDBLK
  5
151
330
14E
100
AcDbEntity
  8
0
100
AcDbBlockEnd
  0
BLOCK
  5
158
330
156
100
AcDbEntity
  8
0
100
AcDbBlockBegin
  2
BLOCK_38
 70
     0
 71
     0
 10
0.0
 20
0.0
 30
0.0
  3
BLOCK_38
  1

  0
POLYLINE
  5
15A
330
156
100
AcDbEntity
  8
LAYER_1
 62
     5
100
AcDb2dPolyline
 66
     1
 10
0.0
 20
0.0
 30
0.0
  0
VERTEX
  5
15B
330
15A
100
AcDbEntity
  8
LAYER_1
 62
     5
100
AcDbVertex
100
AcDb2dVertex
 10
180.7710503020295
 20
-133.3184773429725
 30
0.0
  0
VERTEX
  5
15C
330
15A
100
AcDbEntity
  8
LAYER_1
 62
     5
100
AcDbVertex
100
AcDb2dVertex
 10
180.7710503020295
 20
-158.7184773366225
 30
0.0
  0
SEQEND
  5
15D
330
15A
100
AcDbEntity
  8
LAYER_1
  0
ENDBLK
  5
159
330
156
100
AcDbEntity
  8
0
100
AcDbBlockEnd
  0
BLOCK
  5
160
330
15E
100
AcDbEntity
  8
0
100
AcDbBlockBegin
  2
BLOCK_39
 70
     0
 71
     0
 10
0.0
 20
0.0
 30
0.0
  3
BLOCK_39
  1

  0
POLYLINE
  5
162
330
15E
100
AcDbEntity
  8
LAYER_1
 62
     5
100
AcDb2dPolyline
 66
     1
 10
0.0
 20
0.0
 30
0.0
  0
VERTEX
  5
163
330
162
100
AcDbEntity
  8
LAYER_1
 62
     5
100
AcDbVertex
100
AcDb2dVertex
 10
180.7710503020295
 20
-158.7184773366225
 30
0.0
  0
VERTEX
  5
164
330
162
100
AcDbEntity
  8
LAYER_1
 62
     5
100
AcDbVertex
100
AcDb2dVertex
 10
183.6921467639728
 20
-158.7184773366225
 30
0.0
  0
SEQEND
  5
165
330
162
100
AcDbEntity
  8
LAYER_1
  0
ENDBLK
  5
161
330
15E
100
AcDbEntity
  8
0
100
AcDbBlockEnd
  0
BLOCK
  5
168
330
166
100
AcDbEntity
  8
0
100
AcDbBlockBegin
  2
BLOCK_40
 70
     0
 71
     0
 10
0.0
 20
0.0
 30
0.0
  3
BLOCK_40
  1

  0
POLYLINE
  5
16A
330
166
100
AcDbEntity
  8
LAYER_1
 62
     5
100
AcDb2dPolyline
 66
     1
 10
0.0
 20
0.0
 30
0.0
  0
VERTEX
  5
16B
330
16A
100
AcDbEntity
  8
LAYER_1
 62
     5
100
AcDbVertex
100
AcDb2dVertex
 10
183.6921467639728
 20
-158.7184773366225
 30
0.0
  0
VERTEX
  5
16C
330
16A
100
AcDbEntity
  8
LAYER_1
 62
     5
100
AcDbVertex
100
AcDb2dVertex
 10
183.6921467639728
 20
-133.3184773429725
 30
0.0
  0
SEQEND
  5
16D
330
16A
100
AcDbEntity
  8
LAYER_1
  0
ENDBLK
  5
169
330
166
100
AcDbEntity
  8
0
100
AcDbBlockEnd
  0
BLOCK
  5
170
330
16E
100
AcDbEntity
  8
0
100
AcDbBlockBegin
  2
BLOCK_41
 70
     0
 71
     0
 10
0.0
 20
0.0
 30
0.0
  3
BLOCK_41
  1

  0
POLYLINE
  5
172
330
16E
100
AcDbEntity
  8
LAYER_1
 62
     5
100
AcDb2dPolyline
 66
     1
 10
0.0
 20
0.0
 30
0.0
  0
VERTEX
  5
173
330
172
100
AcDbEntity
  8
LAYER_1
 62
     5
100
AcDbVertex
100
AcDb2dVertex
 10
183.6921467639728
 20
-133.3184773429725
 30
0.0
  0
VERTEX
  5
174
330
172
100
AcDbEntity
  8
LAYER_1
 62
     5
100
AcDbVertex
100
AcDb2dVertex
 10
180.7710503020295
 20
-133.3184773429725
 30
0.0
  0
SEQEND
  5
175
330
172
100
AcDbEntity
  8
LAYER_1
  0
ENDBLK
  5
171
330
16E
100
AcDbEntity
  8
0
100
AcDbBlockEnd
  0
BLOCK
  5
178
330
176
100
AcDbEntity
  8
0
100
AcDbBlockBegin
  2
BLOCK_42
 70
     0
 71
     0
 10
0.0
 20
0.0
 30
0.0
  3
BLOCK_42
  1

  0
POLYLINE
  5
17A
330
176
100
AcDbEntity
  8
LAYER_1
 62
     5
100
AcDb2dPolyline
 66
     1
 10
0.0
 20
0.0
 30
0.0
  0
VERTEX
  5
17B
330
17A
100
AcDbEntity
  8
LAYER_1
 62
     5
100
AcDbVertex
100
AcDb2dVertex
 10
148.5132432354411
 20
-133.3184773429725
 30
0.0
  0
VERTEX
  5
17C
330
17A
100
AcDbEntity
  8
LAYER_1
 62
     5
100
AcDbVertex
100
AcDb2dVertex
 10
145.5921467734978
 20
-133.3184773429725
 30
0.0
  0
SEQEND
  5
17D
330
17A
100
AcDbEntity
  8
LAYER_1
  0
ENDBLK
  5
179
330
176
100
AcDbEntity
  8
0
100
AcDbBlockEnd
  0
BLOCK
  5
180
330
17E
100
AcDbEntity
  8
0
100
AcDbBlockBegin
  2
BLOCK_43
 70
     0
 71
     0
 10
0.0
 20
0.0
 30
0.0
  3
BLOCK_43
  1

  0
POLYLINE
  5
182
330
17E
100
AcDbEntity
  8
LAYER_1
 62
     5
100
AcDb2dPolyline
 66
     1
 10
0.0
 20
0.0
 30
0.0
  0
VERTEX
  5
183
330
182
100
AcDbEntity
  8
LAYER_1
 62
     5
100
AcDbVertex
100
AcDb2dVertex
 10
145.5921467734978
 20
-133.3184773429725
 30
0.0
  0
VERTEX
  5
184
330
182
100
AcDbEntity
  8
LAYER_1
 62
     5
100
AcDbVertex
100
AcDb2dVertex
 10
145.5921467734978
 20
-158.7184773366225
 30
0.0
  0
SEQEND
  5
185
330
182
100
AcDbEntity
  8
LAYER_1
  0
ENDBLK
  5
181
330
17E
100
AcDbEntity
  8
0
100
AcDbBlockEnd
  0
BLOCK
  5
188
330
186
100
AcDbEntity
  8
0
100
AcDbBlockBegin
  2
BLOCK_44
 70
     0
 71
     0
 10
0.0
 20
0.0
 30
0.0
  3
BLOCK_44
  1

  0
POLYLINE
  5
18A
330
186
100
AcDbEntity
  8
LAYER_1
 62
     5
100
AcDb2dPolyline
 66
     1
 10
0.0
 20
0.0
 30
0.0
  0
VERTEX
  5
18B
330
18A
100
AcDbEntity
  8
LAYER_1
 62
     5
100
AcDbVertex
100
AcDb2dVertex
 10
145.5921467734978
 20
-158.7184773366225
 30
0.0
  0
VERTEX
  5
18C
330
18A
100
AcDbEntity
  8
LAYER_1
 62
     5
100
AcDbVertex
100
AcDb2dVertex
 10
148.5132432354411
 20
-158.7184773366225
 30
0.0
  0
SEQEND
  5
18D
330
18A
100
AcDbEntity
  8
LAYER_1
  0
ENDBLK
  5
189
330
186
100
AcDbEntity
  8
0
100
AcDbBlockEnd
  0
BLOCK
  5
190
330
18E
100
AcDbEntity
  8
0
100
AcDbBlockBegin
  2
BLOCK_45
 70
     0
 71
     0
 10
0.0
 20
0.0
 30
0.0
  3
BLOCK_45
  1

  0
POLYLINE
  5
192
330
18E
100
AcDbEntity
  8
LAYER_1
 62
     5
100
AcDb2dPolyline
 66
     1
 10
0.0
 20
0.0
 30
0.0
  0
VERTEX
  5
193
330
192
100
AcDbEntity
  8
LAYER_1
 62
     5
100
AcDbVertex
100
AcDb2dVertex
 10
148.5132432354411
 20
-158.7184773366225
 30
0.0
  0
VERTEX
  5
194
330
192
100
AcDbEntity
  8
LAYER_1
 62
     5
100
AcDbVertex
100
AcDb2dVertex
 10
148.5132432354411
 20
-133.3184773429725
 30
0.0
  0
SEQEND
  5
195
330
192
100
AcDbEntity
  8
LAYER_1
  0
ENDBLK
  5
191
330
18E
100
AcDbEntity
  8
0
100
AcDbBlockEnd
  0
BLOCK
  5
198
330
196
100
AcDbEntity
  8
0
100
AcDbBlockBegin
  2
BLOCK_46
 70
     0
 71
     0
 10
0.0
 20
0.0
 30
0.0
  3
BLOCK_46
  1

  0
POLYLINE
  5
19A
330
196
100
AcDbEntity
  8
LAYER_1
 62
     5
100
AcDb2dPolyline
 66
     1
 10
0.0
 20
0.0
 30
0.0
  0
VERTEX
  5
19B
330
19A
100
AcDbEntity
  8
LAYER_1
 62
     5
100
AcDbVertex
100
AcDb2dVertex
 10
148.5132432354411
 20
-82.51847735567247
 30
0.0
  0
VERTEX
  5
19C
330
19A
100
AcDbEntity
  8
LAYER_1
 62
     5
100
AcDbVertex
100
AcDb2dVertex
 10
145.5921467734978
 20
-82.51847735567247
 30
0.0
  0
SEQEND
  5
19D
330
19A
100
AcDbEntity
  8
LAYER_1
  0
ENDBLK
  5
199
330
196
100
AcDbEntity
  8
0
100
AcDbBlockEnd
  0
BLOCK
  5
1A0
330
19E
100
AcDbEntity
  8
0
100
AcDbBlockBegin
  2
BLOCK_47
 70
     0
 71
     0
 10
0.0
 20
0.0
 30
0.0
  3
BLOCK_47
  1

  0
POLYLINE
  5
1A2
330
19E
100
AcDbEntity
  8
LAYER_1
 62
     5
100
AcDb2dPolyline
 66
     1
 10
0.0
 20
0.0
 30
0.0
  0
VERTEX
  5
1A3
330
1A2
100
AcDbEntity
  8
LAYER_1
 62
     5
100
AcDbVertex
100
AcDb2dVertex
 10
145.5921467734978
 20
-82.51847735567247
 30
0.0
  0
VERTEX
  5
1A4
330
1A2
100
AcDbEntity
  8
LAYER_1
 62
     5
100
AcDbVertex
100
AcDb2dVertex
 10
145.5921467734978
 20
-107.9184773493225
 30
0.0
  0
SEQEND
  5
1A5
330
1A2
100
AcDbEntity
  8
LAYER_1
  0
ENDBLK
  5
1A1
330
19E
100
AcDbEntity
  8
0
100
AcDbBlockEnd
  0
BLOCK
  5
1A8
330
1A6
100
AcDbEntity
  8
0
100
AcDbBlockBegin
  2
BLOCK_48
 70
     0
 71
     0
 10
0.0
 20
0.0
 30
0.0
  3
BLOCK_48
  1

  0
POLYLINE
  5
1AA
330
1A6
100
AcDbEntity
  8
LAYER_1
 62
     5
100
AcDb2dPolyline
 66
     1
 10
0.0
 20
0.0
 30
0.0
  0
VERTEX
  5
1AB
330
1AA
100
AcDbEntity
  8
LAYER_1
 62
     5
100
AcDbVertex
100
AcDb2dVertex
 10
145.5921467734978
 20
-107.9184773493225
 30
0.0
  0
VERTEX
  5
1AC
330
1AA
100
AcDbEntity
  8
LAYER_1
 62
     5
100
AcDbVertex
100
AcDb2dVertex
 10
148.5132432354411
 20
-107.9184773493225
 30
0.0
  0
SEQEND
  5
1AD
330
1AA
100
AcDbEntity
  8
LAYER_1
  0
ENDBLK
  5
1A9
330
1A6
100
AcDbEntity
  8
0
100
AcDbBlockEnd
  0
BLOCK
  5
1B0
330
1AE
100
AcDbEntity
  8
0
100
AcDbBlockBegin
  2
BLOCK_49
 70
     0
 71
     0
 10
0.0
 20
0.0
 30
0.0
  3
BLOCK_49
  1

  0
POLYLINE
  5
1B2
330
1AE
100
AcDbEntity
  8
LAYER_1
 62
     5
100
AcDb2dPolyline
 66
     1
 10
0.0
 20
0.0
 30
0.0
  0
VERTEX
  5
1B3
330
1B2
100
AcDbEntity
  8
LAYER_1
 62
     5
100
AcDbVertex
100
AcDb2dVertex
 10
148.5132432354411
 20
-107.9184773493225
 30
0.0
  0
VERTEX
  5
1B4
330
1B2
100
AcDbEntity
  8
LAYER_1
 62
     5
100
AcDbVertex
100
AcDb2dVertex
 10
148.5132432354411
 20
-82.51847735567247
 30
0.0
  0
SEQEND
  5
1B5
330
1B2
100
AcDbEntity
  8
LAYER_1
  0
ENDBLK
  5
1B1
330
1AE
100
AcDbEntity
  8
0
100
AcDbBlockEnd
  0
BLOCK
  5
1B8
330
1B6
100
AcDbEntity
  8
0
100
AcDbBlockBegin
  2
BLOCK_50
 70
     0
 71
     0
 10
0.0
 20
0.0
 30
0.0
  3
BLOCK_50
  1

  0
POLYLINE
  5
1BA
330
1B6
100
AcDbEntity
  8
LAYER_1
 62
     5
100
AcDb2dPolyline
 66
     1
 10
0.0
 20
0.0
 30
0.0
  0
VERTEX
  5
1BB
330
1BA
100
AcDbEntity
  8
LAYER_1
 62
     5
100
AcDbVertex
100
AcDb2dVertex
 10
238.4292018718163
 20
-133.3184773429725
 30
0.0
  0
VERTEX
  5
1BC
330
1BA
100
AcDbEntity
  8
LAYER_1
 62
     5
100
AcDbVertex
100
AcDb2dVertex
 10
241.3502983337597
 20
-133.3184773429725
 30
0.0
  0
SEQEND
  5
1BD
330
1BA
100
AcDbEntity
  8
LAYER_1
  0
ENDBLK
  5
1B9
330
1B6
100
AcDbEntity
  8
0
100
AcDbBlockEnd
  0
BLOCK
  5
1C0
330
1BE
100
AcDbEntity
  8
0
100
AcDbBlockBegin
  2
BLOCK_51
 70
     0
 71
     0
 10
0.0
 20
0.0
 30
0.0
  3
BLOCK_51
  1

  0
POLYLINE
  5
1C2
330
1BE
100
AcDbEntity
  8
LAYER_1
 62
     5
100
AcDb2dPolyline
 66
     1
 10
0.0
 20
0.0
 30
0.0
  0
VERTEX
  5
1C3
330
1C2
100
AcDbEntity
  8
LAYER_1
 62
     5
100
AcDbVertex
100
AcDb2dVertex
 10
241.3502983337597
 20
-133.3184773429725
 30
0.0
  0
VERTEX
  5
1C4
330
1C2
100
AcDbEntity
  8
LAYER_1
 62
     5
100
AcDbVertex
100
AcDb2dVertex
 10
241.3502983337597
 20
-158.7184773366225
 30
0.0
  0
SEQEND
  5
1C5
330
1C2
100
AcDbEntity
  8
LAYER_1
  0
ENDBLK
  5
1C1
330
1BE
100
AcDbEntity
  8
0
100
AcDbBlockEnd
  0
BLOCK
  5
1C8
330
1C6
100
AcDbEntity
  8
0
100
AcDbBlockBegin
  2
BLOCK_52
 70
     0
 71
     0
 10
0.0
 20
0.0
 30
0.0
  3
BLOCK_52
  1

  0
POLYLINE
  5
1CA
330
1C6
100
AcDbEntity
  8
LAYER_1
 62
     5
100
AcDb2dPolyline
 66
     1
 10
0.0
 20
0.0
 30
0.0
  0
VERTEX
  5
1CB
330
1CA
100
AcDbEntity
  8
LAYER_1
 62
     5
100
AcDbVertex
100
AcDb2dVertex
 10
241.3502983337597
 20
-158.7184773366225
 30
0.0
  0
VERTEX
  5
1CC
330
1CA
100
AcDbEntity
  8
LAYER_1
 62
     5
100
AcDbVertex
100
AcDb2dVertex
 10
238.4292018718163
 20
-158.7184773366225
 30
0.0
  0
SEQEND
  5
1CD
330
1CA
100
AcDbEntity
  8
LAYER_1
  0
ENDBLK
  5
1C9
330
1C6
100
AcDbEntity
  8
0
100
AcDbBlockEnd
  0
BLOCK
  5
1D0
330
1CE
100
AcDbEntity
  8
0
100
AcDbBlockBegin
  2
BLOCK_53
 70
     0
 71
     0
 10
0.0
 20
0.0
 30
0.0
  3
BLOCK_53
  1

  0
POLYLINE
  5
1D2
330
1CE
100
AcDbEntity
  8
LAYER_1
 62
     5
100
AcDb2dPolyline
 66
     1
 10
0.0
 20
0.0
 30
0.0
  0
VERTEX
  5
1D3
330
1D2
100
AcDbEntity
  8
LAYER_1
 62
     5
100
AcDbVertex
100
AcDb2dVertex
 10
238.4292018718163
 20
-158.7184773366225
 30
0.0
  0
VERTEX
  5
1D4
330
1D2
100
AcDbEntity
  8
LAYER_1
 62
     5
100
AcDbVertex
100
AcDb2dVertex
 10
238.4292018718163
 20
-133.3184773429725
 30
0.0
  0
SEQEND
  5
1D5
330
1D2
100
AcDbEntity
  8
LAYER_1
  0
ENDBLK
  5
1D1
330
1CE
100
AcDbEntity
  8
0
100
AcDbBlockEnd
  0
BLOCK
  5
1D8
330
1D6
100
AcDbEntity
  8
0
100
AcDbBlockBegin
  2
BLOCK_54
 70
     0
 71
     0
 10
0.0
 20
0.0
 30
0.0
  3
BLOCK_54
  1

  0
POLYLINE
  5
1DA
330
1D6
100
AcDbEntity
  8
LAYER_1
 62
     5
100
AcDb2dPolyline
 66
     1
 10
0.0
 20
0.0
 30
0.0
  0
VERTEX
  5
1DB
330
1DA
100
AcDbEntity
  8
LAYER_1
 62
     5
100
AcDbVertex
100
AcDb2dVertex
 10
238.4292018718163
 20
-82.51847735567247
 30
0.0
  0
VERTEX
  5
1DC
330
1DA
100
AcDbEntity
  8
LAYER_1
 62
     5
100
AcDbVertex
100
AcDb2dVertex
 10
241.3502983337597
 20
-82.51847735567247
 30
0.0
  0
SEQEND
  5
1DD
330
1DA
100
AcDbEntity
  8
LAYER_1
  0
ENDBLK
  5
1D9
330
1D6
100
AcDbEntity
  8
0
100
AcDbBlockEnd
  0
BLOCK
  5
1E0
330
1DE
100
AcDbEntity
  8
0
100
AcDbBlockBegin
  2
BLOCK_55
 70
     0
 71
     0
 10
0.0
 20
0.0
 30
0.0
  3
BLOCK_55
  1

  0
POLYLINE
  5
1E2
330
1DE
100
AcDbEntity
  8
LAYER_1
 62
     5
100
AcDb2dPolyline
 66
     1
 10
0.0
 20
0.0
 30
0.0
  0
VERTEX
  5
1E3
330
1E2
100
AcDbEntity
  8
LAYER_1
 62
     5
100
AcDbVertex
100
AcDb2dVertex
 10
241.3502983337597
 20
-82.51847735567247
 30
0.0
  0
VERTEX
  5
1E4
330
1E2
100
AcDbEntity
  8
LAYER_1
 62
     5
100
AcDbVertex
100
AcDb2dVertex
 10
241.3502983337597
 20
-107.9184773493225
 30
0.0
  0
SEQEND
  5
1E5
330
1E2
100
AcDbEntity
  8
LAYER_1
  0
ENDBLK
  5
1E1
330
1DE
100
AcDbEntity
  8
0
100
AcDbBlockEnd
  0
BLOCK
  5
1E8
330
1E6
100
AcDbEntity
  8
0
100
AcDbBlockBegin
  2
BLOCK_56
 70
     0
 71
     0
 10
0.0
 20
0.0
 30
0.0
  3
BLOCK_56
  1

  0
POLYLINE
  5
1EA
330
1E6
100
AcDbEntity
  8
LAYER_1
 62
     5
100
AcDb2dPolyline
 66
     1
 10
0.0
 20
0.0
 30
0.0
  0
VERTEX
  5
1EB
330
1EA
100
AcDbEntity
  8
LAYER_1
 62
     5
100
AcDbVertex
100
AcDb2dVertex
 10
241.3502983337597
 20
-107.9184773493225
 30
0.0
  0
VERTEX
  5
1EC
330
1EA
100
AcDbEntity
  8
LAYER_1
 62
     5
100
AcDbVertex
100
AcDb2dVertex
 10
238.4292018718163
 20
-107.9184773493225
 30
0.0
  0
SEQEND
  5
1ED
330
1EA
100
AcDbEntity
  8
LAYER_1
  0
ENDBLK
  5
1E9
330
1E6
100
AcDbEntity
  8
0
100
AcDbBlockEnd
  0
BLOCK
  5
1F0
330
1EE
100
AcDbEntity
  8
0
100
AcDbBlockBegin
  2
BLOCK_57
 70
     0
 71
     0
 10
0.0
 20
0.0
 30
0.0
  3
BLOCK_57
  1

  0
POLYLINE
  5
1F2
330
1EE
100
AcDbEntity
  8
LAYER_1
 62
     5
100
AcDb2dPolyline
 66
     1
 10
0.0
 20
0.0
 30
0.0
  0
VERTEX
  5
1F3
330
1F2
100
AcDbEntity
  8
LAYER_1
 62
     5
100
AcDbVertex
100
AcDb2dVertex
 10
238.4292018718163
 20
-107.9184773493225
 30
0.0
  0
VERTEX
  5
1F4
330
1F2
100
AcDbEntity
  8
LAYER_1
 62
     5
100
AcDbVertex
100
AcDb2dVertex
 10
238.4292018718163
 20
-82.51847735567247
 30
0.0
  0
SEQEND
  5
1F5
330
1F2
100
AcDbEntity
  8
LAYER_1
  0
ENDBLK
  5
1F1
330
1EE
100
AcDbEntity
  8
0
100
AcDbBlockEnd
  0
BLOCK
  5
1F8
330
1F6
100
AcDbEntity
  8
0
100
AcDbBlockBegin
  2
BLOCK_58
 70
     0
 71
     0
 10
0.0
 20
0.0
 30
0.0
  3
BLOCK_58
  1

  0
POLYLINE
  5
1FA
330
1F6
100
AcDbEntity
  8
LAYER_1
 62
     5
100
AcDb2dPolyline
 66
     1
 10
0.0
 20
0.0
 30
0.0
  0
VERTEX
  5
1FB
330
1FA
100
AcDbEntity
  8
LAYER_1
 62
     5
100
AcDbVertex
100
AcDb2dVertex
 10
94.7921467861978
 20
-171.4184773334475
 30
0.0
  0
VERTEX
  5
1FC
330
1FA
100
AcDbEntity
  8
LAYER_1
 62
     5
100
AcDbVertex
100
AcDb2dVertex
 10
145.5921467734978
 20
-171.4184773334475
 30
0.0
  0
SEQEND
  5
1FD
330
1FA
100
AcDbEntity
  8
LAYER_1
  0
ENDBLK
  5
1F9
330
1F6
100
AcDbEntity
  8
0
100
AcDbBlockEnd
  0
BLOCK
  5
200
330
1FE
100
AcDbEntity
  8
0
100
AcDbBlockBegin
  2
BLOCK_59
 70
     0
 71
     0
 10
0.0
 20
0.0
 30
0.0
  3
BLOCK_59
  1

  0
POLYLINE
  5
202
330
1FE
100
AcDbEntity
  8
LAYER_1
 62
     5
100
AcDb2dPolyline
 66
     1
 10
0.0
 20
0.0
 30
0.0
  0
VERTEX
  5
203
330
202
100
AcDbEntity
  8
LAYER_1
 62
     5
100
AcDbVertex
100
AcDb2dVertex
 10
292.1502983210597
 20
-171.4184773334475
 30
0.0
  0
VERTEX
  5
204
330
202
100
AcDbEntity
  8
LAYER_1
 62
     5
100
AcDbVertex
100
AcDb2dVertex
 10
241.3502983337597
 20
-171.4184773334475
 30
0.0
  0
SEQEND
  5
205
330
202
100
AcDbEntity
  8
LAYER_1
  0
ENDBLK
  5
201
330
1FE
100
AcDbEntity
  8
0
100
AcDbBlockEnd
  0
BLOCK
  5
208
330
206
100
AcDbEntity
  8
0
100
AcDbBlockBegin
  2
BLOCK_60
 70
     0
 71
     0
 10
0.0
 20
0.0
 30
0.0
  3
BLOCK_60
  1

  0
POLYLINE
  5
20A
330
206
100
AcDbEntity
  8
LAYER_1
 62
     5
100
AcDb2dPolyline
 66
     1
 10
0.0
 20
0.0
 30
0.0
  0
VERTEX
  5
20B
330
20A
100
AcDbEntity
  8
LAYER_1
 62
     5
100
AcDbVertex
100
AcDb2dVertex
 10
292.1502983210597
 20
-69.81847735884747
 30
0.0
  0
VERTEX
  5
20C
330
20A
100
AcDbEntity
  8
LAYER_1
 62
     5
100
AcDbVertex
100
AcDb2dVertex
 10
241.3502983337597
 20
-69.81847735884747
 30
0.0
  0
SEQEND
  5
20D
330
20A
100
AcDbEntity
  8
LAYER_1
  0
ENDBLK
  5
209
330
206
100
AcDbEntity
  8
0
100
AcDbBlockEnd
  0
BLOCK
  5
210
330
20E
100
AcDbEntity
  8
0
100
AcDbBlockBegin
  2
BLOCK_61
 70
     0
 71
     0
 10
0.0
 20
0.0
 30
0.0
  3
BLOCK_61
  1

  0
POLYLINE
  5
212
330
20E
100
AcDbEntity
  8
LAYER_1
 62
     5
100
AcDb2dPolyline
 66
     1
 10
0.0
 20
0.0
 30
0.0
  0
VERTEX
  5
213
330
212
100
AcDbEntity
  8
LAYER_1
 62
     5
100
AcDbVertex
100
AcDb2dVertex
 10
94.7921467861978
 20
-69.81847735884747
 30
0.0
  0
VERTEX
  5
214
330
212
100
AcDbEntity
  8
LAYER_1
 62
     5
100
AcDbVertex
100
AcDb2dVertex
 10
145.5921467734978
 20
-69.81847735884747
 30
0.0
  0
SEQEND
  5
215
330
212
100
AcDbEntity
  8
LAYER_1
  0
ENDBLK
  5
211
330
20E
100
AcDbEntity
  8
0
100
AcDbBlockEnd
  0
BLOCK
  5
218
330
216
100
AcDbEntity
  8
0
100
AcDbBlockBegin
  2
BLOCK_62
 70
     0
 71
     0
 10
0.0
 20
0.0
 30
0.0
  3
BLOCK_62
  1

  0
SPLINE
  5
21A
330
216
100
AcDbEntity
  8
LAYER_1
 62
     5
100
AcDbSpline
210
0.0
220
0.0
230
1.0
 70
    11
 71
     3
 72
   122
 73
   118
 74
     0
 42
0.0000000001
 43
0.0000000001
 40
0.0
 40
0.0
 40
0.0
 40
0.0
 40
1.0
 40
1.0
 40
1.0
 40
2.0
 40
2.0
 40
2.0
 40
3.0
 40
3.0
 40
3.0
 40
4.0
 40
4.0
 40
4.0
 40
5.0
 40
5.0
 40
5.0
 40
6.0
 40
6.0
 40
6.0
 40
7.0
 40
7.0
 40
7.0
 40
8.0
 40
8.0
 40
8.0
 40
9.0
 40
9.0
 40
9.0
 40
10.0
 40
10.0
 40
10.0
 40
11.0
 40
11.0
 40
11.0
 40
12.0
 40
12.0
 40
12.0
 40
13.0
 40
13.0
 40
13.0
 40
14.0
 40
14.0
 40
14.0
 40
15.0
 40
15.0
 40
15.0
 40
16.0
 40
16.0
 40
16.0
 40
17.0
 40
17.0
 40
17.0
 40
18.0
 40
18.0
 40
18.0
 40
19.0
 40
19.0
 40
19.0
 40
20.0
 40
20.0
 40
20.0
 40
21.0
 40
21.0
 40
21.0
 40
22.0
 40
22.0
 40
22.0
 40
23.0
 40
23.0
 40
23.0
 40
24.0
 40
24.0
 40
24.0
 40
25.0
 40
25.0
 40
25.0
 40
26.0
 40
26.0
 40
26.0
 40
27.0
 40
27.0
 40
27.0
 40
28.0
 40
28.0
 40
28.0
 40
29.0
 40
29.0
 40
29.0
 40
30.0
 40
30.0
 40
30.0
 40
31.0
 40
31.0
 40
31.0
 40
32.0
 40
32.0
 40
32.0
 40
33.0
 40
33.0
 40
33.0
 40
34.0
 40
34.0
 40
34.0
 40
35.0
 40
35.0
 40
35.0
 40
36.0
 40
36.0
 40
36.0
 40
37.0
 40
37.0
 40
37.0
 40
38.0
 40
38.0
 40
38.0
 40
39.0
 40
39.0
 40
39.0
 40
39.0
 10
292.1502983210597
 20
-234.9184773175725
 30
0.0
 10
275.2169649919597
 20
-234.9184773175725
 30
0.0
 10
258.2836316628596
 20
-234.9184773175725
 30
0.0
 10
241.3502983337597
 20
-234.9184773175725
 30
0.0
 10
209.4307996438229
 20
-234.9184773175725
 30
0.0
 10
177.5116454634346
 20
-234.9184773175725
 30
0.0
 10
145.5921467734978
 20
-234.9184773175725
 30
0.0
 10
128.6588134443978
 20
-234.9184773175725
 30
0.0
 10
111.7254801152978
 20
-234.9184773175725
 30
0.0
 10
94.7921467861978
 20
-234.9184773175725
 30
0.0
 10
94.7921467861978
 20
-213.7518106561975
 30
0.0
 10
94.7921467861978
 20
-192.5851439948225
 30
0.0
 10
94.7921467861978
 20
-171.4184773334475
 30
0.0
 10
89.5852294697912
 20
-171.4184773334475
 30
0.0
 10
84.3783121533846
 20
-171.4184773334475
 30
0.0
 10
79.17105032742947
 20
-171.4184773334475
 30
0.0
 10
78.19746634329786
 20
-171.4184773334475
 30
0.0
 10
77.22388235916625
 20
-171.4184773334475
 30
0.0
 10
76.25029837503465
 20
-171.4184773334475
 30
0.0
 10
55.08363171365965
 20
-171.4184773334475
 30
0.0
 10
33.91696505228465
 20
-171.4184773334475
 30
0.0
 10
12.75029839090965
 20
-171.4184773334475
 30
0.0
 10
12.75029839090965
 20
-167.1851440011725
 30
0.0
 10
12.75029839090965
 20
-162.9518106688975
 30
0.0
 10
12.75029839090965
 20
-158.7184773366225
 30
0.0
 10
11.77636989722952
 20
-158.7184773366225
 30
0.0
 10
10.80278591309792
 20
-158.7184773366225
 30
0.0
 10
9.829201928966311
 20
-158.7184773366225
 30
0.0
 10
9.829201928966311
 20
-150.2518106720725
 30
0.0
 10
9.829201928966311
 20
-141.7851440075225
 30
0.0
 10
9.829201928966311
 20
-133.3184773429725
 30
0.0
 10
10.80278591309792
 20
-133.3184773429725
 30
0.0
 10
11.77636989722952
 20
-133.3184773429725
 30
0.0
 10
12.75029839090965
 20
-133.3184773429725
 30
0.0
 10
12.75029839090965
 20
-124.8518106784225
 30
0.0
 10
12.75029839090965
 20
-116.3851440138725
 30
0.0
 10
12.75029839090965
 20
-107.9184773493225
 30
0.0
 10
11.77636989722952
 20
-107.9184773493225
 30
0.0
 10
10.80278591309792
 20
-107.9184773493225
 30
0.0
 10
9.829201928966311
 20
-107.9184773493225
 30
0.0
 10
9.829201928966311
 20
-99.45181068477247
 30
0.0
 10
9.829201928966311
 20
-90.98514402022246
 30
0.0
 10
9.829201928966311
 20
-82.51847735567247
 30
0.0
 10
10.80278591309792
 20
-82.51847735567247
 30
0.0
 10
11.77636989722952
 20
-82.51847735567247
 30
0.0
 10
12.75029839090965
 20
-82.51847735567247
 30
0.0
 10
12.75029839090965
 20
-78.28514402339746
 30
0.0
 10
12.75029839090965
 20
-74.05181069112247
 30
0.0
 10
12.75029839090965
 20
-69.81847735884747
 30
0.0
 10
33.91696505228465
 20
-69.81847735884747
 30
0.0
 10
55.08363171365965
 20
-69.81847735884747
 30
0.0
 10
76.25029837503465
 20
-69.81847735884747
 30
0.0
 10
77.22388235916625
 20
-69.81847735884747
 30
0.0
 10
78.19746634329786
 20
-69.81847735884747
 30
0.0
 10
79.17105032742947
 20
-69.81847735884747
 30
0.0
 10
84.3783121533846
 20
-69.81847735884747
 30
0.0
 10
89.5852294697912
 20
-69.81847735884747
 30
0.0
 10
94.7921467861978
 20
-69.81847735884747
 30
0.0
 10
94.7921467861978
 20
-48.65181069747246
 30
0.0
 10
94.7921467861978
 20
-27.48514403609747
 30
0.0
 10
94.7921467861978
 20
-6.318477374722464
 30
0.0
 10
158.6307996565229
 20
-6.318477374722464
 30
0.0
 10
222.4694525268479
 20
-6.318477374722464
 30
0.0
 10
286.308105397173
 20
-6.318477374722464
 30
0.0
 10
288.2556178749847
 20
-6.318477374722464
 30
0.0
 10
290.2027858432479
 20
-6.318477374722464
 30
0.0
 10
292.1502983210597
 20
-6.318477374722464
 30
0.0
 10
292.1502983210597
 20
-27.48514403609747
 30
0.0
 10
292.1502983210597
 20
-48.65181069747246
 30
0.0
 10
292.1502983210597
 20
-69.81847735884747
 30
0.0
 10
297.3572156374663
 20
-69.81847735884747
 30
0.0
 10
302.5641329538728
 20
-69.81847735884747
 30
0.0
 10
307.7710502702795
 20
-69.81847735884747
 30
0.0
 10
308.7449787639596
 20
-69.81847735884747
 30
0.0
 10
309.7185627480912
 20
-69.81847735884747
 30
0.0
 10
310.6921467322228
 20
-69.81847735884747
 30
0.0
 10
331.8588133935978
 20
-69.81847735884747
 30
0.0
 10
353.0254800549728
 20
-69.81847735884747
 30
0.0
 10
374.1921467163478
 20
-69.81847735884747
 30
0.0
 10
374.1921467163478
 20
-74.05181069112247
 30
0.0
 10
374.1921467163478
 20
-78.28514402339746
 30
0.0
 10
374.1921467163478
 20
-82.51847735567247
 30
0.0
 10
375.1657307004794
 20
-82.51847735567247
 30
0.0
 10
376.1396591941595
 20
-82.51847735567247
 30
0.0
 10
377.1132431782912
 20
-82.51847735567247
 30
0.0
 10
377.1132431782912
 20
-90.98514402022246
 30
0.0
 10
377.1132431782912
 20
-99.45181068477247
 30
0.0
 10
377.1132431782912
 20
-107.9184773493225
 30
0.0
 10
376.1396591941595
 20
-107.9184773493225
 30
0.0
 10
375.1657307004794
 20
-107.9184773493225
 30
0.0
 10
374.1921467163478
 20
-107.9184773493225
 30
0.0
 10
374.1921467163478
 20
-116.3851440138725
 30
0.0
 10
374.1921467163478
 20
-124.8518106784225
 30
0.0
 10
374.1921467163478
 20
-133.3184773429725
 30
0.0
 10
375.1657307004794
 20
-133.3184773429725
 30
0.0
 10
376.1396591941595
 20
-133.3184773429725
 30
0.0
 10
377.1132431782912
 20
-133.3184773429725
 30
0.0
 10
377.1132431782912
 20
-141.7851440075225
 30
0.0
 10
377.1132431782912
 20
-150.2518106720725
 30
0.0
 10
377.1132431782912
 20
-158.7184773366225
 30
0.0
 10
376.1396591941595
 20
-158.7184773366225
 30
0.0
 10
375.1657307004794
 20
-158.7184773366225
 30
0.0
 10
374.1921467163478
 20
-158.7184773366225
 30
0.0
 10
374.1921467163478
 20
-162.9518106688975
 30
0.0
 10
374.1921467163478
 20
-167.1851440011725
 30
0.0
 10
374.1921467163478
 20
-171.4184773334475
 30
0.0
 10
353.0254800549728
 20
-171.4184773334475
 30
0.0
 10
331.8588133935978
 20
-171.4184773334475
 30
0.0
 10
310.6921467322228
 20
-171.4184773334475
 30
0.0
 10
309.7185627480912
 20
-171.4184773334475
 30
0.0
 10
308.7449787639596
 20
-171.4184773334475
 30
0.0
 10
307.7710502702795
 20
-171.4184773334475
 30
0.0
 10
302.5641329538728
 20
-171.4184773334475
 30
0.0
 10
297.3572156374663
 20
-171.4184773334475
 30
0.0
 10
292.1502983210597
 20
-171.4184773334475
 30
0.0
 10
292.1502983210597
 20
-192.5851439948225
 30
0.0
 10
292.1502983210597
 20
-213.7518106561975
 30
0.0
 10
292.1502983210597
 20
-234.9184773175725
 30
0.0
  0
ENDBLK
  5
219
330
216
100
AcDbEntity
  8
0
100
AcDbBlockEnd
  0
BLOCK
  5
21D
330
21B
100
AcDbEntity
  8
0
100
AcDbBlockBegin
  2
BLOCK_63
 70
     0
 71
     0
 10
0.0
 20
0.0
 30
0.0
  3
BLOCK_63
  1

  0
SPLINE
  5
21F
330
21B
100
AcDbEntity
  8
LAYER_1
 62
     5
100
AcDbSpline
210
0.0
220
0.0
230
1.0
 70
    11
 71
     3
 72
    20
 73
    16
 74
     0
 42
0.0000000001
 43
0.0000000001
 40
0.0
 40
0.0
 40
0.0
 40
0.0
 40
1.0
 40
1.0
 40
1.0
 40
2.0
 40
2.0
 40
2.0
 40
3.0
 40
3.0
 40
3.0
 40
4.0
 40
4.0
 40
4.0
 40
5.0
 40
5.0
 40
5.0
 40
5.0
 10
166.2678873282247
 20
-203.4985174729969
 30
0.0
 10
166.2678873282247
 20
-200.0616902169117
 30
0.0
 10
163.4814940997546
 20
-197.2756414979901
 30
0.0
 10
160.0446668436694
 20
-197.2756414979901
 30
0.0
 10
156.6078395875842
 20
-197.2756414979901
 30
0.0
 10
153.8217908686626
 20
-200.0616902169117
 30
0.0
 10
153.8217908686626
 20
-203.4985174729969
 30
0.0
 10
153.8217908686626
 20
-206.9353447290821
 30
0.0
 10
156.6078395875842
 20
-209.7213934480037
 30
0.0
 10
160.0446668436694
 20
-209.7213934480037
 30
0.0
 10
163.4814940997546
 20
-209.7213934480037
 30
0.0
 10
166.2678873282247
 20
-206.9353447290821
 30
0.0
 10
166.2678873282247
 20
-203.4985174729969
 30
0.0
 10
166.2678873282247
 20
-203.4985174729969
 30
0.0
 10
166.2678873282247
 20
-203.4985174729969
 30
0.0
 10
166.2678873282247
 20
-203.4985174729969
 30
0.0
  0
ENDBLK
  5
21E
330
21B
100
AcDbEntity
  8
0
100
AcDbBlockEnd
  0
BLOCK
  5
222
330
220
100
AcDbEntity
  8
0
100
AcDbBlockBegin
  2
BLOCK_64
 70
     0
 71
     0
 10
0.0
 20
0.0
 30
0.0
  3
BLOCK_64
  1

  0
SPLINE
  5
224
330
220
100
AcDbEntity
  8
LAYER_1
 62
     5
100
AcDbSpline
210
0.0
220
0.0
230
1.0
 70
    11
 71
     3
 72
    20
 73
    16
 74
     0
 42
0.0000000001
 43
0.0000000001
 40
0.0
 40
0.0
 40
0.0
 40
0.0
 40
1.0
 40
1.0
 40
1.0
 40
2.0
 40
2.0
 40
2.0
 40
3.0
 40
3.0
 40
3.0
 40
4.0
 40
4.0
 40
4.0
 40
5.0
 40
5.0
 40
5.0
 40
5.0
 10
233.1206542385949
 20
-203.4985174729969
 30
0.0
 10
233.1206542385949
 20
-200.0616902169117
 30
0.0
 10
230.3342610101248
 20
-197.2756414979901
 30
0.0
 10
226.8974337540396
 20
-197.2756414979901
 30
0.0
 10
223.4606064979543
 20
-197.2756414979901
 30
0.0
 10
220.6745577790328
 20
-200.0616902169117
 30
0.0
 10
220.6745577790328
 20
-203.4985174729969
 30
0.0
 10
220.6745577790328
 20
-206.9353447290821
 30
0.0
 10
223.4606064979543
 20
-209.7213934480037
 30
0.0
 10
226.8974337540396
 20
-209.7213934480037
 30
0.0
 10
230.3342610101248
 20
-209.7213934480037
 30
0.0
 10
233.1206542385949
 20
-206.9353447290821
 30
0.0
 10
233.1206542385949
 20
-203.4985174729969
 30
0.0
 10
233.1206542385949
 20
-203.4985174729969
 30
0.0
 10
233.1206542385949
 20
-203.4985174729969
 30
0.0
 10
233.1206542385949
 20
-203.4985174729969
 30
0.0
  0
ENDBLK
  5
223
330
220
100
AcDbEntity
  8
0
100
AcDbBlockEnd
  0
BLOCK
  5
227
330
225
100
AcDbEntity
  8
0
100
AcDbBlockBegin
  2
BLOCK_65
 70
     0
 71
     0
 10
0.0
 20
0.0
 30
0.0
  3
BLOCK_65
  1

  0
SPLINE
  5
229
330
225
100
AcDbEntity
  8
LAYER_1
 62
     5
100
AcDbSpline
210
0.0
220
0.0
230
1.0
 70
    11
 71
     3
 72
    20
 73
    16
 74
     0
 42
0.0000000001
 43
0.0000000001
 40
0.0
 40
0.0
 40
0.0
 40
0.0
 40
1.0
 40
1.0
 40
1.0
 40
2.0
 40
2.0
 40
2.0
 40
3.0
 40
3.0
 40
3.0
 40
4.0
 40
4.0
 40
4.0
 40
5.0
 40
5.0
 40
5.0
 40
5.0
 10
233.1206542385949
 20
-37.73809270974951
 30
0.0
 10
233.1206542385949
 20
-34.30126545366427
 30
0.0
 10
230.3342610101248
 20
-31.51521673474273
 30
0.0
 10
226.8974337540396
 20
-31.51521673474273
 30
0.0
 10
223.4606064979543
 20
-31.51521673474273
 30
0.0
 10
220.6745577790328
 20
-34.30126545366427
 30
0.0
 10
220.6745577790328
 20
-37.73809270974951
 30
0.0
 10
220.6745577790328
 20
-41.17491996583475
 30
0.0
 10
223.4606064979543
 20
-43.96096868475629
 30
0.0
 10
226.8974337540396
 20
-43.96096868475629
 30
0.0
 10
230.3342610101248
 20
-43.96096868475629
 30
0.0
 10
233.1206542385949
 20
-41.17491996583475
 30
0.0
 10
233.1206542385949
 20
-37.73809270974951
 30
0.0
 10
233.1206542385949
 20
-37.73809270974951
 30
0.0
 10
233.1206542385949
 20
-37.73809270974951
 30
0.0
 10
233.1206542385949
 20
-37.73809270974951
 30
0.0
  0
ENDBLK
  5
228
330
225
100
AcDbEntity
  8
0
100
AcDbBlockEnd
  0
BLOCK
  5
22C
330
22A
100
AcDbEntity
  8
0
100
AcDbBlockBegin
  2
BLOCK_66
 70
     0
 71
     0
 10
0.0
 20
0.0
 30
0.0
  3
BLOCK_66
  1

  0
SPLINE
  5
22E
330
22A
100
AcDbEntity
  8
LAYER_1
 62
     5
100
AcDbSpline
210
0.0
220
0.0
230
1.0
 70
    11
 71
     3
 72
    20
 73
    16
 74
     0
 42
0.0000000001
 43
0.0000000001
 40
0.0
 40
0.0
 40
0.0
 40
0.0
 40
1.0
 40
1.0
 40
1.0
 40
2.0
 40
2.0
 40
2.0
 40
3.0
 40
3.0
 40
3.0
 40
4.0
 40
4.0
 40
4.0
 40
5.0
 40
5.0
 40
5.0
 40
5.0
 10
166.2678873282247
 20
-37.73809270974951
 30
0.0
 10
166.2678873282247
 20
-34.30126545366427
 30
0.0
 10
163.4814940997546
 20
-31.51521673474273
 30
0.0
 10
160.0446668436694
 20
-31.51521673474273
 30
0.0
 10
156.6078395875842
 20
-31.51521673474273
 30
0.0
 10
153.8217908686626
 20
-34.30126545366427
 30
0.0
 10
153.8217908686626
 20
-37.73809270974951
 30
0.0
 10
153.8217908686626
 20
-41.17491996583475
 30
0.0
 10
156.6078395875842
 20
-43.96096868475629
 30
0.0
 10
160.0446668436694
 20
-43.96096868475629
 30
0.0
 10
163.4814940997546
 20
-43.96096868475629
 30
0.0
 10
166.2678873282247
 20
-41.17491996583475
 30
0.0
 10
166.2678873282247
 20
-37.73809270974951
 30
0.0
 10
166.2678873282247
 20
-37.73809270974951
 30
0.0
 10
166.2678873282247
 20
-37.73809270974951
 30
0.0
 10
166.2678873282247
 20
-37.73809270974951
 30
0.0
  0
ENDBLK
  5
22D
330
22A
100
AcDbEntity
  8
0
100
AcDbBlockEnd
  0
BLOCK
  5
231
330
22F
100
AcDbEntity
  8
0
100
AcDbBlockBegin
  2
BLOCK_67
 70
     0
 71
     0
 10
0.0
 20
0.0
 30
0.0
  3
BLOCK_67
  1

  0
SPLINE
  5
233
330
22F
100
AcDbEntity
  8
LAYER_1
 62
     5
100
AcDbSpline
210
0.0
220
0.0
230
1.0
 70
    11
 71
     3
 72
    20
 73
    16
 74
     0
 42
0.0000000001
 43
0.0000000001
 40
0.0
 40
0.0
 40
0.0
 40
0.0
 40
1.0
 40
1.0
 40
1.0
 40
2.0
 40
2.0
 40
2.0
 40
3.0
 40
3.0
 40
3.0
 40
4.0
 40
4.0
 40
4.0
 40
5.0
 40
5.0
 40
5.0
 40
5.0
 10
197.725743223138
 20
-28.49248995598452
 30
0.0
 10
197.725743223138
 20
-26.14293483504413
 30
0.0
 10
195.8209499293434
 20
-24.23814154124949
 30
0.0
 10
193.4710502988545
 20
-24.23814154124949
 30
0.0
 10
191.1214951779141
 20
-24.23814154124949
 30
0.0
 10
189.2167018841194
 20
-26.14293483504413
 30
0.0
 10
189.2167018841194
 20
-28.49248995598452
 30
0.0
 10
189.2167018841194
 20
-30.84238958647343
 30
0.0
 10
191.1214951779141
 20
-32.74718288026806
 30
0.0
 10
193.4710502988545
 20
-32.74718288026806
 30
0.0
 10
195.8209499293434
 20
-32.74718288026806
 30
0.0
 10
197.725743223138
 20
-30.84238958647343
 30
0.0
 10
197.725743223138
 20
-28.49248995598452
 30
0.0
 10
197.725743223138
 20
-28.49248995598452
 30
0.0
 10
197.725743223138
 20
-28.49248995598452
 30
0.0
 10
197.725743223138
 20
-28.49248995598452
 30
0.0
  0
ENDBLK
  5
232
330
22F
100
AcDbEntity
  8
0
100
AcDbBlockEnd
  0
BLOCK
  5
236
330
234
100
AcDbEntity
  8
0
100
AcDbBlockBegin
  2
BLOCK_68
 70
     0
 71
     0
 10
0.0
 20
0.0
 30
0.0
  3
BLOCK_68
  1

  0
SPLINE
  5
238
330
234
100
AcDbEntity
  8
LAYER_1
 62
     5
100
AcDbSpline
210
0.0
220
0.0
230
1.0
 70
    11
 71
     3
 72
    20
 73
    16
 74
     0
 42
0.0000000001
 43
0.0000000001
 40
0.0
 40
0.0
 40
0.0
 40
0.0
 40
1.0
 40
1.0
 40
1.0
 40
2.0
 40
2.0
 40
2.0
 40
3.0
 40
3.0
 40
3.0
 40
4.0
 40
4.0
 40
4.0
 40
5.0
 40
5.0
 40
5.0
 40
5.0
 10
197.725743223138
 20
-212.7441202267619
 30
0.0
 10
197.725743223138
 20
-210.3945651058215
 30
0.0
 10
195.8209499293434
 20
-208.4897718120269
 30
0.0
 10
193.4710502988545
 20
-208.4897718120269
 30
0.0
 10
191.1214951779141
 20
-208.4897718120269
 30
0.0
 10
189.2167018841194
 20
-210.3945651058215
 30
0.0
 10
189.2167018841194
 20
-212.7441202267619
 30
0.0
 10
189.2167018841194
 20
-215.0936753477023
 30
0.0
 10
191.1214951779141
 20
-216.9984686414969
 30
0.0
 10
193.4710502988545
 20
-216.9984686414969
 30
0.0
 10
195.8209499293434
 20
-216.9984686414969
 30
0.0
 10
197.725743223138
 20
-215.0936753477023
 30
0.0
 10
197.725743223138
 20
-212.7441202267619
 30
0.0
 10
197.725743223138
 20
-212.7441202267619
 30
0.0
 10
197.725743223138
 20
-212.7441202267619
 30
0.0
 10
197.725743223138
 20
-212.7441202267619
 30
0.0
  0
ENDBLK
  5
237
330
234
100
AcDbEntity
  8
0
100
AcDbBlockEnd
  0
BLOCK
  5
23B
330
239
100
AcDbEntity
  8
0
100
AcDbBlockBegin
  2
BLOCK_69
 70
     0
 71
     0
 10
0.0
 20
0.0
 30
0.0
  3
BLOCK_69
  1

  0
SPLINE
  5
23D
330
239
100
AcDbEntity
  8
LAYER_1
 62
     5
100
AcDbSpline
210
0.0
220
0.0
230
1.0
 70
    11
 71
     3
 72
    20
 73
    16
 74
     0
 42
0.0000000001
 43
0.0000000001
 40
0.0
 40
0.0
 40
0.0
 40
0.0
 40
1.0
 40
1.0
 40
1.0
 40
2.0
 40
2.0
 40
2.0
 40
3.0
 40
3.0
 40
3.0
 40
4.0
 40
4.0
 40
4.0
 40
5.0
 40
5.0
 40
5.0
 40
5.0
 10
185.7182074188482
 20
-218.8570976557892
 30
0.0
 10
185.7182074188482
 20
-217.6998900822938
 30
0.0
 10
184.7801079182147
 20
-216.7617905816603
 30
0.0
 10
183.6229003447193
 20
-216.7617905816603
 30
0.0
 10
182.4653482616753
 20
-216.7617905816603
 30
0.0
 10
181.5272487610418
 20
-217.6998900822938
 30
0.0
 10
181.5272487610418
 20
-218.8570976557892
 30
0.0
 10
181.5272487610418
 20
-220.0143052292846
 30
0.0
 10
182.4653482616753
 20
-220.9527492394667
 30
0.0
 10
183.6229003447193
 20
-220.9527492394667
 30
0.0
 10
184.7801079182147
 20
-220.9527492394667
 30
0.0
 10
185.7182074188482
 20
-220.0143052292846
 30
0.0
 10
185.7182074188482
 20
-218.8570976557892
 30
0.0
 10
185.7182074188482
 20
-218.8570976557892
 30
0.0
 10
185.7182074188482
 20
-218.8570976557892
 30
0.0
 10
185.7182074188482
 20
-218.8570976557892
 30
0.0
  0
ENDBLK
  5
23C
330
239
100
AcDbEntity
  8
0
100
AcDbBlockEnd
  0
BLOCK
  5
240
330
23E
100
AcDbEntity
  8
0
100
AcDbBlockBegin
  2
BLOCK_70
 70
     0
 71
     0
 10
0.0
 20
0.0
 30
0.0
  3
BLOCK_70
  1

  0
SPLINE
  5
242
330
23E
100
AcDbEntity
  8
LAYER_1
 62
     5
100
AcDbSpline
210
0.0
220
0.0
230
1.0
 70
    11
 71
     3
 72
    20
 73
    16
 74
     0
 42
0.0000000001
 43
0.0000000001
 40
0.0
 40
0.0
 40
0.0
 40
0.0
 40
1.0
 40
1.0
 40
1.0
 40
2.0
 40
2.0
 40
2.0
 40
3.0
 40
3.0
 40
3.0
 40
4.0
 40
4.0
 40
4.0
 40
5.0
 40
5.0
 40
5.0
 40
5.0
 10
205.4151963462157
 20
-218.8570976557892
 30
0.0
 10
205.4151963462157
 20
-217.6998900822938
 30
0.0
 10
204.4767523360336
 20
-216.7617905816603
 30
0.0
 10
203.3195447625382
 20
-216.7617905816603
 30
0.0
 10
202.1623371890427
 20
-216.7617905816603
 30
0.0
 10
201.2242376884092
 20
-217.6998900822938
 30
0.0
 10
201.2242376884092
 20
-218.8570976557892
 30
0.0
 10
201.2242376884092
 20
-220.0143052292846
 30
0.0
 10
202.1623371890427
 20
-220.9527492394667
 30
0.0
 10
203.3195447625382
 20
-220.9527492394667
 30
0.0
 10
204.4767523360336
 20
-220.9527492394667
 30
0.0
 10
205.4151963462157
 20
-220.0143052292846
 30
0.0
 10
205.4151963462157
 20
-218.8570976557892
 30
0.0
 10
205.4151963462157
 20
-218.8570976557892
 30
0.0
 10
205.4151963462157
 20
-218.8570976557892
 30
0.0
 10
205.4151963462157
 20
-218.8570976557892
 30
0.0
  0
ENDBLK
  5
241
330
23E
100
AcDbEntity
  8
0
100
AcDbBlockEnd
  0
BLOCK
  5
245
330
243
100
AcDbEntity
  8
0
100
AcDbBlockBegin
  2
BLOCK_71
 70
     0
 71
     0
 10
0.0
 20
0.0
 30
0.0
  3
BLOCK_71
  1

  0
SPLINE
  5
247
330
243
100
AcDbEntity
  8
LAYER_1
 62
     5
100
AcDbSpline
210
0.0
220
0.0
230
1.0
 70
    11
 71
     3
 72
    20
 73
    16
 74
     0
 42
0.0000000001
 43
0.0000000001
 40
0.0
 40
0.0
 40
0.0
 40
0.0
 40
1.0
 40
1.0
 40
1.0
 40
2.0
 40
2.0
 40
2.0
 40
3.0
 40
3.0
 40
3.0
 40
4.0
 40
4.0
 40
4.0
 40
5.0
 40
5.0
 40
5.0
 40
5.0
 10
195.566701882532
 20
-201.4324937104926
 30
0.0
 10
195.566701882532
 20
-200.2752861369972
 30
0.0
 10
194.6286023818984
 20
-199.3371866363636
 30
0.0
 10
193.4710502988545
 20
-199.3371866363636
 30
0.0
 10
192.3138427253591
 20
-199.3371866363636
 30
0.0
 10
191.3757432247255
 20
-200.2752861369972
 30
0.0
 10
191.3757432247255
 20
-201.4324937104926
 30
0.0
 10
191.3757432247255
 20
-202.589701283988
 30
0.0
 10
192.3138427253591
 20
-203.5281452941701
 30
0.0
 10
193.4710502988545
 20
-203.5281452941701
 30
0.0
 10
194.6286023818984
 20
-203.5281452941701
 30
0.0
 10
195.566701882532
 20
-202.589701283988
 30
0.0
 10
195.566701882532
 20
-201.4324937104926
 30
0.0
 10
195.566701882532
 20
-201.4324937104926
 30
0.0
 10
195.566701882532
 20
-201.4324937104926
 30
0.0
 10
195.566701882532
 20
-201.4324937104926
 30
0.0
  0
ENDBLK
  5
246
330
243
100
AcDbEntity
  8
0
100
AcDbBlockEnd
  0
BLOCK
  5
24A
330
248
100
AcDbEntity
  8
0
100
AcDbBlockBegin
  2
BLOCK_72
 70
     0
 71
     0
 10
0.0
 20
0.0
 30
0.0
  3
BLOCK_72
  1

  0
POLYLINE
  5
24C
330
248
100
AcDbEntity
  8
LAYER_1
 62
     5
100
AcDb2dPolyline
 66
     1
 10
0.0
 20
0.0
 30
0.0
  0
VERTEX
  5
24D
330
24C
100
AcDbEntity
  8
LAYER_1
 62
     5
100
AcDbVertex
100
AcDb2dVertex
 10
148.5132432354411
 20
-158.7184773366225
 30
0.0
  0
VERTEX
  5
24E
330
24C
100
AcDbEntity
  8
LAYER_1
 62
     5
100
AcDbVertex
100
AcDb2dVertex
 10
148.5132432354411
 20
-133.3184773429725
 30
0.0
  0
SEQEND
  5
24F
330
24C
100
AcDbEntity
  8
LAYER_1
  0
ENDBLK
  5
24B
330
248
100
AcDbEntity
  8
0
100
AcDbBlockEnd
  0
BLOCK
  5
252
330
250
100
AcDbEntity
  8
0
100
AcDbBlockBegin
  2
BLOCK_73
 70
     0
 71
     0
 10
0.0
 20
0.0
 30
0.0
  3
BLOCK_73
  1

  0
SPLINE
  5
254
330
250
100
AcDbEntity
  8
LAYER_1
 62
     5
100
AcDbSpline
210
0.0
220
0.0
230
1.0
 70
    11
 71
     3
 72
    17
 73
    13
 74
     0
 42
0.0000000001
 43
0.0000000001
 40
0.0
 40
0.0
 40
0.0
 40
0.0
 40
1.0
 40
1.0
 40
1.0
 40
2.0
 40
2.0
 40
2.0
 40
3.0
 40
3.0
 40
3.0
 40
4.0
 40
4.0
 40
4.0
 40
4.0
 10
191.8835502992513
 20
-120.6184773461475
 30
0.0
 10
191.8835502992513
 20
-121.6768106792162
 30
0.0
 10
192.4127169657857
 20
-122.2059773457506
 30
0.0
 10
193.4710502988545
 20
-122.2059773457506
 30
0.0
 10
194.5293836319232
 20
-122.2059773457506
 30
0.0
 10
195.0585502984576
 20
-121.6768106792162
 30
0.0
 10
195.0585502984576
 20
-120.6184773461475
 30
0.0
 10
195.0585502984576
 20
-119.5601440130787
 30
0.0
 10
194.5293836319232
 20
-119.0309773465443
 30
0.0
 10
193.4710502988545
 20
-119.0309773465443
 30
0.0
 10
192.4127169657857
 20
-119.0309773465443
 30
0.0
 10
191.8835502992513
 20
-119.5601440130787
 30
0.0
 10
191.8835502992513
 20
-120.6184773461475
 30
0.0
  0
ENDBLK
  5
253
330
250
100
AcDbEntity
  8
0
100
AcDbBlockEnd
  0
BLOCK
  5
257
330
255
100
AcDbEntity
  8
0
100
AcDbBlockBegin
  2
BLOCK_74
 70
     0
 71
     0
 10
0.0
 20
0.0
 30
0.0
  3
BLOCK_74
  1

  0
SPLINE
  5
259
330
255
100
AcDbEntity
  8
LAYER_1
 62
     5
100
AcDbSpline
210
0.0
220
0.0
230
1.0
 70
    11
 71
     3
 72
    17
 73
    13
 74
     0
 42
0.0000000001
 43
0.0000000001
 40
0.0
 40
0.0
 40
0.0
 40
0.0
 40
1.0
 40
1.0
 40
1.0
 40
2.0
 40
2.0
 40
2.0
 40
3.0
 40
3.0
 40
3.0
 40
4.0
 40
4.0
 40
4.0
 40
4.0
 10
163.4746039087841
 20
-120.6184773461475
 30
0.0
 10
163.4746039087841
 20
-121.6768106792162
 30
0.0
 10
162.9454372422498
 20
-122.2059773457506
 30
0.0
 10
161.887103909181
 20
-122.2059773457506
 30
0.0
 10
160.8287705761122
 20
-122.2059773457506
 30
0.0
 10
160.2996039095779
 20
-121.6768106792162
 30
0.0
 10
160.2996039095779
 20
-120.6184773461475
 30
0.0
 10
160.2996039095779
 20
-119.5601440130787
 30
0.0
 10
160.8287705761122
 20
-119.0309773465443
 30
0.0
 10
161.887103909181
 20
-119.0309773465443
 30
0.0
 10
162.9454372422498
 20
-119.0309773465443
 30
0.0
 10
163.4746039087841
 20
-119.5601440130787
 30
0.0
 10
163.4746039087841
 20
-120.6184773461475
 30
0.0
  0
ENDBLK
  5
258
330
255
100
AcDbEntity
  8
0
100
AcDbBlockEnd
  0
BLOCK
  5
25C
330
25A
100
AcDbEntity
  8
0
100
AcDbBlockBegin
  2
BLOCK_75
 70
     0
 71
     0
 10
0.0
 20
0.0
 30
0.0
  3
BLOCK_75
  1

  0
SPLINE
  5
25E
330
25A
100
AcDbEntity
  8
LAYER_1
 62
     5
100
AcDbSpline
210
0.0
220
0.0
230
1.0
 70
    11
 71
     3
 72
    17
 73
    13
 74
     0
 42
0.0000000001
 43
0.0000000001
 40
0.0
 40
0.0
 40
0.0
 40
0.0
 40
1.0
 40
1.0
 40
1.0
 40
2.0
 40
2.0
 40
2.0
 40
3.0
 40
3.0
 40
3.0
 40
4.0
 40
4.0
 40
4.0
 40
4.0
 10
163.4746039087841
 20
-84.4232706494671
 30
0.0
 10
163.4746039087841
 20
-85.48160398253586
 30
0.0
 10
162.9454372422498
 20
-86.01077064907022
 30
0.0
 10
161.887103909181
 20
-86.01077064907022
 30
0.0
 10
160.8287705761122
 20
-86.01077064907022
 30
0.0
 10
160.2996039095779
 20
-85.48160398253586
 30
0.0
 10
160.2996039095779
 20
-84.4232706494671
 30
0.0
 10
160.2996039095779
 20
-83.36493731639835
 30
0.0
 10
160.8287705761122
 20
-82.83577064986397
 30
0.0
 10
161.887103909181
 20
-82.83577064986397
 30
0.0
 10
162.9454372422498
 20
-82.83577064986397
 30
0.0
 10
163.4746039087841
 20
-83.36493731639835
 30
0.0
 10
163.4746039087841
 20
-84.4232706494671
 30
0.0
  0
ENDBLK
  5
25D
330
25A
100
AcDbEntity
  8
0
100
AcDbBlockEnd
  0
BLOCK
  5
261
330
25F
100
AcDbEntity
  8
0
100
AcDbBlockBegin
  2
BLOCK_76
 70
     0
 71
     0
 10
0.0
 20
0.0
 30
0.0
  3
BLOCK_76
  1

  0
SPLINE
  5
263
330
25F
100
AcDbEntity
  8
LAYER_1
 62
     5
100
AcDbSpline
210
0.0
220
0.0
230
1.0
 70
    11
 71
     3
 72
    17
 73
    13
 74
     0
 42
0.0000000001
 43
0.0000000001
 40
0.0
 40
0.0
 40
0.0
 40
0.0
 40
1.0
 40
1.0
 40
1.0
 40
2.0
 40
2.0
 40
2.0
 40
3.0
 40
3.0
 40
3.0
 40
4.0
 40
4.0
 40
4.0
 40
4.0
 10
163.4746039087841
 20
-156.8133395332793
 30
0.0
 10
163.4746039087841
 20
-157.8716728663481
 30
0.0
 10
162.9454372422498
 20
-158.4008395328824
 30
0.0
 10
161.887103909181
 20
-158.4008395328824
 30
0.0
 10
160.8287705761122
 20
-158.4008395328824
 30
0.0
 10
160.2996039095779
 20
-157.8716728663481
 30
0.0
 10
160.2996039095779
 20
-156.8133395332793
 30
0.0
 10
160.2996039095779
 20
-155.7550062002106
 30
0.0
 10
160.8287705761122
 20
-155.2258395336762
 30
0.0
 10
161.887103909181
 20
-155.2258395336762
 30
0.0
 10
162.9454372422498
 20
-155.2258395336762
 30
0.0
 10
163.4746039087841
 20
-155.7550062002106
 30
0.0
 10
163.4746039087841
 20
-156.8133395332793
 30
0.0
  0
ENDBLK
  5
262
330
25F
100
AcDbEntity
  8
0
100
AcDbBlockEnd
  0
BLOCK
  5
266
330
264
100
AcDbEntity
  8
0
100
AcDbBlockBegin
  2
BLOCK_77
 70
     0
 71
     0
 10
0.0
 20
0.0
 30
0.0
  3
BLOCK_77
  1

  0
SPLINE
  5
268
330
264
100
AcDbEntity
  8
LAYER_1
 62
     5
100
AcDbSpline
210
0.0
220
0.0
230
1.0
 70
    11
 71
     3
 72
    17
 73
    13
 74
     0
 42
0.0000000001
 43
0.0000000001
 40
0.0
 40
0.0
 40
0.0
 40
0.0
 40
1.0
 40
1.0
 40
1.0
 40
2.0
 40
2.0
 40
2.0
 40
3.0
 40
3.0
 40
3.0
 40
4.0
 40
4.0
 40
4.0
 40
4.0
 10
223.4678411984733
 20
-156.8133395332793
 30
0.0
 10
223.4678411984733
 20
-157.8716728663481
 30
0.0
 10
223.9970078650077
 20
-158.4008395328824
 30
0.0
 10
225.0553411980765
 20
-158.4008395328824
 30
0.0
 10
226.1136745311452
 20
-158.4008395328824
 30
0.0
 10
226.6428411976796
 20
-157.8716728663481
 30
0.0
 10
226.6428411976796
 20
-156.8133395332793
 30
0.0
 10
226.6428411976796
 20
-155.7550062002106
 30
0.0
 10
226.1136745311452
 20
-155.2258395336762
 30
0.0
 10
225.0553411980765
 20
-155.2258395336762
 30
0.0
 10
223.9970078650077
 20
-155.2258395336762
 30
0.0
 10
223.4678411984733
 20
-155.7550062002106
 30
0.0
 10
223.4678411984733
 20
-156.8133395332793
 30
0.0
  0
ENDBLK
  5
267
330
264
100
AcDbEntity
  8
0
100
AcDbBlockEnd
  0
BLOCK
  5
26B
330
269
100
AcDbEntity
  8
0
100
AcDbBlockBegin
  2
BLOCK_78
 70
     0
 71
     0
 10
0.0
 20
0.0
 30
0.0
  3
BLOCK_78
  1

  0
SPLINE
  5
26D
330
269
100
AcDbEntity
  8
LAYER_1
 62
     5
100
AcDbSpline
210
0.0
220
0.0
230
1.0
 70
    11
 71
     3
 72
    17
 73
    13
 74
     0
 42
0.0000000001
 43
0.0000000001
 40
0.0
 40
0.0
 40
0.0
 40
0.0
 40
1.0
 40
1.0
 40
1.0
 40
2.0
 40
2.0
 40
2.0
 40
3.0
 40
3.0
 40
3.0
 40
4.0
 40
4.0
 40
4.0
 40
4.0
 10
223.4678411984733
 20
-84.4232706494671
 30
0.0
 10
223.4678411984733
 20
-85.48160398253586
 30
0.0
 10
223.9970078650077
 20
-86.01077064907022
 30
0.0
 10
225.0553411980765
 20
-86.01077064907022
 30
0.0
 10
226.1136745311452
 20
-86.01077064907022
 30
0.0
 10
226.6428411976796
 20
-85.48160398253586
 30
0.0
 10
226.6428411976796
 20
-84.4232706494671
 30
0.0
 10
226.6428411976796
 20
-83.36493731639835
 30
0.0
 10
226.1136745311452
 20
-82.83577064986397
 30
0.0
 10
225.0553411980765
 20
-82.83577064986397
 30
0.0
 10
223.9970078650077
 20
-82.83577064986397
 30
0.0
 10
223.4678411984733
 20
-83.36493731639835
 30
0.0
 10
223.4678411984733
 20
-84.4232706494671
 30
0.0
  0
ENDBLK
  5
26C
330
269
100
AcDbEntity
  8
0
100
AcDbBlockEnd
  0
BLOCK
  5
270
330
26E
100
AcDbEntity
  8
0
100
AcDbBlockBegin
  2
BLOCK_79
 70
     0
 71
     0
 10
0.0
 20
0.0
 30
0.0
  3
BLOCK_79
  1

  0
SPLINE
  5
272
330
26E
100
AcDbEntity
  8
LAYER_1
 62
     5
100
AcDbSpline
210
0.0
220
0.0
230
1.0
 70
    11
 71
     3
 72
    17
 73
    13
 74
     0
 42
0.0000000001
 43
0.0000000001
 40
0.0
 40
0.0
 40
0.0
 40
0.0
 40
1.0
 40
1.0
 40
1.0
 40
2.0
 40
2.0
 40
2.0
 40
3.0
 40
3.0
 40
3.0
 40
4.0
 40
4.0
 40
4.0
 40
4.0
 10
223.4678411984733
 20
-120.6184773461475
 30
0.0
 10
223.4678411984733
 20
-121.6768106792162
 30
0.0
 10
223.9970078650077
 20
-122.2059773457506
 30
0.0
 10
225.0553411980765
 20
-122.2059773457506
 30
0.0
 10
226.1136745311452
 20
-122.2059773457506
 30
0.0
 10
226.6428411976796
 20
-121.6768106792162
 30
0.0
 10
226.6428411976796
 20
-120.6184773461475
 30
0.0
 10
226.6428411976796
 20
-119.5601440130787
 30
0.0
 10
226.1136745311452
 20
-119.0309773465443
 30
0.0
 10
225.0553411980765
 20
-119.0309773465443
 30
0.0
 10
223.9970078650077
 20
-119.0309773465443
 30
0.0
 10
223.4678411984733
 20
-119.5601440130787
 30
0.0
 10
223.4678411984733
 20
-120.6184773461475
 30
0.0
  0
ENDBLK
  5
271
330
26E
100
AcDbEntity
  8
0
100
AcDbBlockEnd
  0
BLOCK
  5
275
330
273
100
AcDbEntity
  8
0
100
AcDbBlockBegin
  2
BLOCK_80
 70
     0
 71
     0
 10
0.0
 20
0.0
 30
0.0
  3
BLOCK_80
  1

  0
SPLINE
  5
277
330
273
100
AcDbEntity
  8
LAYER_1
 62
     5
100
AcDbSpline
210
0.0
220
0.0
230
1.0
 70
    11
 71
     3
 72
    17
 73
    13
 74
     0
 42
0.0000000001
 43
0.0000000001
 40
0.0
 40
0.0
 40
0.0
 40
0.0
 40
1.0
 40
1.0
 40
1.0
 40
2.0
 40
2.0
 40
2.0
 40
3.0
 40
3.0
 40
3.0
 40
4.0
 40
4.0
 40
4.0
 40
4.0
 10
441.3746092646564
 20
-154.1079060487126
 30
0.0
 10
440.3162759315876
 20
-154.1079060487126
 30
0.0
 10
439.7871092650532
 20
-154.637072715247
 30
0.0
 10
439.7871092650532
 20
-155.6954060483157
 30
0.0
 10
439.7871092650532
 20
-156.7537393813845
 30
0.0
 10
440.3162759315876
 20
-157.2829060479189
 30
0.0
 10
441.3746092646564
 20
-157.2829060479189
 30
0.0
 10
442.4329425977251
 20
-157.2829060479189
 30
0.0
 10
442.9621092642595
 20
-156.7537393813845
 30
0.0
 10
442.9621092642595
 20
-155.6954060483157
 30
0.0
 10
442.9621092642595
 20
-154.637072715247
 30
0.0
 10
442.4329425977251
 20
-154.1079060487126
 30
0.0
 10
441.3746092646564
 20
-154.1079060487126
 30
0.0
  0
ENDBLK
  5
276
330
273
100
AcDbEntity
  8
0
100
AcDbBlockEnd
  0
BLOCK
  5
27A
330
278
100
AcDbEntity
  8
0
100
AcDbBlockBegin
  2
BLOCK_81
 70
     0
 71
     0
 10
0.0
 20
0.0
 30
0.0
  3
BLOCK_81
  1

  0
SPLINE
  5
27C
330
278
100
AcDbEntity
  8
LAYER_1
 62
     5
100
AcDbSpline
210
0.0
220
0.0
230
1.0
 70
    11
 71
     3
 72
    17
 73
    13
 74
     0
 42
0.0000000001
 43
0.0000000001
 40
0.0
 40
0.0
 40
0.0
 40
0.0
 40
1.0
 40
1.0
 40
1.0
 40
2.0
 40
2.0
 40
2.0
 40
3.0
 40
3.0
 40
3.0
 40
4.0
 40
4.0
 40
4.0
 40
4.0
 10
477.5694714517882
 20
-154.1079060487126
 30
0.0
 10
476.5111381187195
 20
-154.1079060487126
 30
0.0
 10
475.9819714521851
 20
-154.637072715247
 30
0.0
 10
475.9819714521851
 20
-155.6954060483157
 30
0.0
 10
475.9819714521851
 20
-156.7537393813845
 30
0.0
 10
476.5111381187195
 20
-157.2829060479189
 30
0.0
 10
477.5694714517882
 20
-157.2829060479189
 30
0.0
 10
478.6278047848569
 20
-157.2829060479189
 30
0.0
 10
479.1569714513913
 20
-156.7537393813845
 30
0.0
 10
479.1569714513913
 20
-155.6954060483157
 30
0.0
 10
479.1569714513913
 20
-154.637072715247
 30
0.0
 10
478.6278047848569
 20
-154.1079060487126
 30
0.0
 10
477.5694714517882
 20
-154.1079060487126
 30
0.0
  0
ENDBLK
  5
27B
330
278
100
AcDbEntity
  8
0
100
AcDbBlockEnd
  0
BLOCK
  5
27F
330
27D
100
AcDbEntity
  8
0
100
AcDbBlockBegin
  2
BLOCK_82
 70
     0
 71
     0
 10
0.0
 20
0.0
 30
0.0
  3
BLOCK_82
  1

  0
SPLINE
  5
281
330
27D
100
AcDbEntity
  8
LAYER_1
 62
     5
100
AcDbSpline
210
0.0
220
0.0
230
1.0
 70
    11
 71
     3
 72
    17
 73
    13
 74
     0
 42
0.0000000001
 43
0.0000000001
 40
0.0
 40
0.0
 40
0.0
 40
0.0
 40
1.0
 40
1.0
 40
1.0
 40
2.0
 40
2.0
 40
2.0
 40
3.0
 40
3.0
 40
3.0
 40
4.0
 40
4.0
 40
4.0
 40
4.0
 10
405.1797470775246
 20
-154.1079060487126
 30
0.0
 10
404.1214137444558
 20
-154.1079060487126
 30
0.0
 10
403.5922470779214
 20
-154.637072715247
 30
0.0
 10
403.5922470779214
 20
-155.6954060483157
 30
0.0
 10
403.5922470779214
 20
-156.7537393813845
 30
0.0
 10
404.1214137444558
 20
-157.2829060479189
 30
0.0
 10
405.1797470775246
 20
-157.2829060479189
 30
0.0
 10
406.2380804105933
 20
-157.2829060479189
 30
0.0
 10
406.7672470771276
 20
-156.7537393813845
 30
0.0
 10
406.7672470771276
 20
-155.6954060483157
 30
0.0
 10
406.7672470771276
 20
-154.637072715247
 30
0.0
 10
406.2380804105933
 20
-154.1079060487126
 30
0.0
 10
405.1797470775246
 20
-154.1079060487126
 30
0.0
  0
ENDBLK
  5
280
330
27D
100
AcDbEntity
  8
0
100
AcDbBlockEnd
  0
BLOCK
  5
284
330
282
100
AcDbEntity
  8
0
100
AcDbBlockBegin
  2
BLOCK_83
 70
     0
 71
     0
 10
0.0
 20
0.0
 30
0.0
  3
BLOCK_83
  1

  0
SPLINE
  5
286
330
282
100
AcDbEntity
  8
LAYER_1
 62
     5
100
AcDbSpline
210
0.0
220
0.0
230
1.0
 70
    11
 71
     3
 72
    17
 73
    13
 74
     0
 42
0.0000000001
 43
0.0000000001
 40
0.0
 40
0.0
 40
0.0
 40
0.0
 40
1.0
 40
1.0
 40
1.0
 40
2.0
 40
2.0
 40
2.0
 40
3.0
 40
3.0
 40
3.0
 40
4.0
 40
4.0
 40
4.0
 40
4.0
 10
405.1797470775246
 20
-94.11432424947489
 30
0.0
 10
404.1214137444558
 20
-94.11432424947489
 30
0.0
 10
403.5922470779214
 20
-93.58515758294052
 30
0.0
 10
403.5922470779214
 20
-92.52682424987177
 30
0.0
 10
403.5922470779214
 20
-91.46849091680302
 30
0.0
 10
404.1214137444558
 20
-90.93932425026864
 30
0.0
 10
405.1797470775246
 20
-90.93932425026864
 30
0.0
 10
406.2380804105933
 20
-90.93932425026864
 30
0.0
 10
406.7672470771276
 20
-91.46849091680302
 30
0.0
 10
406.7672470771276
 20
-92.52682424987177
 30
0.0
 10
406.7672470771276
 20
-93.58515758294052
 30
0.0
 10
406.2380804105933
 20
-94.11432424947489
 30
0.0
 10
405.1797470775246
 20
-94.11432424947489
 30
0.0
  0
ENDBLK
  5
285
330
282
100
AcDbEntity
  8
0
100
AcDbBlockEnd
  0
BLOCK
  5
289
330
287
100
AcDbEntity
  8
0
100
AcDbBlockBegin
  2
BLOCK_84
 70
     0
 71
     0
 10
0.0
 20
0.0
 30
0.0
  3
BLOCK_84
  1

  0
SPLINE
  5
28B
330
287
100
AcDbEntity
  8
LAYER_1
 62
     5
100
AcDbSpline
210
0.0
220
0.0
230
1.0
 70
    11
 71
     3
 72
    17
 73
    13
 74
     0
 42
0.0000000001
 43
0.0000000001
 40
0.0
 40
0.0
 40
0.0
 40
0.0
 40
1.0
 40
1.0
 40
1.0
 40
2.0
 40
2.0
 40
2.0
 40
3.0
 40
3.0
 40
3.0
 40
4.0
 40
4.0
 40
4.0
 40
4.0
 10
477.5694714517882
 20
-94.11432424947489
 30
0.0
 10
476.5111381187195
 20
-94.11432424947489
 30
0.0
 10
475.9819714521851
 20
-93.58515758294052
 30
0.0
 10
475.9819714521851
 20
-92.52682424987177
 30
0.0
 10
475.9819714521851
 20
-91.46849091680302
 30
0.0
 10
476.5111381187195
 20
-90.93932425026864
 30
0.0
 10
477.5694714517882
 20
-90.93932425026864
 30
0.0
 10
478.6278047848569
 20
-90.93932425026864
 30
0.0
 10
479.1569714513913
 20
-91.46849091680302
 30
0.0
 10
479.1569714513913
 20
-92.52682424987177
 30
0.0
 10
479.1569714513913
 20
-93.58515758294052
 30
0.0
 10
478.6278047848569
 20
-94.11432424947489
 30
0.0
 10
477.5694714517882
 20
-94.11432424947489
 30
0.0
  0
ENDBLK
  5
28A
330
287
100
AcDbEntity
  8
0
100
AcDbBlockEnd
  0
BLOCK
  5
28E
330
28C
100
AcDbEntity
  8
0
100
AcDbBlockBegin
  2
BLOCK_85
 70
     0
 71
     0
 10
0.0
 20
0.0
 30
0.0
  3
BLOCK_85
  1

  0
SPLINE
  5
290
330
28C
100
AcDbEntity
  8
LAYER_1
 62
     5
100
AcDbSpline
210
0.0
220
0.0
230
1.0
 70
    11
 71
     3
 72
    17
 73
    13
 74
     0
 42
0.0000000001
 43
0.0000000001
 40
0.0
 40
0.0
 40
0.0
 40
0.0
 40
1.0
 40
1.0
 40
1.0
 40
2.0
 40
2.0
 40
2.0
 40
3.0
 40
3.0
 40
3.0
 40
4.0
 40
4.0
 40
4.0
 40
4.0
 10
441.3746092646564
 20
-94.11432424947489
 30
0.0
 10
440.3162759315876
 20
-94.11432424947489
 30
0.0
 10
439.7871092650532
 20
-93.58515758294052
 30
0.0
 10
439.7871092650532
 20
-92.52682424987177
 30
0.0
 10
439.7871092650532
 20
-91.46849091680302
 30
0.0
 10
440.3162759315876
 20
-90.93932425026864
 30
0.0
 10
441.3746092646564
 20
-90.93932425026864
 30
0.0
 10
442.4329425977251
 20
-90.93932425026864
 30
0.0
 10
442.9621092642595
 20
-91.46849091680302
 30
0.0
 10
442.9621092642595
 20
-92.52682424987177
 30
0.0
 10
442.9621092642595
 20
-93.58515758294052
 30
0.0
 10
442.4329425977251
 20
-94.11432424947489
 30
0.0
 10
441.3746092646564
 20
-94.11432424947489
 30
0.0
  0
ENDBLK
  5
28F
330
28C
100
AcDbEntity
  8
0
100
AcDbBlockEnd
  0
BLOCK
  5
293
330
291
100
AcDbEntity
  8
0
100
AcDbBlockBegin
  2
BLOCK_86
 70
     0
 71
     0
 10
0.0
 20
0.0
 30
0.0
  3
BLOCK_86
  1

  0
SPLINE
  5
295
330
291
100
AcDbEntity
  8
LAYER_1
 62
     5
100
AcDbSpline
210
0.0
220
0.0
230
1.0
 70
    11
 71
     3
 72
    17
 73
    13
 74
     0
 42
0.0000000001
 43
0.0000000001
 40
0.0
 40
0.0
 40
0.0
 40
0.0
 40
1.0
 40
1.0
 40
1.0
 40
2.0
 40
2.0
 40
2.0
 40
3.0
 40
3.0
 40
3.0
 40
4.0
 40
4.0
 40
4.0
 40
4.0
 10
441.3746092646564
 20
-122.5236151494906
 30
0.0
 10
440.3162759315876
 20
-122.5236151494906
 30
0.0
 10
439.7871092650532
 20
-123.052781816025
 30
0.0
 10
439.7871092650532
 20
-124.1111151490937
 30
0.0
 10
439.7871092650532
 20
-125.1694484821625
 30
0.0
 10
440.3162759315876
 20
-125.6986151486969
 30
0.0
 10
441.3746092646564
 20
-125.6986151486969
 30
0.0
 10
442.4329425977251
 20
-125.6986151486969
 30
0.0
 10
442.9621092642595
 20
-125.1694484821625
 30
0.0
 10
442.9621092642595
 20
-124.1111151490937
 30
0.0
 10
442.9621092642595
 20
-123.052781816025
 30
0.0
 10
442.4329425977251
 20
-122.5236151494906
 30
0.0
 10
441.3746092646564
 20
-122.5236151494906
 30
0.0
  0
ENDBLK
  5
294
330
291
100
AcDbEntity
  8
0
100
AcDbBlockEnd
  0
BLOCK
  5
298
330
296
100
AcDbEntity
  8
0
100
AcDbBlockBegin
  2
BLOCK_87
 70
     0
 71
     0
 10
0.0
 20
0.0
 30
0.0
  3
BLOCK_87
  1

  0
POLYLINE
  5
29A
330
296
100
AcDbEntity
  8
LAYER_1
 62
     1
100
AcDb2dPolyline
 66
     1
 10
0.0
 20
0.0
 30
0.0
  0
VERTEX
  5
29B
330
29A
100
AcDbEntity
  8
LAYER_1
 62
     1
100
AcDbVertex
100
AcDb2dVertex
 10
241.3502983337597
 20
-171.4184773334475
 30
0.0
  0
VERTEX
  5
29C
330
29A
100
AcDbEntity
  8
LAYER_1
 62
     1
100
AcDbVertex
100
AcDb2dVertex
 10
241.3502983337597
 20
-234.9184773175725
 30
0.0
  0
SEQEND
  5
29D
330
29A
100
AcDbEntity
  8
LAYER_1
  0
ENDBLK
  5
299
330
296
100
AcDbEntity
  8
0
100
AcDbBlockEnd
  0
BLOCK
  5
2A0
330
29E
100
AcDbEntity
  8
0
100
AcDbBlockBegin
  2
BLOCK_88
 70
     0
 71
     0
 10
0.0
 20
0.0
 30
0.0
  3
BLOCK_88
  1

  0
POLYLINE
  5
2A2
330
29E
100
AcDbEntity
  8
LAYER_1
 62
     1
100
AcDb2dPolyline
 66
     1
 10
0.0
 20
0.0
 30
0.0
  0
VERTEX
  5
2A3
330
2A2
100
AcDbEntity
  8
LAYER_1
 62
     1
100
AcDbVertex
100
AcDb2dVertex
 10
145.5921467734978
 20
-69.81847735884747
 30
0.0
  0
VERTEX
  5
2A4
330
2A2
100
AcDbEntity
  8
LAYER_1
 62
     1
100
AcDbVertex
100
AcDb2dVertex
 10
145.5921467734978
 20
-6.318477374722464
 30
0.0
  0
SEQEND
  5
2A5
330
2A2
100
AcDbEntity
  8
LAYER_1
  0
ENDBLK
  5
2A1
330
29E
100
AcDbEntity
  8
0
100
AcDbBlockEnd
  0
BLOCK
  5
2A8
330
2A6
100
AcDbEntity
  8
0
100
AcDbBlockBegin
  2
BLOCK_89
 70
     0
 71
     0
 10
0.0
 20
0.0
 30
0.0
  3
BLOCK_89
  1

  0
POLYLINE
  5
2AA
330
2A6
100
AcDbEntity
  8
LAYER_1
 62
     1
100
AcDb2dPolyline
 66
     1
 10
0.0
 20
0.0
 30
0.0
  0
VERTEX
  5
2AB
330
2AA
100
AcDbEntity
  8
LAYER_1
 62
     1
100
AcDbVertex
100
AcDb2dVertex
 10
241.3502983337597
 20
-69.81847735884747
 30
0.0
  0
VERTEX
  5
2AC
330
2AA
100
AcDbEntity
  8
LAYER_1
 62
     1
100
AcDbVertex
100
AcDb2dVertex
 10
241.3502983337597
 20
-6.318477374722464
 30
0.0
  0
SEQEND
  5
2AD
330
2AA
100
AcDbEntity
  8
LAYER_1
  0
ENDBLK
  5
2A9
330
2A6
100
AcDbEntity
  8
0
100
AcDbBlockEnd
  0
BLOCK
  5
2B0
330
2AE
100
AcDbEntity
  8
0
100
AcDbBlockBegin
  2
BLOCK_90
 70
     0
 71
     0
 10
0.0
 20
0.0
 30
0.0
  3
BLOCK_90
  1

  0
POLYLINE
  5
2B2
330
2AE
100
AcDbEntity
  8
LAYER_1
 62
     1
100
AcDb2dPolyline
 66
     1
 10
0.0
 20
0.0
 30
0.0
  0
VERTEX
  5
2B3
330
2B2
100
AcDbEntity
  8
LAYER_1
 62
     1
100
AcDbVertex
100
AcDb2dVertex
 10
244.2710502861545
 20
-69.81847735884747
 30
0.0
  0
VERTEX
  5
2B4
330
2B2
100
AcDbEntity
  8
LAYER_1
 62
     1
100
AcDbVertex
100
AcDb2dVertex
 10
204.9253037682131
 20
-69.81847735884747
 30
0.0
  0
SEQEND
  5
2B5
330
2B2
100
AcDbEntity
  8
LAYER_1
  0
ENDBLK
  5
2B1
330
2AE
100
AcDbEntity
  8
0
100
AcDbBlockEnd
  0
BLOCK
  5
2B8
330
2B6
100
AcDbEntity
  8
0
100
AcDbBlockBegin
  2
BLOCK_91
 70
     0
 71
     0
 10
0.0
 20
0.0
 30
0.0
  3
BLOCK_91
  1

  0
POLYLINE
  5
2BA
330
2B6
100
AcDbEntity
  8
LAYER_1
 62
     1
100
AcDb2dPolyline
 66
     1
 10
0.0
 20
0.0
 30
0.0
  0
VERTEX
  5
2BB
330
2BA
100
AcDbEntity
  8
LAYER_1
 62
     1
100
AcDbVertex
100
AcDb2dVertex
 10
204.9253037682131
 20
-69.81847735884747
 30
0.0
  0
VERTEX
  5
2BC
330
2BA
100
AcDbEntity
  8
LAYER_1
 62
     1
100
AcDbVertex
100
AcDb2dVertex
 10
145.5921467734978
 20
-69.81847735884747
 30
0.0
  0
SEQEND
  5
2BD
330
2BA
100
AcDbEntity
  8
LAYER_1
  0
ENDBLK
  5
2B9
330
2B6
100
AcDbEntity
  8
0
100
AcDbBlockEnd
  0
BLOCK
  5
2C0
330
2BE
100
AcDbEntity
  8
0
100
AcDbBlockBegin
  2
BLOCK_92
 70
     0
 71
     0
 10
0.0
 20
0.0
 30
0.0
  3
BLOCK_92
  1

  0
POLYLINE
  5
2C2
330
2BE
100
AcDbEntity
  8
LAYER_1
 62
     1
100
AcDb2dPolyline
 66
     1
 10
0.0
 20
0.0
 30
0.0
  0
VERTEX
  5
2C3
330
2C2
100
AcDbEntity
  8
LAYER_1
 62
     1
100
AcDbVertex
100
AcDb2dVertex
 10
145.5921467734978
 20
-171.4184773334475
 30
0.0
  0
VERTEX
  5
2C4
330
2C2
100
AcDbEntity
  8
LAYER_1
 62
     1
100
AcDbVertex
100
AcDb2dVertex
 10
145.5921467734978
 20
-234.9184773175725
 30
0.0
  0
SEQEND
  5
2C5
330
2C2
100
AcDbEntity
  8
LAYER_1
  0
ENDBLK
  5
2C1
330
2BE
100
AcDbEntity
  8
0
100
AcDbBlockEnd
  0
BLOCK
  5
2C8
330
2C6
100
AcDbEntity
  8
0
100
AcDbBlockBegin
  2
BLOCK_93
 70
     0
 71
     0
 10
0.0
 20
0.0
 30
0.0
  3
BLOCK_93
  1

  0
POLYLINE
  5
2CA
330
2C6
100
AcDbEntity
  8
LAYER_1
 62
     1
100
AcDb2dPolyline
 66
     1
 10
0.0
 20
0.0
 30
0.0
  0
VERTEX
  5
2CB
330
2CA
100
AcDbEntity
  8
LAYER_1
 62
     1
100
AcDbVertex
100
AcDb2dVertex
 10
244.2710502861545
 20
-171.4184773334475
 30
0.0
  0
VERTEX
  5
2CC
330
2CA
100
AcDbEntity
  8
LAYER_1
 62
     1
100
AcDbVertex
100
AcDb2dVertex
 10
204.9253037682131
 20
-171.4184773334475
 30
0.0
  0
SEQEND
  5
2CD
330
2CA
100
AcDbEntity
  8
LAYER_1
  0
ENDBLK
  5
2C9
330
2C6
100
AcDbEntity
  8
0
100
AcDbBlockEnd
  0
BLOCK
  5
2D0
330
2CE
100
AcDbEntity
  8
0
100
AcDbBlockBegin
  2
BLOCK_94
 70
     0
 71
     0
 10
0.0
 20
0.0
 30
0.0
  3
BLOCK_94
  1

  0
POLYLINE
  5
2D2
330
2CE
100
AcDbEntity
  8
LAYER_1
 62
     1
100
AcDb2dPolyline
 66
     1
 10
0.0
 20
0.0
 30
0.0
  0
VERTEX
  5
2D3
330
2D2
100
AcDbEntity
  8
LAYER_1
 62
     1
100
AcDbVertex
100
AcDb2dVertex
 10
204.9253037682131
 20
-171.4184773334475
 30
0.0
  0
VERTEX
  5
2D4
330
2D2
100
AcDbEntity
  8
LAYER_1
 62
     1
100
AcDbVertex
100
AcDb2dVertex
 10
145.5921467734978
 20
-171.4184773334475
 30
0.0
  0
SEQEND
  5
2D5
330
2D2
100
AcDbEntity
  8
LAYER_1
  0
ENDBLK
  5
2D1
330
2CE
100
AcDbEntity
  8
0
100
AcDbBlockEnd
  0
BLOCK
  5
2D8
330
2D6
100
AcDbEntity
  8
0
100
AcDbBlockBegin
  2
BLOCK_95
 70
     0
 71
     0
 10
0.0
 20
0.0
 30
0.0
  3
BLOCK_95
  1

  0
POLYLINE
  5
2DA
330
2D6
100
AcDbEntity
  8
LAYER_1
 62
     1
100
AcDb2dPolyline
 66
     1
 10
0.0
 20
0.0
 30
0.0
  0
VERTEX
  5
2DB
330
2DA
100
AcDbEntity
  8
LAYER_1
 62
     1
100
AcDbVertex
100
AcDb2dVertex
 10
79.17105032742947
 20
-69.81847735884747
 30
0.0
  0
VERTEX
  5
2DC
330
2DA
100
AcDbEntity
  8
LAYER_1
 62
     1
100
AcDbVertex
100
AcDb2dVertex
 10
79.17105032742947
 20
-171.4184773334475
 30
0.0
  0
SEQEND
  5
2DD
330
2DA
100
AcDbEntity
  8
LAYER_1
  0
ENDBLK
  5
2D9
330
2D6
100
AcDbEntity
  8
0
100
AcDbBlockEnd
  0
BLOCK
  5
2E0
330
2DE
100
AcDbEntity
  8
0
100
AcDbBlockBegin
  2
BLOCK_96
 70
     0
 71
     0
 10
0.0
 20
0.0
 30
0.0
  3
BLOCK_96
  1

  0
POLYLINE
  5
2E2
330
2DE
100
AcDbEntity
  8
LAYER_1
 62
     1
100
AcDb2dPolyline
 66
     1
 10
0.0
 20
0.0
 30
0.0
  0
VERTEX
  5
2E3
330
2E2
100
AcDbEntity
  8
LAYER_1
 62
     1
100
AcDbVertex
100
AcDb2dVertex
 10
142.6710503115545
 20
-171.4184773334475
 30
0.0
  0
VERTEX
  5
2E4
330
2E2
100
AcDbEntity
  8
LAYER_1
 62
     1
100
AcDbVertex
100
AcDb2dVertex
 10
142.6710503115545
 20
-69.81847735884747
 30
0.0
  0
SEQEND
  5
2E5
330
2E2
100
AcDbEntity
  8
LAYER_1
  0
ENDBLK
  5
2E1
330
2DE
100
AcDbEntity
  8
0
100
AcDbBlockEnd
  0
BLOCK
  5
2E8
330
2E6
100
AcDbEntity
  8
0
100
AcDbBlockBegin
  2
BLOCK_97
 70
     0
 71
     0
 10
0.0
 20
0.0
 30
0.0
  3
BLOCK_97
  1

  0
POLYLINE
  5
2EA
330
2E6
100
AcDbEntity
  8
LAYER_1
 62
     1
100
AcDb2dPolyline
 66
     1
 10
0.0
 20
0.0
 30
0.0
  0
VERTEX
  5
2EB
330
2EA
100
AcDbEntity
  8
LAYER_1
 62
     1
100
AcDbVertex
100
AcDb2dVertex
 10
76.25029837503465
 20
-171.4184773334475
 30
0.0
  0
VERTEX
  5
2EC
330
2EA
100
AcDbEntity
  8
LAYER_1
 62
     1
100
AcDbVertex
100
AcDb2dVertex
 10
76.25029837503465
 20
-69.81847735884747
 30
0.0
  0
SEQEND
  5
2ED
330
2EA
100
AcDbEntity
  8
LAYER_1
  0
ENDBLK
  5
2E9
330
2E6
100
AcDbEntity
  8
0
100
AcDbBlockEnd
  0
BLOCK
  5
2F0
330
2EE
100
AcDbEntity
  8
0
100
AcDbBlockBegin
  2
BLOCK_98
 70
     0
 71
     0
 10
0.0
 20
0.0
 30
0.0
  3
BLOCK_98
  1

  0
POLYLINE
  5
2F2
330
2EE
100
AcDbEntity
  8
LAYER_1
 62
     1
100
AcDb2dPolyline
 66
     1
 10
0.0
 20
0.0
 30
0.0
  0
VERTEX
  5
2F3
330
2F2
100
AcDbEntity
  8
LAYER_1
 62
     1
100
AcDbVertex
100
AcDb2dVertex
 10
307.7710502702795
 20
-69.81847735884747
 30
0.0
  0
VERTEX
  5
2F4
330
2F2
100
AcDbEntity
  8
LAYER_1
 62
     1
100
AcDbVertex
100
AcDb2dVertex
 10
307.7710502702795
 20
-171.4184773334475
 30
0.0
  0
SEQEND
  5
2F5
330
2F2
100
AcDbEntity
  8
LAYER_1
  0
ENDBLK
  5
2F1
330
2EE
100
AcDbEntity
  8
0
100
AcDbBlockEnd
  0
BLOCK
  5
2F8
330
2F6
100
AcDbEntity
  8
0
100
AcDbBlockBegin
  2
BLOCK_99
 70
     0
 71
     0
 10
0.0
 20
0.0
 30
0.0
  3
BLOCK_99
  1

  0
POLYLINE
  5
2FA
330
2F6
100
AcDbEntity
  8
LAYER_1
 62
     1
100
AcDb2dPolyline
 66
     1
 10
0.0
 20
0.0
 30
0.0
  0
VERTEX
  5
2FB
330
2FA
100
AcDbEntity
  8
LAYER_1
 62
     1
100
AcDbVertex
100
AcDb2dVertex
 10
244.2710502861545
 20
-171.4184773334475
 30
0.0
  0
VERTEX
  5
2FC
330
2FA
100
AcDbEntity
  8
LAYER_1
 62
     1
100
AcDbVertex
100
AcDb2dVertex
 10
244.2710502861545
 20
-69.81847735884747
 30
0.0
  0
SEQEND
  5
2FD
330
2FA
100
AcDbEntity
  8
LAYER_1
  0
ENDBLK
  5
2F9
330
2F6
100
AcDbEntity
  8
0
100
AcDbBlockEnd
  0
BLOCK
  5
300
330
2FE
100
AcDbEntity
  8
0
100
AcDbBlockBegin
  2
BLOCK_100
 70
     0
 71
     0
 10
0.0
 20
0.0
 30
0.0
  3
BLOCK_100
  1

  0
POLYLINE
  5
302
330
2FE
100
AcDbEntity
  8
LAYER_1
 62
     1
100
AcDb2dPolyline
 66
     1
 10
0.0
 20
0.0
 30
0.0
  0
VERTEX
  5
303
330
302
100
AcDbEntity
  8
LAYER_1
 62
     1
100
AcDbVertex
100
AcDb2dVertex
 10
310.6921467322228
 20
-171.4184773334475
 30
0.0
  0
VERTEX
  5
304
330
302
100
AcDbEntity
  8
LAYER_1
 62
     1
100
AcDbVertex
100
AcDb2dVertex
 10
310.6921467322228
 20
-69.81847735884747
 30
0.0
  0
SEQEND
  5
305
330
302
100
AcDbEntity
  8
LAYER_1
  0
ENDBLK
  5
301
330
2FE
100
AcDbEntity
  8
0
100
AcDbBlockEnd
  0
BLOCK
  5
308
330
306
100
AcDbEntity
  8
0
100
AcDbBlockBegin
  2
BLOCK_101
 70
     0
 71
     0
 10
0.0
 20
0.0
 30
0.0
  3
BLOCK_101
  1

  0
POLYLINE
  5
30A
330
306
100
AcDbEntity
  8
LAYER_1
 62
     1
100
AcDb2dPolyline
 66
     1
 10
0.0
 20
0.0
 30
0.0
  0
VERTEX
  5
30B
330
30A
100
AcDbEntity
  8
LAYER_1
 62
     1
100
AcDbVertex
100
AcDb2dVertex
 10
492.1746092519564
 20
-82.07406003807525
 30
0.0
  0
VERTEX
  5
30C
330
30A
100
AcDbEntity
  8
LAYER_1
 62
     1
100
AcDbVertex
100
AcDb2dVertex
 10
390.5746092773564
 20
-82.07406003807525
 30
0.0
  0
SEQEND
  5
30D
330
30A
100
AcDbEntity
  8
LAYER_1
  0
ENDBLK
  5
309
330
306
100
AcDbEntity
  8
0
100
AcDbBlockEnd
  0
BLOCK
  5
310
330
30E
100
AcDbEntity
  8
0
100
AcDbBlockBegin
  2
BLOCK_102
 70
     0
 71
     0
 10
0.0
 20
0.0
 30
0.0
  3
BLOCK_102
  1

  0
POLYLINE
  5
312
330
30E
100
AcDbEntity
  8
LAYER_1
 62
     1
100
AcDb2dPolyline
 66
     1
 10
0.0
 20
0.0
 30
0.0
  0
VERTEX
  5
313
330
312
100
AcDbEntity
  8
LAYER_1
 62
     1
100
AcDbVertex
100
AcDb2dVertex
 10
390.5746092773564
 20
-166.1481702601123
 30
0.0
  0
VERTEX
  5
314
330
312
100
AcDbEntity
  8
LAYER_1
 62
     1
100
AcDbVertex
100
AcDb2dVertex
 10
492.1746092519564
 20
-166.1481702601123
 30
0.0
  0
SEQEND
  5
315
330
312
100
AcDbEntity
  8
LAYER_1
  0
ENDBLK
  5
311
330
30E
100
AcDbEntity
  8
0
100
AcDbBlockEnd
  0
ENDSEC
  0
SECTION
  2
ENTITIES
  0
INSERT
  5
3D
330
1F
100
AcDbEntity
  8
LAYER_1
100
AcDbBlockReference
  2
BLOCK_2
 10
0.0
 20
0.0
 30
0.0
  0
INSERT
  5
45
330
1F
100
AcDbEntity
  8
LAYER_1
100
AcDbBlockReference
  2
BLOCK_3
 10
0.0
 20
0.0
 30
0.0
  0
INSERT
  5
4D
330
1F
100
AcDbEntity
  8
LAYER_1
100
AcDbBlockReference
  2
BLOCK_4
 10
0.0
 20
0.0
 30
0.0
  0
INSERT
  5
52
330
1F
100
AcDbEntity
  8
LAYER_1
100
AcDbBlockReference
  2
BLOCK_5
 10
0.0
 20
0.0
 30
0.0
  0
INSERT
  5
5A
330
1F
100
AcDbEntity
  8
LAYER_1
100
AcDbBlockReference
  2
BLOCK_6
 10
0.0
 20
0.0
 30
0.0
  0
INSERT
  5
62
330
1F
100
AcDbEntity
  8
LAYER_1
100
AcDbBlockReference
  2
BLOCK_7
 10
0.0
 20
0.0
 30
0.0
  0
INSERT
  5
6A
330
1F
100
AcDbEntity
  8
LAYER_1
100
AcDbBlockReference
  2
BLOCK_8
 10
0.0
 20
0.0
 30
0.0
  0
INSERT
  5
6F
330
1F
100
AcDbEntity
  8
LAYER_1
100
AcDbBlockReference
  2
BLOCK_9
 10
0.0
 20
0.0
 30
0.0
  0
INSERT
  5
77
330
1F
100
AcDbEntity
  8
LAYER_1
100
AcDbBlockReference
  2
BLOCK_10
 10
0.0
 20
0.0
 30
0.0
  0
INSERT
  5
7F
330
1F
100
AcDbEntity
  8
LAYER_1
100
AcDbBlockReference
  2
BLOCK_11
 10
0.0
 20
0.0
 30
0.0
  0
INSERT
  5
87
330
1F
100
AcDbEntity
  8
LAYER_1
100
AcDbBlockReference
  2
BLOCK_12
 10
0.0
 20
0.0
 30
0.0
  0
INSERT
  5
8F
330
1F
100
AcDbEntity
  8
LAYER_1
100
AcDbBlockReference
  2
BLOCK_13
 10
0.0
 20
0.0
 30
0.0
  0
INSERT
  5
97
330
1F
100
AcDbEntity
  8
LAYER_1
100
AcDbBlockReference
  2
BLOCK_14
 10
0.0
 20
0.0
 30
0.0
  0
INSERT
  5
9F
330
1F
100
AcDbEntity
  8
LAYER_1
100
AcDbBlockReference
  2
BLOCK_15
 10
0.0
 20
0.0
 30
0.0
  0
INSERT
  5
A7
330
1F
100
AcDbEntity
  8
LAYER_1
100
AcDbBlockReference
  2
BLOCK_16
 10
0.0
 20
0.0
 30
0.0
  0
INSERT
  5
AF
330
1F
100
AcDbEntity
  8
LAYER_1
100
AcDbBlockReference
  2
BLOCK_17
 10
0.0
 20
0.0
 30
0.0
  0
INSERT
  5
B7
330
1F
100
AcDbEntity
  8
LAYER_1
100
AcDbBlockReference
  2
BLOCK_18
 10
0.0
 20
0.0
 30
0.0
  0
INSERT
  5
BF
330
1F
100
AcDbEntity
  8
LAYER_1
100
AcDbBlockReference
  2
BLOCK_19
 10
0.0
 20
0.0
 30
0.0
  0
INSERT
  5
C7
330
1F
100
AcDbEntity
  8
LAYER_1
100
AcDbBlockReference
  2
BLOCK_20
 10
0.0
 20
0.0
 30
0.0
  0
INSERT
  5
CF
330
1F
100
AcDbEntity
  8
LAYER_1
100
AcDbBlockReference
  2
BLOCK_21
 10
0.0
 20
0.0
 30
0.0
  0
INSERT
  5
D7
330
1F
100
AcDbEntity
  8
LAYER_1
100
AcDbBlockReference
  2
BLOCK_22
 10
0.0
 20
0.0
 30
0.0
  0
INSERT
  5
DF
330
1F
100
AcDbEntity
  8
LAYER_1
100
AcDbBlockReference
  2
BLOCK_23
 10
0.0
 20
0.0
 30
0.0
  0
INSERT
  5
E7
330
1F
100
AcDbEntity
  8
LAYER_1
100
AcDbBlockReference
  2
BLOCK_24
 10
0.0
 20
0.0
 30
0.0
  0
INSERT
  5
EF
330
1F
100
AcDbEntity
  8
LAYER_1
100
AcDbBlockReference
  2
BLOCK_25
 10
0.0
 20
0.0
 30
0.0
  0
INSERT
  5
F7
330
1F
100
AcDbEntity
  8
LAYER_1
100
AcDbBlockReference
  2
BLOCK_26
 10
0.0
 20
0.0
 30
0.0
  0
INSERT
  5
FF
330
1F
100
AcDbEntity
  8
LAYER_1
100
AcDbBlockReference
  2
BLOCK_27
 10
0.0
 20
0.0
 30
0.0
  0
INSERT
  5
107
330
1F
100
AcDbEntity
  8
LAYER_1
100
AcDbBlockReference
  2
BLOCK_28
 10
0.0
 20
0.0
 30
0.0
  0
INSERT
  5
10F
330
1F
100
AcDbEntity
  8
LAYER_1
100
AcDbBlockReference
  2
BLOCK_29
 10
0.0
 20
0.0
 30
0.0
  0
INSERT
  5
117
330
1F
100
AcDbEntity
  8
LAYER_1
100
AcDbBlockReference
  2
BLOCK_30
 10
0.0
 20
0.0
 30
0.0
  0
INSERT
  5
11F
330
1F
100
AcDbEntity
  8
LAYER_1
100
AcDbBlockReference
  2
BLOCK_31
 10
0.0
 20
0.0
 30
0.0
  0
INSERT
  5
127
330
1F
100
AcDbEntity
  8
LAYER_1
100
AcDbBlockReference
  2
BLOCK_32
 10
0.0
 20
0.0
 30
0.0
  0
INSERT
  5
12F
330
1F
100
AcDbEntity
  8
LAYER_1
100
AcDbBlockReference
  2
BLOCK_33
 10
0.0
 20
0.0
 30
0.0
  0
INSERT
  5
137
330
1F
100
AcDbEntity
  8
LAYER_1
100
AcDbBlockReference
  2
BLOCK_34
 10
0.0
 20
0.0
 30
0.0
  0
INSERT
  5
13F
330
1F
100
AcDbEntity
  8
LAYER_1
100
AcDbBlockReference
  2
BLOCK_35
 10
0.0
 20
0.0
 30
0.0
  0
INSERT
  5
147
330
1F
100
AcDbEntity
  8
LAYER_1
100
AcDbBlockReference
  2
BLOCK_36
 10
0.0
 20
0.0
 30
0.0
  0
INSERT
  5
14F
330
1F
100
AcDbEntity
  8
LAYER_1
100
AcDbBlockReference
  2
BLOCK_37
 10
0.0
 20
0.0
 30
0.0
  0
INSERT
  5
157
330
1F
100
AcDbEntity
  8
LAYER_1
100
AcDbBlockReference
  2
BLOCK_38
 10
0.0
 20
0.0
 30
0.0
  0
INSERT
  5
15F
330
1F
100
AcDbEntity
  8
LAYER_1
100
AcDbBlockReference
  2
BLOCK_39
 10
0.0
 20
0.0
 30
0.0
  0
INSERT
  5
167
330
1F
100
AcDbEntity
  8
LAYER_1
100
AcDbBlockReference
  2
BLOCK_40
 10
0.0
 20
0.0
 30
0.0
  0
INSERT
  5
16F
330
1F
100
AcDbEntity
  8
LAYER_1
100
AcDbBlockReference
  2
BLOCK_41
 10
0.0
 20
0.0
 30
0.0
  0
INSERT
  5
177
330
1F
100
AcDbEntity
  8
LAYER_1
100
AcDbBlockReference
  2
BLOCK_42
 10
0.0
 20
0.0
 30
0.0
  0
INSERT
  5
17F
330
1F
100
AcDbEntity
  8
LAYER_1
100
AcDbBlockReference
  2
BLOCK_43
 10
0.0
 20
0.0
 30
0.0
  0
INSERT
  5
187
330
1F
100
AcDbEntity
  8
LAYER_1
100
AcDbBlockReference
  2
BLOCK_44
 10
0.0
 20
0.0
 30
0.0
  0
INSERT
  5
18F
330
1F
100
AcDbEntity
  8
LAYER_1
100
AcDbBlockReference
  2
BLOCK_45
 10
0.0
 20
0.0
 30
0.0
  0
INSERT
  5
197
330
1F
100
AcDbEntity
  8
LAYER_1
100
AcDbBlockReference
  2
BLOCK_46
 10
0.0
 20
0.0
 30
0.0
  0
INSERT
  5
19F
330
1F
100
AcDbEntity
  8
LAYER_1
100
AcDbBlockReference
  2
BLOCK_47
 10
0.0
 20
0.0
 30
0.0
  0
INSERT
  5
1A7
330
1F
100
AcDbEntity
  8
LAYER_1
100
AcDbBlockReference
  2
BLOCK_48
 10
0.0
 20
0.0
 30
0.0
  0
INSERT
  5
1AF
330
1F
100
AcDbEntity
  8
LAYER_1
100
AcDbBlockReference
  2
BLOCK_49
 10
0.0
 20
0.0
 30
0.0
  0
INSERT
  5
1B7
330
1F
100
AcDbEntity
  8
LAYER_1
100
AcDbBlockReference
  2
BLOCK_50
 10
0.0
 20
0.0
 30
0.0
  0
INSERT
  5
1BF
330
1F
100
AcDbEntity
  8
LAYER_1
100
AcDbBlockReference
  2
BLOCK_51
 10
0.0
 20
0.0
 30
0.0
  0
INSERT
  5
1C7
330
1F
100
AcDbEntity
  8
LAYER_1
100
AcDbBlockReference
  2
BLOCK_52
 10
0.0
 20
0.0
 30
0.0
  0
INSERT
  5
1CF
330
1F
100
AcDbEntity
  8
LAYER_1
100
AcDbBlockReference
  2
BLOCK_53
 10
0.0
 20
0.0
 30
0.0
  0
INSERT
  5
1D7
330
1F
100
AcDbEntity
  8
LAYER_1
100
AcDbBlockReference
  2
BLOCK_54
 10
0.0
 20
0.0
 30
0.0
  0
INSERT
  5
1DF
330
1F
100
AcDbEntity
  8
LAYER_1
100
AcDbBlockReference
  2
BLOCK_55
 10
0.0
 20
0.0
 30
0.0
  0
INSERT
  5
1E7
330
1F
100
AcDbEntity
  8
LAYER_1
100
AcDbBlockReference
  2
BLOCK_56
 10
0.0
 20
0.0
 30
0.0
  0
INSERT
  5
1EF
330
1F
100
AcDbEntity
  8
LAYER_1
100
AcDbBlockReference
  2
BLOCK_57
 10
0.0
 20
0.0
 30
0.0
  0
INSERT
  5
1F7
330
1F
100
AcDbEntity
  8
LAYER_1
100
AcDbBlockReference
  2
BLOCK_58
 10
0.0
 20
0.0
 30
0.0
  0
INSERT
  5
1FF
330
1F
100
AcDbEntity
  8
LAYER_1
100
AcDbBlockReference
  2
BLOCK_59
 10
0.0
 20
0.0
 30
0.0
  0
INSERT
  5
207
330
1F
100
AcDbEntity
  8
LAYER_1
100
AcDbBlockReference
  2
BLOCK_60
 10
0.0
 20
0.0
 30
0.0
  0
INSERT
  5
20F
330
1F
100
AcDbEntity
  8
LAYER_1
100
AcDbBlockReference
  2
BLOCK_61
 10
0.0
 20
0.0
 30
0.0
  0
INSERT
  5
217
330
1F
100
AcDbEntity
  8
LAYER_1
100
AcDbBlockReference
  2
BLOCK_62
 10
0.0
 20
0.0
 30
0.0
  0
INSERT
  5
21C
330
1F
100
AcDbEntity
  8
LAYER_1
100
AcDbBlockReference
  2
BLOCK_63
 10
0.0
 20
0.0
 30
0.0
  0
INSERT
  5
221
330
1F
100
AcDbEntity
  8
LAYER_1
100
AcDbBlockReference
  2
BLOCK_64
 10
0.0
 20
0.0
 30
0.0
  0
INSERT
  5
226
330
1F
100
AcDbEntity
  8
LAYER_1
100
AcDbBlockReference
  2
BLOCK_65
 10
0.0
 20
0.0
 30
0.0
  0
INSERT
  5
22B
330
1F
100
AcDbEntity
  8
LAYER_1
100
AcDbBlockReference
  2
BLOCK_66
 10
0.0
 20
0.0
 30
0.0
  0
INSERT
  5
230
330
1F
100
AcDbEntity
  8
LAYER_1
100
AcDbBlockReference
  2
BLOCK_67
 10
0.0
 20
0.0
 30
0.0
  0
INSERT
  5
235
330
1F
100
AcDbEntity
  8
LAYER_1
100
AcDbBlockReference
  2
BLOCK_68
 10
0.0
 20
0.0
 30
0.0
  0
INSERT
  5
23A
330
1F
100
AcDbEntity
  8
LAYER_1
100
AcDbBlockReference
  2
BLOCK_69
 10
0.0
 20
0.0
 30
0.0
  0
INSERT
  5
23F
330
1F
100
AcDbEntity
  8
LAYER_1
100
AcDbBlockReference
  2
BLOCK_70
 10
0.0
 20
0.0
 30
0.0
  0
INSERT
  5
244
330
1F
100
AcDbEntity
  8
LAYER_1
100
AcDbBlockReference
  2
BLOCK_71
 10
0.0
 20
0.0
 30
0.0
  0
INSERT
  5
249
330
1F
100
AcDbEntity
  8
LAYER_1
100
AcDbBlockReference
  2
BLOCK_72
 10
0.0
 20
0.0
 30
0.0
  0
INSERT
  5
251
330
1F
100
AcDbEntity
  8
LAYER_1
100
AcDbBlockReference
  2
BLOCK_73
 10
0.0
 20
0.0
 30
0.0
  0
INSERT
  5
256
330
1F
100
AcDbEntity
  8
LAYER_1
100
AcDbBlockReference
  2
BLOCK_74
 10
0.0
 20
0.0
 30
0.0
  0
INSERT
  5
25B
330
1F
100
AcDbEntity
  8
LAYER_1
100
AcDbBlockReference
  2
BLOCK_75
 10
0.0
 20
0.0
 30
0.0
  0
INSERT
  5
260
330
1F
100
AcDbEntity
  8
LAYER_1
100
AcDbBlockReference
  2
BLOCK_76
 10
0.0
 20
0.0
 30
0.0
  0
INSERT
  5
265
330
1F
100
AcDbEntity
  8
LAYER_1
100
AcDbBlockReference
  2
BLOCK_77
 10
0.0
 20
0.0
 30
0.0
  0
INSERT
  5
26A
330
1F
100
AcDbEntity
  8
LAYER_1
100
AcDbBlockReference
  2
BLOCK_78
 10
0.0
 20
0.0
 30
0.0
  0
INSERT
  5
26F
330
1F
100
AcDbEntity
  8
LAYER_1
100
AcDbBlockReference
  2
BLOCK_79
 10
0.0
 20
0.0
 30
0.0
  0
INSERT
  5
274
330
1F
100
AcDbEntity
  8
LAYER_1
100
AcDbBlockReference
  2
BLOCK_80
 10
0.0
 20
0.0
 30
0.0
  0
INSERT
  5
279
330
1F
100
AcDbEntity
  8
LAYER_1
100
AcDbBlockReference
  2
BLOCK_81
 10
0.0
 20
0.0
 30
0.0
  0
INSERT
  5
27E
330
1F
100
AcDbEntity
  8
LAYER_1
100
AcDbBlockReference
  2
BLOCK_82
 10
0.0
 20
0.0
 30
0.0
  0
INSERT
  5
283
330
1F
100
AcDbEntity
  8
LAYER_1
100
AcDbBlockReference
  2
BLOCK_83
 10
0.0
 20
0.0
 30
0.0
  0
INSERT
  5
288
330
1F
100
AcDbEntity
  8
LAYER_1
100
AcDbBlockReference
  2
BLOCK_84
 10
0.0
 20
0.0
 30
0.0
  0
INSERT
  5
28D
330
1F
100
AcDbEntity
  8
LAYER_1
100
AcDbBlockReference
  2
BLOCK_85
 10
0.0
 20
0.0
 30
0.0
  0
INSERT
  5
292
330
1F
100
AcDbEntity
  8
LAYER_1
100
AcDbBlockReference
  2
BLOCK_86
 10
0.0
 20
0.0
 30
0.0
  0
INSERT
  5
297
330
1F
100
AcDbEntity
  8
LAYER_1
100
AcDbBlockReference
  2
BLOCK_87
 10
0.0
 20
0.0
 30
0.0
  0
INSERT
  5
29F
330
1F
100
AcDbEntity
  8
LAYER_1
100
AcDbBlockReference
  2
BLOCK_88
 10
0.0
 20
0.0
 30
0.0
  0
INSERT
  5
2A7
330
1F
100
AcDbEntity
  8
LAYER_1
100
AcDbBlockReference
  2
BLOCK_89
 10
0.0
 20
0.0
 30
0.0
  0
INSERT
  5
2AF
330
1F
100
AcDbEntity
  8
LAYER_1
100
AcDbBlockReference
  2
BLOCK_90
 10
0.0
 20
0.0
 30
0.0
  0
INSERT
  5
2B7
330
1F
100
AcDbEntity
  8
LAYER_1
100
AcDbBlockReference
  2
BLOCK_91
 10
0.0
 20
0.0
 30
0.0
  0
INSERT
  5
2BF
330
1F
100
AcDbEntity
  8
LAYER_1
100
AcDbBlockReference
  2
BLOCK_92
 10
0.0
 20
0.0
 30
0.0
  0
INSERT
  5
2C7
330
1F
100
AcDbEntity
  8
LAYER_1
100
AcDbBlockReference
  2
BLOCK_93
 10
0.0
 20
0.0
 30
0.0
  0
INSERT
  5
2CF
330
1F
100
AcDbEntity
  8
LAYER_1
100
AcDbBlockReference
  2
BLOCK_94
 10
0.0
 20
0.0
 30
0.0
  0
INSERT
  5
2D7
330
1F
100
AcDbEntity
  8
LAYER_1
100
AcDbBlockReference
  2
BLOCK_95
 10
0.0
 20
0.0
 30
0.0
  0
INSERT
  5
2DF
330
1F
100
AcDbEntity
  8
LAYER_1
100
AcDbBlockReference
  2
BLOCK_96
 10
0.0
 20
0.0
 30
0.0
  0
INSERT
  5
2E7
330
1F
100
AcDbEntity
  8
LAYER_1
100
AcDbBlockReference
  2
BLOCK_97
 10
0.0
 20
0.0
 30
0.0
  0
INSERT
  5
2EF
330
1F
100
AcDbEntity
  8
LAYER_1
100
AcDbBlockReference
  2
BLOCK_98
 10
0.0
 20
0.0
 30
0.0
  0
INSERT
  5
2F7
330
1F
100
AcDbEntity
  8
LAYER_1
100
AcDbBlockReference
  2
BLOCK_99
 10
0.0
 20
0.0
 30
0.0
  0
INSERT
  5
2FF
330
1F
100
AcDbEntity
  8
LAYER_1
100
AcDbBlockReference
  2
BLOCK_100
 10
0.0
 20
0.0
 30
0.0
  0
INSERT
  5
307
330
1F
100
AcDbEntity
  8
LAYER_1
100
AcDbBlockReference
  2
BLOCK_101
 10
0.0
 20
0.0
 30
0.0
  0
INSERT
  5
30F
330
1F
100
AcDbEntity
  8
LAYER_1
100
AcDbBlockReference
  2
BLOCK_102
 10
0.0
 20
0.0
 30
0.0
  0
ENDSEC
  0
SECTION
  2
OBJECTS
  0
DICTIONARY
  5
C
330
0
100
AcDbDictionary
  3
ACAD_GROUP
350
D
  3
ACAD_LAYOUT
350
1A
  3
ACAD_MLINESTYLE
350
17
  3
ACAD_PLOTSETTINGS
350
19
  3
ACAD_TABLESTYLE
350
316
  3
ACAD_VISUALSTYLE
350
2A
1001
ACAD
1000
TREAT_AS_HARD
1070
     0
  0
DICTIONARY
  5
D
102
{ACAD_REACTORS
330
C
102
}
330
C
100
AcDbDictionary
1001
ACAD
1000
TREAT_AS_HARD
1070
     0
  0
DICTIONARY
  5
1A
102
{ACAD_REACTORS
330
C
102
}
330
C
100
AcDbDictionary
1001
ACAD
1000
TREAT_AS_HARD
1070
     0
  0
DICTIONARY
  5
17
102
{ACAD_REACTORS
330
C
102
}
330
C
100
AcDbDictionary
  3
STANDARD
350
18
1001
ACAD
1000
TREAT_AS_HARD
1070
     0
  0
DICTIONARY
  5
19
102
{ACAD_REACTORS
330
C
102
}
330
C
100
AcDbDictionary
1001
ACAD
1000
TREAT_AS_HARD
1070
     0
  0
DICTIONARY
  5
316
102
{ACAD_REACTORS
330
C
102
}
330
C
100
AcDbDictionary
1001
ACAD
1000
TREAT_AS_HARD
1070
     0
  0
DICTIONARY
  5
2A
102
{ACAD_REACTORS
330
C
102
}
330
C
100
AcDbDictionary
  3
2DWIREFRAME
350
2F
  3
3DWIREFRAME
350
30
  3
3D_HIDDEN
350
31
  3
BASIC
350
32
  3
BRIGHTEN
350
36
  3
COLORCHANGE
350
3A
  3
CONCEPTUAL
350
34
  3
DIM
350
35
  3
FACEPATTERN
350
39
  3
FLAT
350
2B
  3
FLATWITHEDGES
350
2C
  3
GOURAUD
350
2D
  3
GOURAUDWITHEDGES
350
2E
  3
LINEPATTERN
350
38
  3
REALISTIC
350
33
  3
THICKEN
350
37
1001
ACAD
1000
TREAT_AS_HARD
1070
     0
  0
MLINESTYLE
  5
18
102
{ACAD_REACTORS
330
17
102
}
330
17
100
AcDbMlineStyle
  2
Standard
 70
     0
  3

 62
   256
 51
90.0
 52
90.0
 71
     2
 49
0.5
 62
   256
  6
BYLAYER
 49
-0.5
 62
   256
  6
BYLAYER
  0
VISUALSTYLE
  5
2F
102
{ACAD_REACTORS
330
2A
102
}
330
2A
100
AcDbVisualStyle
  2
2dWireframe
 70
     4
 71
     0
 72
     2
 73
     0
 90
        0
 40
-0.6
 41
-30.0
 62
     5
 63
     7
 74
     1
 91
        4
 64
     7
 65
   257
 75
     1
175
     1
 42
1.0
 92
        0
 66
   257
 43
1.0
 76
     1
 77
     6
 78
     2
 67
     7
 79
     5
170
     0
171
     0
290
     0
174
     0
 93
        1
 44
0.0
173
     0
291
     0
 45
0.0
1001
ACAD
1000
AcDbSavedByObjectVersion
1070
     0
  0
VISUALSTYLE
  5
30
102
{ACAD_REACTORS
330
2A
102
}
330
2A
100
AcDbVisualStyle
  2
3dWireframe
 70
     5
 71
     0
 72
     2
 73
     0
 90
        0
 40
-0.6
 41
-30.0
 62
     5
 63
     7
 74
     1
 91
        4
 64
     7
 65
   257
 75
     1
175
     1
 42
1.0
 92
        0
 66
   257
 43
1.0
 76
     1
 77
     6
 78
     2
 67
     7
 79
     5
170
     0
171
     0
290
     0
174
     0
 93
        1
 44
0.0
173
     0
291
     0
 45
0.0
1001
ACAD
1000
AcDbSavedByObjectVersion
1070
     0
  0
VISUALSTYLE
  5
31
102
{ACAD_REACTORS
330
2A
102
}
330
2A
100
AcDbVisualStyle
  2
3D Hidden
 70
     6
 71
     1
 72
     2
 73
     2
 90
        0
 40
-0.6
 41
-30.0
 62
     5
 63
     7
 74
     2
 91
        2
 64
     7
 65
   257
 75
     2
175
     1
 42
40.0
 92
        0
 66
   257
 43
1.0
 76
     1
 77
     6
 78
     2
 67
     7
 79
     3
170
     0
171
     0
290
     0
174
     0
 93
        1
 44
0.0
173
     0
291
     0
 45
0.0
1001
ACAD
1000
AcDbSavedByObjectVersion
1070
     0
  0
VISUALSTYLE
  5
32
102
{ACAD_REACTORS
330
2A
102
}
330
2A
100
AcDbVisualStyle
  2
Basic
 70
     7
 71
     1
 72
     0
 73
     1
 90
        0
 40
-0.6
 41
-30.0
 62
     5
 63
     7
 74
     0
 91
        4
 64
     7
 65
   257
 75
     1
175
     1
 42
1.0
 92
        8
 66
     7
 43
1.0
 76
     1
 77
     6
 78
     2
 67
     7
 79
     5
170
     0
171
     0
290
     0
174
     0
 93
        1
 44
0.0
173
     0
291
     1
 45
0.0
1001
ACAD
1000
AcDbSavedByObjectVersion
1070
     0
  0
VISUALSTYLE
  5
36
102
{ACAD_REACTORS
330
2A
102
}
330
2A
100
AcDbVisualStyle
  2
Brighten
 70
    12
 71
     2
 72
     2
 73
     0
 90
        0
 40
-0.6
 41
-30.0
 62
     5
 63
     7
 74
     1
 91
        4
 64
     7
 65
   257
 75
     1
175
     1
 42
1.0
 92
        8
 66
     7
 43
1.0
 76
     1
 77
     6
 78
     2
 67
     7
 79
     5
170
     0
171
     0
290
     0
174
     0
 93
        1
 44
50.0
173
     0
291
     1
 45
0.0
1001
ACAD
1000
AcDbSavedByObjectVersion
1070
     0
  0
VISUALSTYLE
  5
3A
102
{ACAD_REACTORS
330
2A
102
}
330
2A
100
AcDbVisualStyle
  2
ColorChange
 70
    16
 71
     2
 72
     2
 73
     3
 90
        0
 40
-0.6
 41
-30.0
 62
     5
 63
     8
 74
     1
 91
        4
 64
     7
 65
   257
 75
     1
175
     1
 42
1.0
 92
        8
 66
     8
 43
1.0
 76
     1
 77
     6
 78
     2
 67
     7
 79
     5
170
     0
171
     0
290
     0
174
     0
 93
        1
 44
0.0
173
     0
291
     1
 45
0.0
1001
ACAD
1000
AcDbSavedByObjectVersion
1070
     0
  0
VISUALSTYLE
  5
34
102
{ACAD_REACTORS
330
2A
102
}
330
2A
100
AcDbVisualStyle
  2
Conceptual
 70
     9
 71
     3
 72
     2
 73
     0
 90
        0
 40
-0.6
 41
-30.0
 62
     5
 63
     7
 74
     2
 91
        2
 64
     7
 65
   257
 75
     1
175
     1
 42
40.0
 92
        8
 66
     7
 43
1.0
 76
     1
 77
     6
 78
     2
 67
     7
 79
     3
170
     0
171
     0
290
     0
174
     0
 93
        1
 44
0.0
173
     0
291
     0
 45
0.0
1001
ACAD
1000
AcDbSavedByObjectVersion
1070
     0
  0
VISUALSTYLE
  5
35
102
{ACAD_REACTORS
330
2A
102
}
330
2A
100
AcDbVisualStyle
  2
Dim
 70
    11
 71
     2
 72
     2
 73
     0
 90
        0
 40
-0.6
 41
-30.0
 62
     5
 63
     7
 74
     1
 91
        4
 64
     7
 65
   257
 75
     1
175
     1
 42
1.0
 92
        8
 66
     7
 43
1.0
 76
     1
 77
     6
 78
     2
 67
     7
 79
     5
170
     0
171
     0
290
     0
174
     0
 93
        1
 44
-50.0
173
     0
291
     1
 45
0.0
1001
ACAD
1000
AcDbSavedByObjectVersion
1070
     0
  0
VISUALSTYLE
  5
39
102
{ACAD_REACTORS
330
2A
102
}
330
2A
100
AcDbVisualStyle
  2
Facepattern
 70
    15
 71
     2
 72
     2
 73
     0
 90
        0
 40
-0.6
 41
-30.0
 62
     5
 63
     7
 74
     1
 91
        4
 64
     7
 65
   257
 75
     1
175
     1
 42
1.0
 92
        8
 66
     7
 43
1.0
 76
     1
 77
     6
 78
     2
 67
     7
 79
     5
170
     0
171
     0
290
     0
174
     0
 93
        1
 44
0.0
173
     0
291
     1
 45
0.0
1001
ACAD
1000
AcDbSavedByObjectVersion
1070
     0
  0
VISUALSTYLE
  5
2B
102
{ACAD_REACTORS
330
2A
102
}
330
2A
100
AcDbVisualStyle
  2
Flat
 70
     0
 71
     2
 72
     1
 73
     1
 90
        2
 40
-0.6
 41
30.0
 62
     5
 63
     7
 74
     0
 91
        4
 64
     7
 65
   257
 75
     1
175
     1
 42
1.0
 92
        8
 66
     7
 43
1.0
 76
     1
 77
     6
 78
     2
 67
     7
 79
     5
170
     0
171
     0
290
     0
174
     0
 93
       13
 44
0.0
173
     0
291
     1
 45
0.0
1001
ACAD
1000
AcDbSavedByObjectVersion
1070
     0
  0
VISUALSTYLE
  5
2C
102
{ACAD_REACTORS
330
2A
102
}
330
2A
100
AcDbVisualStyle
  2
FlatWithEdges
 70
     1
 71
     2
 72
     1
 73
     1
 90
        2
 40
-0.6
 41
30.0
 62
     5
 63
     7
 74
     1
 91
        4
 64
     7
 65
   257
 75
     1
175
     1
 42
1.0
 92
        0
 66
   257
 43
1.0
 76
     1
 77
     6
 78
     2
 67
     7
 79
     5
170
     0
171
     0
290
     0
174
     0
 93
       13
 44
0.0
173
     0
291
     1
 45
0.0
1001
ACAD
1000
AcDbSavedByObjectVersion
1070
     0
  0
VISUALSTYLE
  5
2D
102
{ACAD_REACTORS
330
2A
102
}
330
2A
100
AcDbVisualStyle
  2
Gouraud
 70
     2
 71
     2
 72
     2
 73
     1
 90
        2
 40
-0.6
 41
30.0
 62
     5
 63
     7
 74
     0
 91
        4
 64
     7
 65
   257
 75
     1
175
     1
 42
1.0
 92
        0
 66
     7
 43
1.0
 76
     1
 77
     6
 78
     2
 67
     7
 79
     5
170
     0
171
     0
290
     0
174
     0
 93
       13
 44
0.0
173
     0
291
     1
 45
0.0
1001
ACAD
1000
AcDbSavedByObjectVersion
1070
     0
  0
VISUALSTYLE
  5
2E
102
{ACAD_REACTORS
330
2A
102
}
330
2A
100
AcDbVisualStyle
  2
GouraudWithEdges
 70
     3
 71
     2
 72
     2
 73
     1
 90
        2
 40
-0.6
 41
30.0
 62
     5
 63
     7
 74
     1
 91
        4
 64
     7
 65
   257
 75
     1
175
     1
 42
1.0
 92
        0
 66
   257
 43
1.0
 76
     1
 77
     6
 78
     2
 67
     7
 79
     5
170
     0
171
     0
290
     0
174
     0
 93
       13
 44
0.0
173
     0
291
     1
 45
0.0
1001
ACAD
1000
AcDbSavedByObjectVersion
1070
     0
  0
VISUALSTYLE
  5
38
102
{ACAD_REACTORS
330
2A
102
}
330
2A
100
AcDbVisualStyle
  2
Linepattern
 70
    14
 71
     2
 72
     2
 73
     0
 90
        0
 40
-0.6
 41
-30.0
 62
     5
 63
     7
 74
     1
 91
        4
 64
     7
 65
   257
 75
     7
175
     7
 42
1.0
 92
        8
 66
     7
 43
1.0
 76
     1
 77
     6
 78
     2
 67
     7
 79
     5
170
     0
171
     0
290
     0
174
     0
 93
        1
 44
0.0
173
     0
291
     1
 45
0.0
1001
ACAD
1000
AcDbSavedByObjectVersion
1070
     0
  0
VISUALSTYLE
  5
33
102
{ACAD_REACTORS
330
2A
102
}
330
2A
100
AcDbVisualStyle
  2
Realistic
 70
     8
 71
     2
 72
     2
 73
     0
 90
        0
 40
-0.6
 41
-30.0
 62
     5
 63
     7
 74
     1
 91
        0
 64
     7
 65
   257
 75
     1
175
     1
 42
1.0
 92
        8
 66
     8
 43
1.0
 76
     1
 77
     6
 78
     2
 67
     7
 79
     5
170
     0
171
     0
290
     0
174
     0
 93
       13
 44
0.0
173
     0
291
     0
 45
0.0
1001
ACAD
1000
AcDbSavedByObjectVersion
1070
     0
  0
VISUALSTYLE
  5
37
102
{ACAD_REACTORS
330
2A
102
}
330
2A
100
AcDbVisualStyle
  2
Thicken
 70
    13
 71
     2
 72
     2
 73
     0
 90
        0
 40
-0.6
 41
-30.0
 62
     5
 63
     7
 74
     1
 91
        4
 64
     7
 65
   257
 75
     1
175
     1
 42
1.0
 92
       12
 66
     7
 43
1.0
 76
     1
 77
     6
 78
     2
 67
     7
 79
     5
170
     0
171
     0
290
     0
174
     0
 93
        1
 44
0.0
173
     0
291
     1
 45
0.0
1001
ACAD
1000
AcDbSavedByObjectVersion
1070
     0
  0
ENDSEC
  0
EOF
