0
SECTION
2
HEADER
9
$INSUNITS
70
4
9
$ACADVER
1
AC1014
9
$HANDSEED
5
FFFF
0
ENDSEC
0
SECTION
2
TABLES
0
TABLE
2
VPORT
5
8
100
AcDbSymbolTable
0
ENDTAB
0
TABLE
2
LTYPE
5
5
100
AcDbSymbolTable
0
LTYPE
5
14
100
AcDbSymbolTableRecord
100
AcDbLinetypeTableRecord
2
BYBLOCK
70
0
0
LTYPE
5
15
100
AcDbSymbolTableRecord
100
AcDbLinetypeTableRecord
2
BYLAYER
70
0
0
ENDTAB
0
TABLE
2
LAYER
5
2
100
AcDbSymbolTable
70
2
0
LAYER
5
50
100
AcDbSymbolTableRecord
100
AcDbLayerTableRecord
2
0
70
0
6
CONTINUOUS
0
ENDTAB
0
TABLE
2
STYLE
5
3
100
AcDbSymbolTable
70
1
0
STYLE
5
11
100
AcDbSymbolTableRecord
100
AcDbTextStyleTableRecord
2
STANDARD
70
0
0
ENDTAB
0
TABLE
2
VIEW
5
6
100
AcDbSymbolTable
70
0
0
ENDTAB
0
TABLE
2
UCS
5
7
100
AcDbSymbolTable
70
0
0
ENDTAB
0
TABLE
2
APPID
5
9
100
AcDbSymbolTable
70
2
0
APPID
5
12
100
AcDbSymbolTableRecord
100
AcDbRegAppTableRecord
2
ACAD
70
0
0
ENDTAB
0
TABLE
2
DIMSTYLE
5
A
100
AcDbSymbolTable
70
1
0
ENDTAB
0
TABLE
2
BLOCK_RECORD
5
1
100
AcDbSymbolTable
70
1
0
BLOCK_RECORD
5
1F
100
AcDbSymbolTableRecord
100
AcDbBlockTableRecord
2
*MODEL_SPACE
0
BLOCK_RECORD
5
1B
100
AcDbSymbolTableRecord
100
AcDbBlockTableRecord
2
*PAPER_SPACE
0
ENDTAB
0
ENDSEC
0
SECTION
2
BLOCKS
0
BLOCK
5
20
100
AcDbEntity
100
AcDbBlockBegin
2
*MODEL_SPACE
0
ENDBLK
5
21
100
AcDbEntity
100
AcDbBlockEnd
0
BLOCK
5
1C
100
AcDbEntity
100
AcDbBlockBegin
2
*PAPER_SPACE
0
ENDBLK
5
1D
100
AcDbEntity
100
AcDbBlockEnd
0
ENDSEC
0
SECTION
2
ENTITIES
0
ARC
5
100
100
AcDbEntity
8
0
100
AcDbCircle
10
-15.499960996538372
20
96.99995458059243
30
0
40
4.5000794390049208
100
AcDbArc
50
179.99942171975388
51
269.99950338537434
0
LINE
5
101
100
AcDbEntity
8
0
100
AcDbLine
10
35
20
45.5
30
0
11
35
21
32
31
0
0
LINE
5
102
100
AcDbEntity
8
0
100
AcDbLine
10
0
20
45.5
30
0
11
35
21
45.5
31
0
0
ARC
5
103
100
AcDbEntity
8
0
100
AcDbCircle
10
-85.538783931681067
20
133.06982710151638
30
0
40
4.4446487421675327
100
AcDbArc
50
180.89943025978309
51
270.50318717780641
0
ARC
5
104
100
AcDbEntity
8
0
100
AcDbCircle
10
30.500001560498951
20
77.436171857660966
30
0
40
4.4999984683734766
100
AcDbArc
50
-89.181748508854639
51
0.0012495874953734262
0
LINE
5
105
100
AcDbEntity
8
0
100
AcDbLine
10
34.994629515778406
20
132.99999524037202
30
0
11
34.995222515430733
21
119.45499633429186
31
0
0
LINE
5
106
100
AcDbEntity
8
0
100
AcDbLine
10
35.000000028538288
20
82.5
30
0
11
35.000000027802187
21
77.43616999999999
31
0
0
LINE
5
107
100
AcDbEntity
8
0
100
AcDbLine
10
-6.4935312532679941
20
27.5
30
0
11
-6.4935312532679994
21
2.6219032713921515
31
0
0
LINE
5
108
100
AcDbEntity
8
0
100
AcDbLine
10
-15.500000001248402
20
92.49987514175649
30
0
11
-0.032136105835019461
21
92.49987514175649
31
0
0
LINE
5
109
100
AcDbEntity
8
0
100
AcDbLine
10
30.564303741375866
20
72.936515077374949
30
0
11
0.035126623959831717
21
72.500234141756465
31
0
0
ARC
5
110
100
AcDbEntity
8
0
100
AcDbCircle
10
-15.499998535895994
20
67.99999181569116
30
0
40
4.4999893897938765
100
AcDbArc
50
179.99989579413713
51
270.0000413710714
0
LINE
5
111
100
AcDbEntity
8
0
100
AcDbLine
10
34.999999946180324
20
87.563878500002261
30
0
11
35.000000028538288
21
82.5
31
0
0
LINE
5
112
100
AcDbEntity
8
0
100
AcDbLine
10
30.500000000000007
20
27.5
30
0
11
15
21
27.5
31
0
0
ARC
5
113
100
AcDbEntity
8
0
100
AcDbCircle
10
-15.500024831197427
20
67.999942853916878
30
0
40
4.4999630948478559
100
AcDbArc
50
89.999683835143486
51
179.99927238797096
0
ARC
5
114
100
AcDbEntity
8
0
100
AcDbCircle
10
30.500003361838353
20
31.99999663816164
30
0
40
4.4999966381629033
100
AcDbArc
50
-90.000042804287233
51
4.279952897278051e-05
0
LINE
5
115
100
AcDbEntity
8
0
100
AcDbLine
10
35.000000027802187
20
77.43616999999999
30
0
11
35.000000027802216
21
77.436270000006999
31
0
0
LINE
5
116
100
AcDbEntity
8
0
100
AcDbLine
10
30.564314760953188
20
92.06345393895046
30
0
11
30.564265091330888
21
92.063304930097871
31
0
0
LINE
5
117
100
AcDbEntity
8
0
100
AcDbLine
10
15
20
27.5
30
0
11
15
21
32
31
0
0
LINE
5
118
100
AcDbEntity
8
0
100
AcDbLine
10
14.506468746731422
20
137.61474881127043
30
0
11
30.497411489905456
21
137.45499633406945
31
0
0
LINE
5
119
100
AcDbEntity
8
0
100
AcDbLine
10
-85.499750314779902
20
128.62534976239056
30
0
11
10.481361201401246
21
128.62534976239056
31
0
0
LINE
5
120
100
AcDbEntity
8
0
100
AcDbLine
10
-6.4935312532682783
20
63.500008929118579
30
0
11
-6.4935312532682072
21
54.499999999999993
31
0
0
LINE
5
121
100
AcDbEntity
8
0
100
AcDbLine
10
-15.499999999990376
20
101.50000306732647
30
0
11
-6.4935312532685785
21
101.50000306732643
31
0
0
LINE
5
122
100
AcDbEntity
8
0
100
AcDbLine
10
0.032140677264703627
20
92.499415229032437
30
0
11
30.564314760953188
21
92.06345393895046
31
0
0
ARC
5
123
100
AcDbEntity
8
0
100
AcDbCircle
10
9.5783368640411854
20
132.70102227973274
30
0
40
4.1745130760943896
100
AcDbArc
50
-77.507108679937588
51
10.724021156556105
0
ARC
5
124
100
AcDbEntity
8
0
100
AcDbCircle
10
-85.517192946310502
20
115.02889233910398
30
0
40
4.4774722788222272
100
AcDbArc
50
180.36972078071554
51
270.22000943549006
0
LINE
5
125
100
AcDbEntity
8
0
100
AcDbLine
10
10.499999999999972
20
36.500000000000014
30
0
11
-85.499999999999986
21
36.5
31
0
0
ARC
5
126
100
AcDbEntity
8
0
100
AcDbCircle
10
30.500021142158666
20
87.563784738625841
30
0
40
4.4999788042244928
100
AcDbArc
50
-7.943307387412513e-05
51
89.181988991968453
0
LINE
5
127
100
AcDbEntity
8
0
100
AcDbLine
10
-0.032136105835019461
20
92.49987514175649
30
0
11
0.032140677264703627
21
92.499415229032437
31
0
0
ARC
5
128
100
AcDbEntity
8
0
100
AcDbCircle
10
-85.500003361838338
20
50.000003361838338
30
0
40
4.4999966381629211
100
AcDbArc
50
89.99995719842731
51
180.00004279952898
0
ARC
5
129
100
AcDbEntity
8
0
100
AcDbCircle
10
-85.49650078162145
20
115.0017451397951
30
0
40
4.4980715631300834
100
AcDbArc
50
90.044573880176003
51
180.02222799556026
0
ARC
5
130
100
AcDbEntity
8
0
100
AcDbCircle
10
10.500003361838353
20
32.000003361838367
30
0
40
4.4999966381629033
100
AcDbArc
50
-4.2799528968783063e-05
51
90.000042804287673
0
ARC
5
131
100
AcDbEntity
8
0
100
AcDbCircle
10
-15.500032156641657
20
96.999994788765903
30
0
40
4.5000082786754616
100
AcDbArc
50
89.999590569552865
51
179.99993365788703
0
ARC
5
132
100
AcDbEntity
8
0
100
AcDbCircle
10
30.518159260917358
20
132.97852266115322
30
0
40
4.4765217540311433
100
AcDbArc
50
0.27483232517963196
51
90.265555275875286
0
LINE
5
133
100
AcDbEntity
8
0
100
AcDbLine
10
-6.4935312532685785
20
137.62190327139217
30
0
11
-6.4935312532685785
21
162.62190327139217
31
0
0
LINE
5
134
100
AcDbEntity
8
0
100
AcDbLine
10
0.035126623959831717
20
72.500234141756465
30
0
11
-0.035124648161531137
21
72.499738967787621
31
0
0
LINE
5
135
100
AcDbEntity
8
0
100
AcDbLine
10
-0.035124648161531137
20
72.499738967787621
30
0
11
-15.49999999987131
21
72.49990594869621
31
0
0
LINE
5
136
100
AcDbEntity
8
0
100
AcDbLine
10
13.679941525663708
20
133.47780965233824
30
0
11
14.506468746731422
21
137.61474881127043
31
0
0
LINE
5
137
100
AcDbEntity
8
0
100
AcDbLine
10
30.564264675974094
20
72.93663227373095
30
0
11
30.564303741375866
21
72.936515077374949
31
0
0
LINE
5
138
100
AcDbEntity
8
0
100
AcDbLine
10
-15.499995286627307
20
63.500002425898458
30
0
11
-6.4935312532682783
21
63.500008929118579
31
0
0
LINE
5
139
100
AcDbEntity
8
0
100
AcDbLine
10
-6.4935312532685785
20
101.50000306732643
30
0
11
-6.4935312532685785
21
110.55145306984093
31
0
0
ARC
5
140
100
AcDbEntity
8
0
100
AcDbCircle
10
-85.50000336183831
20
32.000003361838331
30
0
40
4.4999966381629299
100
AcDbArc
50
89.999957195713051
51
180.00004279952898
0
LINE
5
141
100
AcDbEntity
8
0
100
AcDbLine
10
34.999999946378821
20
87.563778500002257
30
0
11
34.999999946180324
21
87.563878500002261
31
0
0
LINE
5
142
100
AcDbEntity
8
0
100
AcDbLine
10
34.995222515430733
20
119.45499633429186
30
0
11
-2.3236124089094821e-07
21
119.49981534175647
31
0
0
ARC
5
143
100
AcDbEntity
8
0
100
AcDbCircle
10
-85.50000336183831
20
31.999996638161676
30
0
40
4.4999966381629388
100
AcDbArc
50
179.99995720047102
51
270.00004280428698
0
ARC
5
144
100
AcDbEntity
8
0
100
AcDbCircle
10
-85.500003361838338
20
49.999996638161676
30
0
40
4.4999966381629211
100
AcDbArc
50
179.99995720047102
51
270.00004280428726
0
ARC
5
145
100
AcDbEntity
8
0
100
AcDbCircle
10
-85.435525378402616
20
133.07439090845688
30
0
40
4.5479671643998101
100
AcDbArc
50
90.810295666867262
51
180.93649838510527
0
LINE
5
146
100
AcDbEntity
8
0
100
AcDbLine
10
-85.499999999999986
20
27.499999999999993
30
0
11
-6.4935312532679941
21
27.5
31
0
0
LINE
5
147
100
AcDbEntity
8
0
100
AcDbLine
10
-85.499999991854665
20
110.55145306984093
30
0
11
-6.4935312532685785
21
110.55145306984093
31
0
0
LINE
5
148
100
AcDbEntity
8
0
100
AcDbLine
10
-6.4935312532682072
20
54.499999999999993
30
0
11
-85.500000000213191
21
54.5
31
0
0
LINE
5
149
100
AcDbEntity
8
0
100
AcDbLine
10
-2.3236124089094821e-07
20
119.49981534175647
30
0
11
-85.500000105382426
21
119.49981534175647
31
0
0
LINE
5
150
100
AcDbEntity
8
0
100
AcDbLine
10
-85.499842074599911
20
137.62190327139217
30
0
11
-6.4935312532685785
21
137.62190327139217
31
0
0
LINE
5
151
100
AcDbEntity
8
0
100
AcDbLine
10
-85.499999999999986
20
45.5
30
0
11
0
21
45.5
31
0
0
LINE
5
152
100
AcDbEntity
8
0
100
AcDbLine
10
-6.4935312532685785
20
162.62190327139217
30
0
11
-106.49353125326857
21
162.62190327139206
31
0
0
LINE
5
153
100
AcDbEntity
8
0
100
AcDbLine
10
-6.4935312532679994
20
2.6219032713921515
30
0
11
-106.49353125326861
21
2.6219032713921573
31
0
0
LINE
5
154
100
AcDbEntity
8
0
100
AcDbLine
10
-906.49353125326854
20
562.78793383915979
30
0
11
-906.49353125326854
21
722.78793383915979
31
0
0
LINE
5
155
100
AcDbEntity
8
0
100
AcDbLine
10
-260.24341225326862
20
182.54520371084067
30
0
11
-226.4935312532686
21
158.91328262095988
31
0
0
LINE
5
156
100
AcDbEntity
8
0
100
AcDbLine
10
-226.4935312532686
20
158.91328262095988
30
0
11
-226.4935312532686
21
86.646807856557317
31
0
0
LINE
5
157
100
AcDbEntity
8
0
100
AcDbLine
10
-480.24341225326862
20
322.68737853810194
30
0
11
-446.4935312532686
21
299.05545744822115
31
0
0
LINE
5
158
100
AcDbEntity
8
0
100
AcDbLine
10
-446.4935312532686
20
299.05545744822115
30
0
11
-446.4935312532686
21
240.69246626269333
31
0
0
LINE
5
159
100
AcDbEntity
8
0
100
AcDbLine
10
-666.49353125326854
20
453.10111585435641
30
0
11
-666.49353125326854
21
394.73812466882947
31
0
0
LWPOLYLINE
5
160
100
AcDbEntity
8
0
100
AcDbPolyline
90
4
70
1
43
0.0
10
-873.05190128399897
20
691.68793383915977
10
-894.25190128399902
20
691.68793383915977
10
-894.25190128399902
20
671.08793383915986
10
-873.05190128399897
20
671.08793383915986
0
LWPOLYLINE
5
161
100
AcDbEntity
8
0
100
AcDbPolyline
90
4
70
1
43
0.0
10
-873.05190128399897
20
632.48793383915984
10
-873.05190128399897
20
653.08793383915986
10
-894.25190128399902
20
653.08793383915986
10
-894.25190128399902
20
632.48793383915984
0
LWPOLYLINE
5
162
100
AcDbEntity
8
0
100
AcDbPolyline
90
4
70
1
43
0.0
10
-873.05190128399897
20
614.48793383915984
10
-894.25190128399902
20
614.48793383915972
10
-894.25190128399902
20
593.8879338391597
10
-873.05190128399897
20
593.88793383915981
0
LINE
5
163
100
AcDbEntity
8
0
100
AcDbLine
10
-119.880935247932
20
171.99586446551422
30
0
11
-119.880935247932
21
11.995864465514238
31
0
0
LINE
5
164
100
AcDbEntity
8
0
100
AcDbLine
10
-700.2434122532685
20
514.43428472593223
30
0
11
-666.49353125326854
21
490.80236363605161
31
0
0
LINE
5
165
100
AcDbEntity
8
0
100
AcDbLine
10
-700.2434122532685
20
476.73303694423714
30
0
11
-700.2434122532685
21
514.43428472593223
31
0
0
LINE
5
166
100
AcDbEntity
8
0
100
AcDbLine
10
-666.49353125326854
20
490.80236363605161
30
0
11
-666.49353125326854
21
554.73812466882953
31
0
0
LINE
5
167
100
AcDbEntity
8
0
100
AcDbLine
10
-700.2434122532685
20
476.73303694423714
30
0
11
-666.49353125326854
21
453.10111585435641
31
0
0
LINE
5
168
100
AcDbEntity
8
0
100
AcDbLine
10
-446.4935312532686
20
336.75670522991493
30
0
11
-446.4935312532686
21
400.69246626269347
31
0
0
LINE
5
169
100
AcDbEntity
8
0
100
AcDbLine
10
-446.4935312532686
20
336.75670522991493
30
0
11
-480.24341225326862
21
360.38862631979555
31
0
0
LINE
5
170
100
AcDbEntity
8
0
100
AcDbLine
10
-480.24341225326862
20
360.38862631979555
30
0
11
-480.24341225326862
21
322.68737853810194
31
0
0
LINE
5
171
100
AcDbEntity
8
0
100
AcDbLine
10
-226.4935312532686
20
196.61453040265508
30
0
11
-226.4935312532686
21
246.64680785655722
31
0
0
LINE
5
172
100
AcDbEntity
8
0
100
AcDbLine
10
-226.4935312532686
20
196.61453040265508
30
0
11
-260.24341225326862
21
220.24645149253561
31
0
0
LINE
5
173
100
AcDbEntity
8
0
100
AcDbLine
10
-260.24341225326862
20
220.24645149253561
30
0
11
-260.24341225326862
21
182.54520371084067
31
0
0
LINE
5
174
100
AcDbEntity
8
0
100
AcDbLine
10
-316.63241712202489
20
309.76273522768514
30
0
11
-316.63241712202489
21
149.76273522768511
31
0
0
LINE
5
175
100
AcDbEntity
8
0
100
AcDbLine
10
-547.21578286799138
20
471.2189461087774
30
0
11
-547.21578286799138
21
311.21894610877735
31
0
0
LINE
5
176
100
AcDbEntity
8
0
100
AcDbLine
10
-106.49353125326861
20
2.6219032713921573
30
0
11
-119.880935247932
21
11.995864465514238
31
0
0
LINE
5
177
100
AcDbEntity
8
0
100
AcDbLine
10
-119.880935247932
20
11.995864465514238
30
0
11
-226.4935312532686
21
86.646807856557317
31
0
0
LINE
5
178
100
AcDbEntity
8
0
100
AcDbLine
10
-226.4935312532686
20
86.646807856557317
30
0
11
-316.63241712202489
21
149.76273522768511
31
0
0
LINE
5
179
100
AcDbEntity
8
0
100
AcDbLine
10
-316.63241712202489
20
149.76273522768511
30
0
11
-446.4935312532686
21
240.69246626269333
31
0
0
LINE
5
180
100
AcDbEntity
8
0
100
AcDbLine
10
-446.4935312532686
20
240.69246626269333
30
0
11
-547.21578286799138
21
311.21894610877735
31
0
0
LINE
5
181
100
AcDbEntity
8
0
100
AcDbLine
10
-547.21578286799138
20
311.21894610877735
30
0
11
-666.49353125326854
21
394.73812466882947
31
0
0
LINE
5
182
100
AcDbEntity
8
0
100
AcDbLine
10
-666.49353125326854
20
394.73812466882947
30
0
11
-906.49353125326854
21
562.78793383915979
31
0
0
LINE
5
183
100
AcDbEntity
8
0
100
AcDbLine
10
-906.49353125326854
20
722.78793383915979
30
0
11
-666.49353125326854
21
554.73812466882953
31
0
0
LINE
5
184
100
AcDbEntity
8
0
100
AcDbLine
10
-666.49353125326854
20
554.73812466882953
30
0
11
-547.21578286799138
21
471.2189461087774
31
0
0
LINE
5
185
100
AcDbEntity
8
0
100
AcDbLine
10
-547.21578286799138
20
471.2189461087774
30
0
11
-446.4935312532686
21
400.69246626269347
31
0
0
LINE
5
186
100
AcDbEntity
8
0
100
AcDbLine
10
-446.4935312532686
20
400.69246626269347
30
0
11
-316.63241712202489
21
309.76273522768514
31
0
0
LINE
5
187
100
AcDbEntity
8
0
100
AcDbLine
10
-316.63241712202489
20
309.76273522768514
30
0
11
-226.4935312532686
21
246.64680785655722
31
0
0
LINE
5
188
100
AcDbEntity
8
0
100
AcDbLine
10
-226.4935312532686
20
246.64680785655722
30
0
11
-119.880935247932
21
171.99586446551422
31
0
0
LINE
5
189
100
AcDbEntity
8
0
100
AcDbLine
10
-119.880935247932
20
171.99586446551422
30
0
11
-106.49353125326857
21
162.62190327139206
31
0
0
ENDSEC
0
SECTION
2
OBJECTS
0
DICTIONARY
5
C
100
AcDbDictionary
3
ACAD_GROUP
350
D
3
ACAD_MLINESTYLE
350
17
0
DICTIONARY
5
D
100
AcDbDictionary
0
DICTIONARY
5
1A
330
C
100
AcDbDictionary
0
DICTIONARY
5
17
100
AcDbDictionary
0
ENDSEC
0
EOF
