  0
SECTION
  2
HEADER
  9
$ACADVER
  1
AC1014
  9
$ACADMAINTVER
 70
     9
  9
$DWGCODEPAGE
  3
UNDEFINED
  9
$INSBASE
 10
0.0
 20
0.0
 30
0.0
  9
$EXTMIN
 10
0.0
 20
1.0
 30
0.0
  9
$EXTMAX
 10
1.0
 20
0.0
 30
0.0
  9
$LIMMIN
 10
0.0
 20
0.0
  9
$LIMMAX
 10
12.0
 20
9.0
  9
$ORTHOMODE
 70
     0
  9
$REGENMODE
 70
     1
  9
$FILLMODE
 70
     1
  9
$QTEXTMODE
 70
     0
  9
$MIRRTEXT
 70
     1
  9
$DRAGMODE
 70
     2
  9
$LTSCALE
 40
96.0
  9
$OSMODE
 70
    37
  9
$ATTMODE
 70
     1
  9
$TEXTSIZE
 40
0.2
  9
$TRACEWID
 40
0.05
  9
$TEXTSTYLE
  7
STANDARD
  9
$CLAYER
  8
0
  9
$CELTYPE
  6
BYLAYER
  9
$CECOLOR
 62
   256
  9
$CELTSCALE
 40
1.0
  9
$DELOBJ
 70
     1
  9
$DISPSILH
 70
     0
  9
$DIMSCALE
 40
1.0
  9
$DIMASZ
 40
0.18
  9
$DIMEXO
 40
0.0625
  9
$DIMDLI
 40
0.38
  9
$DIMRND
 40
0.0
  9
$DIMDLE
 40
0.0
  9
$DIMEXE
 40
0.18
  9
$DIMTP
 40
0.0
  9
$DIMTM
 40
0.0
  9
$DIMTXT
 40
5.0
  9
$DIMCEN
 40
0.09
  9
$DIMTSZ
 40
0.0
  9
$DIMTOL
 70
     0
  9
$DIMLIM
 70
     0
  9
$DIMTIH
 70
     0
  9
$DIMTOH
 70
     0
  9
$DIMSE1
 70
     0
  9
$DIMSE2
 70
     0
  9
$DIMTAD
 70
     0
  9
$DIMZIN
 70
     0
  9
$DIMBLK
  1

  9
$DIMASO
 70
     1
  9
$DIMSHO
 70
     1
  9
$DIMPOST
  1

  9
$DIMAPOST
  1

  9
$DIMALT
 70
     0
  9
$DIMALTD
 70
     2
  9
$DIMALTF
 40
25.4
  9
$DIMLFAC
 40
1.0
  9
$DIMTOFL
 70
     0
  9
$DIMTVP
 40
0.0
  9
$DIMTIX
 70
     0
  9
$DIMSOXD
 70
     0
  9
$DIMSAH
 70
     0
  9
$DIMBLK1
  1

  9
$DIMBLK2
  1

  9
$DIMSTYLE
  2
STANDARD
  9
$DIMCLRD
 70
     0
  9
$DIMCLRE
 70
     0
  9
$DIMCLRT
 70
     0
  9
$DIMTFAC
 40
1.0
  9
$DIMGAP
 40
0.09
  9
$DIMJUST
 70
     0
  9
$DIMSD1
 70
     0
  9
$DIMSD2
 70
     0
  9
$DIMTOLJ
 70
     1
  9
$DIMTZIN
 70
     0
  9
$DIMALTZ
 70
     0
  9
$DIMALTTZ
 70
     0
  9
$DIMFIT
 70
     3
  9
$DIMUPT
 70
     0
  9
$DIMUNIT
 70
     2
  9
$DIMDEC
 70
     4
  9
$DIMTDEC
 70
     4
  9
$DIMALTU
 70
     2
  9
$DIMALTTD
 70
     2
  9
$DIMTXSTY
  7
STANDARD
  9
$DIMAUNIT
 70
     0
  9
$LUNITS
 70
     2
  9
$LUPREC
 70
     4
  9
$SKETCHINC
 40
0.1
  9
$FILLETRAD
 40
0.5
  9
$AUNITS
 70
     0
  9
$AUPREC
 70
     0
  9
$MENU
  1
.
  9
$ELEVATION
 40
0.0
  9
$PELEVATION
 40
0.0
  9
$THICKNESS
 40
0.0
  9
$LIMCHECK
 70
     0
  9
$CHAMFERA
 40
0.0
  9
$CHAMFERB
 40
0.0
  9
$CHAMFERC
 40
0.0
  9
$CHAMFERD
 40
0.0
  9
$SKPOLY
 70
     0
  9
$TDCREATE
 40
2458056.723549792
  9
$TDUPDATE
 40
2458056.723549919
  9
$TDINDWG
 40
0.0000000116
  9
$TDUSRTIMER
 40
0.0000000116
  9
$USRTIMER
 70
     1
  9
$ANGBASE
 50
0.0
  9
$ANGDIR
 70
     0
  9
$PDMODE
 70
     0
  9
$PDSIZE
 40
0.0
  9
$PLINEWID
 40
0.0
  9
$COORDS
 70
     1
  9
$SPLFRAME
 70
     0
  9
$SPLINETYPE
 70
     6
  9
$SPLINESEGS
 70
     8
  9
$ATTDIA
 70
     0
  9
$ATTREQ
 70
     1
  9
$HANDLING
 70
     1
  9
$HANDSEED
  5
192
  9
$SURFTAB1
 70
     6
  9
$SURFTAB2
 70
     6
  9
$SURFTYPE
 70
     6
  9
$SURFU
 70
     6
  9
$SURFV
 70
     6
  9
$UCSNAME
  2

  9
$UCSORG
 10
0.0
 20
0.0
 30
0.0
  9
$UCSXDIR
 10
1.0
 20
0.0
 30
0.0
  9
$UCSYDIR
 10
0.0
 20
1.0
 30
0.0
  9
$PUCSNAME
  2

  9
$PUCSORG
 10
0.0
 20
0.0
 30
0.0
  9
$PUCSXDIR
 10
1.0
 20
0.0
 30
0.0
  9
$PUCSYDIR
 10
0.0
 20
1.0
 30
0.0
  9
$USERI1
 70
     0
  9
$USERI2
 70
     0
  9
$USERI3
 70
     0
  9
$USERI4
 70
     0
  9
$USERI5
 70
     0
  9
$USERR1
 40
0.0
  9
$USERR2
 40
0.0
  9
$USERR3
 40
0.0
  9
$USERR4
 40
0.0
  9
$USERR5
 40
0.0
  9
$WORLDVIEW
 70
     1
  9
$SHADEDGE
 70
     3
  9
$SHADEDIF
 70
    70
  9
$TILEMODE
 70
     1
  9
$MAXACTVP
 70
    64
  9
$PINSBASE
 10
0.0
 20
0.0
 30
0.0
  9
$PLIMCHECK
 70
     0
  9
$PEXTMIN
 10
1.000000000000000E+20
 20
1.000000000000000E+20
 30
1.000000000000000E+20
  9
$PEXTMAX
 10
-1.000000000000000E+20
 20
-1.000000000000000E+20
 30
-1.000000000000000E+20
  9
$PLIMMIN
 10
0.0
 20
0.0
  9
$PLIMMAX
 10
12.0
 20
9.0
  9
$UNITMODE
 70
     0
  9
$VISRETAIN
 70
     1
  9
$PLINEGEN
 70
     0
  9
$PSLTSCALE
 70
     1
  9
$TREEDEPTH
 70
  3020
  9
$PICKSTYLE
 70
     1
  9
$CMLSTYLE
  2
STANDARD
  9
$CMLJUST
 70
     0
  9
$CMLSCALE
 40
1.0
  9
$PROXYGRAPHICS
 70
     1
  9
$MEASUREMENT
 70
     0
  0
ENDSEC
  0
SECTION
  2
CLASSES
  0
CLASS
  1
ACDBDICTIONARYWDFLT
  2
AcDbDictionaryWithDefault
  3
ObjectDBX Classes
 90
        0
280
     0
281
     0
  0
CLASS
  1
VISUALSTYLE
  2
AcDbVisualStyle
  3
ObjectDBX Classes
 90
     4095
280
     0
281
     0
  0
CLASS
  1
MATERIAL
  2
AcDbMaterial
  3
ObjectDBX Classes
 90
     1153
280
     0
281
     0
  0
CLASS
  1
SCALE
  2
AcDbScale
  3
ObjectDBX Classes
 90
     1153
280
     0
281
     0
  0
CLASS
  1
TABLESTYLE
  2
AcDbTableStyle
  3
ObjectDBX Classes
 90
     4095
280
     0
281
     0
  0
CLASS
  1
MLEADERSTYLE
  2
AcDbMLeaderStyle
  3
ACDB_MLEADERSTYLE_CLASS
 90
     4095
280
     0
281
     0
  0
CLASS
  1
SUN
  2
AcDbSun
  3
SCENEOE
 90
     1153
280
     0
281
     0
  0
CLASS
  1
DICTIONARYVAR
  2
AcDbDictionaryVar
  3
ObjectDBX Classes
 90
        0
280
     0
281
     0
  0
CLASS
  1
XRECORD
  2
AcDbXrecord
  3
ObjectDBX Classes
 90
        0
280
     0
281
     0
  0
CLASS
  1
LWPOLYLINE
  2
AcDbPolyline
  3
ObjectDBX Classes
 90
        0
280
     0
281
     1
  0
CLASS
  1
HATCH
  2
AcDbHatch
  3
ObjectDBX Classes
 90
        0
280
     0
281
     1
  0
CLASS
  1
ACDBPLACEHOLDER
  2
AcDbPlaceHolder
  3
ObjectDBX Classes
 90
        0
280
     0
281
     0
  0
CLASS
  1
LAYOUT
  2
AcDbLayout
  3
ObjectDBX Classes
 90
        0
280
     0
281
     0
  0
ENDSEC
  0
SECTION
  2
TABLES
  0
TABLE
  2
VPORT
  5
8
102
{ACAD_XDICTIONARY
360
187
102
}
330
0
100
AcDbSymbolTable
 70
     1
  0
VPORT
  5
29
330
8
100
AcDbSymbolTableRecord
100
AcDbViewportTableRecord
  2
*ACTIVE
 70
     0
 10
0.0
 20
0.0
 11
1.0
 21
1.0
 12
10.42990654205607
 22
4.5
 13
0.0
 23
0.0
 14
0.5
 24
0.5
 15
0.5
 25
0.5
 16
0.0
 26
0.0
 36
1.0
 17
0.0
 27
0.0
 37
0.0
 40
9.0
 41
1.972972972850329
 42
50.0
 43
0.0
 44
0.0
 50
0.0
 51
0.0
 71
     0
 72
   100
 73
     1
 74
     3
 75
     0
 76
     0
 77
     0
 78
     0
  0
ENDTAB
  0
TABLE
  2
LTYPE
  5
5
330
0
100
AcDbSymbolTable
 70
     2
  0
LTYPE
  5
14
330
5
100
AcDbSymbolTableRecord
100
AcDbLinetypeTableRecord
  2
BYBLOCK
 70
     0
  3

 72
    65
 73
     0
 40
0.0
  0
LTYPE
  5
15
330
5
100
AcDbSymbolTableRecord
100
AcDbLinetypeTableRecord
  2
BYLAYER
 70
     0
  3

 72
    65
 73
     0
 40
0.0
  0
LTYPE
  5
16
330
5
100
AcDbSymbolTableRecord
100
AcDbLinetypeTableRecord
  2
CONTINUOUS
 70
     0
  3
Solid line
 72
    65
 73
     0
 40
0.0
  0
LTYPE
  5
15C
330
5
100
AcDbSymbolTableRecord
100
AcDbLinetypeTableRecord
  2
ISO08W100
 70
     0
  3
ISO08W100 LINE
 72
    65
 73
     4
 40
0.96
 49
0.48
 74
     0
 49
-0.12
 74
     0
 49
0.24
 74
     0
 49
-0.12
 74
     0
  0
ENDTAB
  0
TABLE
  2
LAYER
  5
2
330
0
100
AcDbSymbolTable
 70
     4
  0
LAYER
  5
10
330
2
100
AcDbSymbolTableRecord
100
AcDbLayerTableRecord
  2
0
 70
     0
 62
     7
  6
CONTINUOUS
  0
LAYER
  5
6E
330
2
100
AcDbSymbolTableRecord
100
AcDbLayerTableRecord
  2
FIXTURES__INTERIOR
 70
     0
 62
    17
  6
CONTINUOUS
  0
ENDTAB
  0
TABLE
  2
STYLE
  5
3
330
0
100
AcDbSymbolTable
 70
     1
  0
STYLE
  5
11
330
3
100
AcDbSymbolTableRecord
100
AcDbTextStyleTableRecord
  2
STANDARD
 70
     0
 40
0.0
 41
1.0
 50
0.0
 71
     0
 42
0.2
  3
txt
  4

  0
ENDTAB
  0
TABLE
  2
VIEW
  5
6
330
0
100
AcDbSymbolTable
 70
     0
  0
ENDTAB
  0
TABLE
  2
UCS
  5
7
330
0
100
AcDbSymbolTable
 70
     0
  0
ENDTAB
  0
TABLE
  2
APPID
  5
9
330
0
100
AcDbSymbolTable
 70
     3
  0
APPID
  5
12
330
9
100
AcDbSymbolTableRecord
100
AcDbRegAppTableRecord
  2
ACAD
 70
     0
  0
APPID
  5
70
330
9
100
AcDbSymbolTableRecord
100
AcDbRegAppTableRecord
  2
CHIEFARC-LNWT
 70
     0
  0
APPID
  5
191
330
9
100
AcDbSymbolTableRecord
100
AcDbRegAppTableRecord
  2
ACAD_MLEADERVER
 70
     0
  0
ENDTAB
  0
TABLE
  2
DIMSTYLE
  5
A
330
0
100
AcDbSymbolTable
 70
     1
  0
DIMSTYLE
105
27
330
A
100
AcDbSymbolTableRecord
100
AcDbDimStyleTableRecord
  2
STANDARD
 70
     0
  3

  4

  5

  6

  7

 40
1.0
 41
0.18
 42
0.0625
 43
0.38
 44
0.18
 45
0.0
 46
0.0
 47
0.0
 48
0.0
140
0.18
141
0.09
142
0.0
143
25.4
144
1.0
145
0.0
146
1.0
147
0.09
 71
     0
 72
     0
 73
     1
 74
     1
 75
     0
 76
     0
 77
     0
 78
     0
170
     0
171
     2
172
     0
173
     0
174
     0
175
     0
176
     0
177
     0
178
     0
270
     2
271
     4
272
     4
273
     2
274
     2
340
11
275
     0
280
     0
281
     0
282
     0
283
     1
284
     0
285
     0
286
     0
287
     3
288
     0
  0
ENDTAB
  0
TABLE
  2
BLOCK_RECORD
  5
1
330
0
100
AcDbSymbolTable
 70
     2
  0
BLOCK_RECORD
  5
1F
330
1
100
AcDbSymbolTableRecord
100
AcDbBlockTableRecord
  2
*MODEL_SPACE
  0
BLOCK_RECORD
  5
1B
330
1
100
AcDbSymbolTableRecord
100
AcDbBlockTableRecord
  2
*PAPER_SPACE
  0
BLOCK_RECORD
  5
6F
330
1
100
AcDbSymbolTableRecord
100
AcDbBlockTableRecord
  2
WIDGET
  0
ENDTAB
  0
ENDSEC
  0
SECTION
  2
BLOCKS
  0
BLOCK
  5
20
330
1F
100
AcDbEntity
  8
0
100
AcDbBlockBegin
  2
*MODEL_SPACE
 70
     0
 10
0.0
 20
0.0
 30
0.0
  3
*MODEL_SPACE
  1

  0
ENDBLK
  5
21
330
1F
100
AcDbEntity
  8
0
100
AcDbBlockEnd
  0
BLOCK
  5
1C
330
1B
100
AcDbEntity
 67
     1
  8
0
100
AcDbBlockBegin
  2
*PAPER_SPACE
 70
     0
 10
0.0
 20
0.0
 30
0.0
  3
*PAPER_SPACE
  1

  0
ENDBLK
  5
1D
330
1B
100
AcDbEntity
 67
     1
  8
0
100
AcDbBlockEnd
  0
BLOCK
  5
149
330
6F
100
AcDbEntity
  8
0
100
AcDbBlockBegin
  2
WIDGET
 70
     0
 10
0.0
 20
0.0
 30
0.0
  3
WIDGET
  1

  0
SOLID
  5
71
330
6F
100
AcDbEntity
  8
FIXTURES__INTERIOR
 62
     7
100
AcDbTrace
 10
0.0666666030883789
 20
3.247526288032532
 30
0.0
 11
0.0813801288604736
 21
3.264192938804626
 31
0.0
 12
0.0666666030883789
 22
3.247526288032532
 32
0.0
 13
0.0847655460238457
 23
3.248958587646484
 33
0.0
1001
CHIEFARC-LNWT
1070
     0
  0
SOLID
  5
72
330
6F
100
AcDbEntity
  8
FIXTURES__INTERIOR
 62
     7
100
AcDbTrace
 10
0.0847655460238457
 20
3.248958587646484
 30
0.0
 11
0.0813801288604736
 21
3.264192938804626
 31
0.0
 12
0.0999999046325684
 22
3.995052576065063
 32
0.0
 13
0.0813801288604736
 23
3.964192867279053
 33
0.0
1001
CHIEFARC-LNWT
1070
     0
  0
SOLID
  5
73
330
6F
100
AcDbEntity
  8
FIXTURES__INTERIOR
 62
     7
100
AcDbTrace
 10
0.0847655460238457
 20
3.248958587646484
 30
0.0
 11
0.0999999046325684
 21
3.995052576065063
 31
0.0
 12
0.0847655460238457
 22
3.248958587646484
 32
0.0
 13
0.0999999046325684
 23
3.264192938804626
 33
0.0
1001
CHIEFARC-LNWT
1070
     0
  0
LWPOLYLINE
  5
74
330
6F
100
AcDbEntity
  8
FIXTURES__INTERIOR
 62
    17
100
AcDbPolyline
 90
        6
 70
     1
 43
0.0
 10
0.0813801288604736
 20
3.264192938804626
 10
0.0813801288604736
 20
3.964192867279053
 10
0.0999999046325684
 20
3.995052576065063
 10
0.0999999046325684
 20
3.264192938804626
 10
0.0847655460238457
 20
3.248958587646484
 10
0.0666666030883789
 20
3.247526288032532
1001
CHIEFARC-LNWT
1070
     0
  0
SOLID
  5
75
330
6F
100
AcDbEntity
  8
0
  6
CONTINUOUS
 62
     7
100
AcDbTrace
 10
-1.243098974227905
 20
0.4308596849441528
 30
0.0
 11
-1.233333349227905
 21
0.4641928672790527
 31
0.0
 12
-1.243098974227905
 22
0.4308596849441528
 32
0.0
 13
-1.233333349227905
 23
0.4308596849441528
 33
0.0
1001
CHIEFARC-LNWT
1070
     0
  0
LWPOLYLINE
  5
76
330
6F
100
AcDbEntity
  8
0
  6
CONTINUOUS
 62
    17
100
AcDbPolyline
 90
        3
 70
     1
 43
0.0
 10
-1.233333349227905
 20
0.4641928672790527
 10
-1.233333349227905
 20
0.4308596849441528
 10
-1.243098974227905
 20
0.4308596849441528
1001
CHIEFARC-LNWT
1070
     0
  0
SOLID
  5
77
330
6F
100
AcDbEntity
  8
0
  6
CONTINUOUS
 62
     7
100
AcDbTrace
 10
-0.8618490099906921
 20
3.802343964576721
 30
0.0
 11
-0.8333332538604727
 21
3.815625190734863
 31
0.0
 12
-0.8618490099906921
 22
3.802343964576721
 32
0.0
 13
-0.8485677242279053
 23
3.797526240348816
 33
0.0
1001
CHIEFARC-LNWT
1070
     0
  0
LWPOLYLINE
  5
78
330
6F
100
AcDbEntity
  8
0
  6
CONTINUOUS
 62
    17
100
AcDbPolyline
 90
        3
 70
     1
 43
0.0
 10
-0.8333332538604727
 20
3.815625190734863
 10
-0.8485677242279053
 20
3.797526240348816
 10
-0.8618490099906921
 20
3.802343964576721
1001
CHIEFARC-LNWT
1070
     0
  0
SOLID
  5
79
330
6F
100
AcDbEntity
  8
0
  6
CONTINUOUS
 62
     7
100
AcDbTrace
 10
0.9180989861488342
 20
2.830859541893005
 30
0.0
 11
0.9173177480697641
 21
2.848177313804626
 31
0.0
 12
0.9180989861488342
 22
2.830859541893005
 32
0.0
 13
0.9333333969116211
 23
2.832031428813934
 33
0.0
1001
CHIEFARC-LNWT
1070
     0
  0
LWPOLYLINE
  5
7A
330
6F
100
AcDbEntity
  8
0
  6
CONTINUOUS
 62
    17
100
AcDbPolyline
 90
        3
 70
     1
 43
0.0
 10
0.9173177480697641
 20
2.848177313804626
 10
0.9333333969116211
 20
2.832031428813934
 10
0.9180989861488342
 20
2.830859541893005
1001
CHIEFARC-LNWT
1070
     0
  0
SOLID
  5
7B
330
6F
100
AcDbEntity
  8
0
  6
CONTINUOUS
 62
     7
100
AcDbTrace
 10
0.9847657084465036
 20
3.715625166893005
 30
0.0
 11
0.9847657084465036
 21
3.730859637260437
 31
0.0
 12
0.9847657084465036
 22
3.715625166893005
 32
0.0
 13
0.9990886449813843
 23
3.729948163032532
 33
0.0
1001
CHIEFARC-LNWT
1070
     0
  0
LWPOLYLINE
  5
7C
330
6F
100
AcDbEntity
  8
0
  6
CONTINUOUS
 62
    17
100
AcDbPolyline
 90
        3
 70
     1
 43
0.0
 10
0.9847657084465036
 20
3.730859637260437
 10
0.9990886449813843
 20
3.729948163032532
 10
0.9847657084465036
 20
3.715625166893005
1001
CHIEFARC-LNWT
1070
     0
  0
SOLID
  5
7D
330
6F
100
AcDbEntity
  8
0
  6
CONTINUOUS
 62
     7
100
AcDbTrace
 10
0.6180988550186157
 20
3.882291913032532
 30
0.0
 11
0.6180988550186157
 21
3.897526264190674
 31
0.0
 12
0.6180988550186157
 22
3.882291913032532
 32
0.0
 13
0.6311197280883789
 23
3.895312666893005
 33
0.0
1001
CHIEFARC-LNWT
1070
     0
  0
LWPOLYLINE
  5
7E
330
6F
100
AcDbEntity
  8
0
  6
CONTINUOUS
 62
    17
100
AcDbPolyline
 90
        3
 70
     1
 43
0.0
 10
0.6180988550186157
 20
3.897526264190674
 10
0.6311197280883789
 20
3.895312666893005
 10
0.6180988550186157
 20
3.882291913032532
1001
CHIEFARC-LNWT
1070
     0
  0
SOLID
  5
7F
330
6F
100
AcDbEntity
  8
0
  6
CONTINUOUS
 62
     7
100
AcDbTrace
 10
-1.148567676544189
 20
2.682291865348816
 30
0.0
 11
-1.148567676544189
 21
2.697526335716248
 31
0.0
 12
-1.148567676544189
 22
2.682291865348816
 32
0.0
 13
-1.136848807334899
 23
2.694010674953461
 33
0.0
1001
CHIEFARC-LNWT
1070
     0
  0
LWPOLYLINE
  5
80
330
6F
100
AcDbEntity
  8
0
  6
CONTINUOUS
 62
    17
100
AcDbPolyline
 90
        3
 70
     1
 43
0.0
 10
-1.148567676544189
 20
2.697526335716248
 10
-1.136848807334899
 20
2.694010674953461
 10
-1.148567676544189
 20
2.682291865348816
1001
CHIEFARC-LNWT
1070
     0
  0
SOLID
  5
81
330
6F
100
AcDbEntity
  8
0
  6
CONTINUOUS
 62
     7
100
AcDbTrace
 10
1.066666603088379
 20
0.7975262403488159
 30
0.0
 11
1.066666603088379
 21
0.8156251907348633
 31
0.0
 12
1.066666603088379
 22
0.7975262403488159
 32
0.0
 13
1.075650930404664
 23
0.8065105676651001
 33
0.0
1001
CHIEFARC-LNWT
1070
     0
  0
LWPOLYLINE
  5
82
330
6F
100
AcDbEntity
  8
0
  6
CONTINUOUS
 62
    17
100
AcDbPolyline
 90
        3
 70
     1
 43
0.0
 10
1.066666603088379
 20
0.8156251907348633
 10
1.075650930404664
 20
0.8065105676651001
 10
1.066666603088379
 20
0.7975262403488159
1001
CHIEFARC-LNWT
1070
     0
  0
SOLID
  5
83
330
6F
100
AcDbEntity
  8
0
  6
CONTINUOUS
 62
     7
100
AcDbTrace
 10
1.233333349227905
 20
0.6308594942092896
 30
0.0
 11
1.233333349227905
 21
0.6489584445953369
 31
0.0
 12
1.233333349227905
 22
0.6308594942092896
 32
0.0
 13
1.242317676544189
 23
0.6398438215255737
 33
0.0
1001
CHIEFARC-LNWT
1070
     0
  0
LWPOLYLINE
  5
84
330
6F
100
AcDbEntity
  8
0
  6
CONTINUOUS
 62
    17
100
AcDbPolyline
 90
        3
 70
     1
 43
0.0
 10
1.233333349227905
 20
0.6489584445953369
 10
1.242317676544189
 20
0.6398438215255737
 10
1.233333349227905
 20
0.6308594942092896
1001
CHIEFARC-LNWT
1070
     0
  0
SOLID
  5
85
330
6F
100
AcDbEntity
  8
0
  6
CONTINUOUS
 62
     7
100
AcDbTrace
 10
1.133333206176758
 20
3.630859613418579
 30
0.0
 11
1.142057180404663
 21
3.639583587646484
 31
0.0
 12
1.133333206176758
 22
3.630859613418579
 32
0.0
 13
1.151432275772095
 23
3.630859613418579
 33
0.0
1001
CHIEFARC-LNWT
1070
     0
  0
LWPOLYLINE
  5
86
330
6F
100
AcDbEntity
  8
0
  6
CONTINUOUS
 62
    17
100
AcDbPolyline
 90
        3
 70
     1
 43
0.0
 10
1.142057180404663
 20
3.639583587646484
 10
1.151432275772095
 20
3.630859613418579
 10
1.133333206176758
 20
3.630859613418579
1001
CHIEFARC-LNWT
1070
     0
  0
SOLID
  5
87
330
6F
100
AcDbEntity
  8
0
  6
CONTINUOUS
 62
     7
100
AcDbTrace
 10
1.051432371139527
 20
3.682291865348816
 30
0.0
 11
1.051432371139527
 21
3.697526216506958
 31
0.0
 12
1.051432371139527
 22
3.682291865348816
 32
0.0
 13
1.061588525772095
 23
3.692448139190674
 33
0.0
1001
CHIEFARC-LNWT
1070
     0
  0
LWPOLYLINE
  5
88
330
6F
100
AcDbEntity
  8
0
  6
CONTINUOUS
 62
    17
100
AcDbPolyline
 90
        3
 70
     1
 43
0.0
 10
1.051432371139527
 20
3.697526216506958
 10
1.061588525772095
 20
3.692448139190674
 10
1.051432371139527
 20
3.682291865348816
1001
CHIEFARC-LNWT
1070
     0
  0
SOLID
  5
89
330
6F
100
AcDbEntity
  8
0
  6
CONTINUOUS
 62
     7
100
AcDbTrace
 10
1.266666650772095
 20
3.530859708786011
 30
0.0
 11
1.274609327316284
 21
3.5388023853302
 31
0.0
 12
1.266666650772095
 22
3.530859708786011
 32
0.0
 13
1.283984303474427
 23
3.530859708786011
 33
0.0
1001
CHIEFARC-LNWT
1070
     0
  0
LWPOLYLINE
  5
8A
330
6F
100
AcDbEntity
  8
0
  6
CONTINUOUS
 62
    17
100
AcDbPolyline
 90
        3
 70
     1
 43
0.0
 10
1.274609327316284
 20
3.5388023853302
 10
1.283984303474427
 20
3.530859708786011
 10
1.266666650772095
 20
3.530859708786011
1001
CHIEFARC-LNWT
1070
     0
  0
SOLID
  5
8B
330
6F
100
AcDbEntity
  8
0
  6
CONTINUOUS
 62
     7
100
AcDbTrace
 10
-0.9373698234558105
 20
0.2308595180511475
 30
0.0
 11
-0.9333333969116211
 21
0.2641929388046265
 31
0.0
 12
-0.9373698234558105
 22
0.2308595180511475
 32
0.0
 13
-0.9333333969116211
 23
0.2308595180511475
 33
0.0
1001
CHIEFARC-LNWT
1070
     0
  0
LWPOLYLINE
  5
8C
330
6F
100
AcDbEntity
  8
0
  6
CONTINUOUS
 62
    17
100
AcDbPolyline
 90
        3
 70
     1
 43
0.0
 10
-0.9333333969116211
 20
0.2641929388046265
 10
-0.9333333969116211
 20
0.2308595180511475
 10
-0.9373698234558105
 20
0.2308595180511475
1001
CHIEFARC-LNWT
1070
     0
  0
SOLID
  5
8D
330
6F
100
AcDbEntity
  8
0
  6
CONTINUOUS
 62
     7
100
AcDbTrace
 10
-1.666666746139526
 20
0.8919274806976318
 30
0.0
 11
-1.666666746139526
 21
0.8975263833999634
 31
0.0
 12
-1.666666746139526
 22
0.8919274806976318
 32
0.0
 13
-1.648567795753479
 23
0.8975263833999634
 33
0.0
1001
CHIEFARC-LNWT
1070
     0
  0
LWPOLYLINE
  5
8E
330
6F
100
AcDbEntity
  8
0
  6
CONTINUOUS
 62
    17
100
AcDbPolyline
 90
        3
 70
     1
 43
0.0
 10
-1.666666746139526
 20
0.8975263833999634
 10
-1.648567795753479
 20
0.8975263833999634
 10
-1.666666746139526
 20
0.8919274806976318
1001
CHIEFARC-LNWT
1070
     0
  0
SOLID
  5
8F
330
6F
100
AcDbEntity
  8
0
  6
CONTINUOUS
 62
     7
100
AcDbTrace
 10
-1.50000011920929
 20
3.315625309944153
 30
0.0
 11
-1.50000011920929
 21
3.320312857627869
 31
0.0
 12
-1.50000011920929
 22
3.315625309944153
 32
0.0
 13
-1.481901168823242
 23
3.315625309944153
 33
0.0
1001
CHIEFARC-LNWT
1070
     0
  0
LWPOLYLINE
  5
90
330
6F
100
AcDbEntity
  8
0
  6
CONTINUOUS
 62
    17
100
AcDbPolyline
 90
        3
 70
     1
 43
0.0
 10
-1.50000011920929
 20
3.320312857627869
 10
-1.481901168823242
 20
3.315625309944153
 10
-1.50000011920929
 20
3.315625309944153
1001
CHIEFARC-LNWT
1070
     0
  0
SOLID
  5
91
330
6F
100
AcDbEntity
  8
0
  6
CONTINUOUS
 62
     7
100
AcDbTrace
 10
-1.600130081176757
 20
0.7973960638046265
 30
0.0
 11
-1.599999904632568
 21
0.8308595418930054
 31
0.0
 12
-1.581900954246521
 22
0.7975262403488159
 32
0.0
 13
-1.599999904632568
 23
0.7975262403488159
 33
0.0
1001
CHIEFARC-LNWT
1070
     0
  0
LWPOLYLINE
  5
92
330
6F
100
AcDbEntity
  8
0
  6
CONTINUOUS
 62
    17
100
AcDbPolyline
 90
        4
 70
     1
 43
0.0
 10
-1.599999904632568
 20
0.8308595418930054
 10
-1.599999904632568
 20
0.7975262403488159
 10
-1.581900954246521
 20
0.7975262403488159
 10
-1.600130081176757
 20
0.7973960638046265
1001
CHIEFARC-LNWT
1070
     0
  0
LWPOLYLINE
  5
93
330
6F
100
AcDbEntity
  8
0
  6
CONTINUOUS
 62
   178
100
AcDbPolyline
 90
        9
 70
     0
 43
0.0
 10
1.966015577316284
 20
2.364193022251129
 10
1.960807204246521
 20
2.391666948795319
 10
1.959505200386047
 20
2.397526323795319
 10
1.955078125
 20
2.41927108168602
 10
1.952473998069763
 20
2.430859625339508
 10
1.948828220367432
 20
2.446354418992996
 10
1.944921970367432
 20
2.464192986488342
 10
1.942578196525574
 20
2.473437756299973
 10
1.936588644981384
 20
2.497526288032532
1001
CHIEFARC-LNWT
1070
     0
  0
LWPOLYLINE
  5
94
330
6F
100
AcDbEntity
  8
0
  6
CONTINUOUS
 62
   178
100
AcDbPolyline
 90
        5
 70
     0
 43
0.0
 10
1.718098878860474
 20
0.9822916984558105
 10
1.712369799613953
 20
0.9641927480697632
 10
1.699999928474426
 20
0.9440106153488159
 10
1.691796898841858
 20
0.9308596849441528
 10
1.677213549613953
 20
0.9080733060836792
1001
CHIEFARC-LNWT
1070
     0
  0
LWPOLYLINE
  5
95
330
6F
100
AcDbEntity
  8
0
  6
CONTINUOUS
 62
   178
100
AcDbPolyline
 90
        3
 70
     0
 43
0.0
 10
1.584765553474426
 20
0.7822918891906738
 10
1.574348926544192
 20
0.764192938804631
 10
1.599999904632569
 20
0.7973960638046265
1001
CHIEFARC-LNWT
1070
     0
  0
LWPOLYLINE
  5
96
330
6F
100
AcDbEntity
  8
0
  6
CONTINUOUS
 62
   178
100
AcDbPolyline
 90
        9
 70
     0
 43
0.0
 10
1.684765577316284
 20
0.9308596849441528
 10
1.677213549613953
 20
0.9080733060836792
 10
1.670442819595337
 20
0.8975263833999634
 10
1.666666746139526
 20
0.8919274806976318
 10
1.647786498069763
 20
0.8641930818557739
 10
1.633333325386047
 20
0.8432294130325318
 10
1.624348878860474
 20
0.8308595418930054
 10
1.599999904632569
 20
0.7973960638046265
 10
1.618098855018616
 20
0.8308595418930054
1001
CHIEFARC-LNWT
1070
     0
  0
LWPOLYLINE
  5
97
330
6F
100
AcDbEntity
  8
0
  6
CONTINUOUS
 62
   178
100
AcDbPolyline
 90
        3
 70
     0
 43
0.0
 10
1.732161521911621
 20
0.9975261688232422
 10
1.730338573455811
 20
0.9945313930511475
 10
1.712369799613953
 20
0.9641927480697632
1001
CHIEFARC-LNWT
1070
     0
  0
LWPOLYLINE
  5
98
330
6F
100
AcDbEntity
  8
0
  6
CONTINUOUS
 62
   178
100
AcDbPolyline
 90
        3
 70
     0
 43
0.0
 10
1.699999928474426
 20
3.048958659172058
 10
1.684765577316284
 20
3.048958659172058
 10
1.699999928474426
 20
3.051041960716248
1001
CHIEFARC-LNWT
1070
     0
  0
LWPOLYLINE
  5
99
330
6F
100
AcDbEntity
  8
0
  6
CONTINUOUS
 62
   178
100
AcDbPolyline
 90
       27
 70
     0
 43
0.0
 10
1.666666746139526
 20
3.103125095367432
 10
1.655598998069763
 20
3.119791746139526
 10
1.647786498069763
 20
3.13085949420929
 10
1.642057299613953
 20
3.139583468437195
 10
1.633333325386047
 20
3.148958563804626
 10
1.618098855018616
 20
3.148958563804626
 10
1.633333325386047
 20
3.151823163032532
 10
1.642057299613953
 20
3.139583468437195
 10
1.633333325386047
 20
3.13085949420929
 10
1.633333325386047
 20
3.151823163032532
 10
1.628255128860474
 20
3.159114837646484
 10
1.624348878860474
 20
3.164193034172058
 10
1.614192605018616
 20
3.178385734558105
 10
1.599999904632569
 20
3.197656512260437
 10
1.584765553474426
 20
3.197526335716248
 10
1.584765553474426
 20
3.215625286102295
 10
1.599999904632569
 20
3.197656512260437
 10
1.585546851158142
 20
3.216406583786011
 10
1.574348926544197
 20
3.230859637260427
 10
1.570963501930291
 20
3.235156536102227
 10
1.566666603088379
 20
3.240625262260437
 10
1.556119799613953
 20
3.253646016120911
 10
1.547786474227904
 20
3.264192938804626
 10
1.541276097297668
 20
3.272135615348816
 10
1.533333420753478
 20
3.264192938804626
 10
1.533333420753478
 20
3.281510591506958
 10
1.518099069595337
 20
3.282291889190674
1001
CHIEFARC-LNWT
1070
     0
  0
LWPOLYLINE
  5
9A
330
6F
100
AcDbEntity
  8
0
  6
CONTINUOUS
 62
   178
100
AcDbPolyline
 90
        6
 70
     0
 43
0.0
 10
1.651432275772095
 20
3.115625143051147
 10
1.666666746139526
 20
3.103125095367432
 10
1.651432275772095
 20
3.0975261926651
 10
1.666666746139526
 20
3.0975261926651
 10
1.666666746139526
 20
3.103125095367432
 10
1.668880224227906
 20
3.099739789962769
1001
CHIEFARC-LNWT
1070
     0
  0
LWPOLYLINE
  5
9B
330
6F
100
AcDbEntity
  8
0
  6
CONTINUOUS
 62
   178
100
AcDbPolyline
 90
        9
 70
     0
 43
0.0
 10
1.732161521911621
 20
2.997526407241821
 10
1.720182299613953
 20
3.017708778381348
 10
1.712369799613953
 20
3.0308598279953
 10
1.707682251930237
 20
3.038542032241821
 10
1.699999928474426
 20
3.051041960716248
 10
1.694921851158142
 20
3.059114813804626
 10
1.691796898841858
 20
3.064192891120911
 10
1.681901097297668
 20
3.079427242279053
 10
1.670442819595337
 20
3.0975261926651
1001
CHIEFARC-LNWT
1070
     0
  0
LWPOLYLINE
  5
9C
330
6F
100
AcDbEntity
  8
0
  6
CONTINUOUS
 62
   178
100
AcDbPolyline
 90
       74
 70
     0
 43
0.0
 10
1.574348926544189
 20
0.7641929388046265
 10
1.566666603088379
 20
0.7544273138046265
 10
1.547786474227904
 20
0.730859637260437
 10
1.533333420753478
 20
0.7135419845581058
 10
1.519922018051146
 20
0.697526335716246
 10
1.5000001192093
 20
0.6747397184372069
 10
1.490755319595337
 20
0.664192795753479
 10
1.484765648841858
 20
0.6822918653488159
 10
1.484765648841858
 20
0.664192795753479
 10
1.490755319595337
 20
0.664192795753479
 10
1.466666698455811
 20
0.6460938453674316
 10
1.457682371139526
 20
0.6552084684371948
 10
1.448567748069764
 20
0.664192795753479
 10
1.441015720367432
 20
0.6718751192092896
 10
1.43333339691162
 20
0.6794272661209106
 10
1.424349069595337
 20
0.6885418891906738
 10
1.415234446525574
 20
0.6975263357162476
 10
1.407682418823242
 20
0.7052086591720581
 10
1.400000095367432
 20
0.7127606868743896
 10
1.391015768051147
 20
0.7218753099441528
 10
1.381901144981385
 20
0.7308596372604371
 10
1.374349117279056
 20
0.7385419607162443
 10
1.36666679382324
 20
0.7460939884185809
 10
1.357682466506957
 20
0.7552086114883432
 10
1.348567843437195
 20
0.7641929388046269
 10
1.341015815734862
 20
0.7718752622604372
 10
1.333333492279053
 20
0.7794272899627688
 10
1.32434904575348
 20
0.7885419130325318
 10
1.315234422683719
 20
0.7975262403488125
 10
1.307682275772093
 20
0.805208563804628
 10
1.299999952316283
 20
0.8127605915069589
 10
1.291015625
 20
0.8218752145767216
 10
1.281901001930237
 20
0.8308595418930056
 10
1.274348974227906
 20
0.8385418653488159
 10
1.266666650772095
 20
0.846094012260437
 10
1.257682323455811
 20
0.8552086353302002
 10
1.248567700386047
 20
0.8641930818557739
 10
1.241015672683716
 20
0.8718754053115845
 10
1.233333349227905
 20
0.879427433013916
 10
1.224349021911622
 20
0.8885420560836792
 10
1.215234398841858
 20
0.8975263833999634
 10
1.207682371139526
 20
0.9052087068557739
 10
1.200000047683715
 20
0.9127607345581055
 10
1.191015720367432
 20
0.9218753576278687
 10
1.181901097297668
 20
0.9308596849441528
 10
1.174349069595337
 20
0.9385418891906738
 10
1.166666746139527
 20
0.9460939168930054
 10
1.157682299613953
 20
0.955208420753479
 10
1.148567676544189
 20
0.9641927480697632
 10
1.141015529632567
 20
0.9718750715255737
 10
1.133333206176758
 20
0.9794272184371948
 10
1.124348878860475
 20
0.9885417222976685
 10
1.115234255790711
 20
0.9975261688232422
 10
1.10768222808838
 20
1.005208492279053
 10
1.099999904632569
 20
1.012760579586029
 10
1.091015577316284
 20
1.021875202655792
 10
1.081900954246521
 20
1.030859589576721
 10
1.074348926544189
 20
1.038541853427887
 10
1.066666603088379
 20
1.046093940734863
 10
1.057682275772096
 20
1.055208504199982
 10
1.048567771911621
 20
1.064192891120911
 10
1.04101574420929
 20
1.071875214576721
 10
1.033333539962769
 20
1.079427301883698
 10
1.024349093437195
 20
1.088541865348816
 10
1.015234589576721
 20
1.097526252269745
 10
1.007682442665099
 20
1.105208516120911
 10
1.00000011920929
 20
1.112760603427887
 10
0.9910157322883606
 20
1.121875166893005
 10
0.9819011092185983
 20
1.130859553813934
 10
0.9743490219116211
 20
1.138541877269745
 10
0.9666666984558114
 20
1.146094024181366
 10
0.9576823115348816
 20
1.155208647251129
 10
0.9333334871631491
 20
1.163021118293368
 10
0.8345051407814035
 20
1.064192771911621
1001
CHIEFARC-LNWT
1070
     0
  0
LWPOLYLINE
  5
9D
330
6F
100
AcDbEntity
  8
0
  6
CONTINUOUS
 62
   178
100
AcDbPolyline
 90
       58
 70
     0
 43
0.0
 10
0.9180989861488342
 20
2.830859541893005
 10
0.9514323472976685
 20
2.830859541893005
 10
0.9339844584465027
 20
2.831510603427887
 10
0.9666666984558114
 20
2.848958551883698
 10
0.9847657084465036
 20
2.848958551883698
 10
1.00000011920929
 20
2.864193022251129
 10
1.00000011920929
 20
2.882291972637177
 10
1.018099069595337
 20
2.882291972637177
 10
1.033333539962769
 20
2.897526323795319
 10
1.033333539962769
 20
2.915625274181366
 10
1.051432371139527
 20
2.915625274181366
 10
1.066666603088379
 20
2.930859684944153
 10
1.066666603088379
 20
2.9489586353302
 10
1.084765553474426
 20
2.9489586353302
 10
1.099999904632569
 20
2.964192986488342
 10
1.099999904632569
 20
2.982291996479034
 10
1.118098855018616
 20
2.982291996479034
 10
1.133333206176758
 20
2.997526407241821
 10
1.133333206176758
 20
3.015625357627869
 10
1.151432275772095
 20
3.015625357627869
 10
1.166666746139527
 20
3.0308598279953
 10
1.166666746139527
 20
3.048958659172058
 10
1.184765696525574
 20
3.048958659172058
 10
1.200000047683715
 20
3.064192891120911
 10
1.200000047683715
 20
3.082291841506958
 10
1.218098998069763
 20
3.082291841506958
 10
1.233333349227905
 20
3.0975261926651
 10
1.233333349227905
 20
3.115625143051147
 10
1.251432299613953
 20
3.115625143051147
 10
1.266666650772095
 20
3.13085949420929
 10
1.266666650772095
 20
3.148958563804626
 10
1.284765601158143
 20
3.148958563804626
 10
1.299999952316284
 20
3.164193034172058
 10
1.299999952316284
 20
3.182291984558105
 10
1.318099021911621
 20
3.182291984558105
 10
1.333333492279053
 20
3.197526335716248
 10
1.333333492279053
 20
3.215625286102295
 10
1.3514324426651
 20
3.215625286102295
 10
1.366666793823242
 20
3.230859637260437
 10
1.366666793823242
 20
3.248958587646484
 10
1.38476574420929
 20
3.248958587646484
 10
1.400000095367432
 20
3.264192938804626
 10
1.400000095367432
 20
3.282291889190674
 10
1.418099045753479
 20
3.282291889190674
 10
1.43333339691162
 20
3.297526240348816
 10
1.43333339691162
 20
3.315625309944153
 10
1.451432347297668
 20
3.315625309944153
 10
1.466666698455811
 20
3.330859780311584
 10
1.466666698455811
 20
3.348958730697632
 10
1.479296922683716
 20
3.34349000453949
 10
1.490755319595337
 20
3.330859780311584
 10
1.495182394981385
 20
3.326042056083679
 10
1.50000011920929
 20
3.320312857627869
 10
1.510547041893006
 20
3.308073163032532
 10
1.519922018051147
 20
3.297526240348816
 10
1.526171922683717
 20
3.290364742279053
 10
1.533333420753478
 20
3.281510591506958
 10
1.541276097297668
 20
3.272135615348816
1001
CHIEFARC-LNWT
1070
     0
  0
LWPOLYLINE
  5
9E
330
6F
100
AcDbEntity
  8
0
  6
CONTINUOUS
 62
   178
100
AcDbPolyline
 90
       15
 70
     0
 43
0.0
 10
1.102213501930237
 20
3.666406512260437
 10
1.1055988073349
 20
3.664193034172058
 10
1.122265458106995
 20
3.653125286102295
 10
1.133333206176758
 20
3.645312786102295
 10
1.142057180404663
 20
3.639583587646484
 10
1.154296875
 20
3.630859613418579
 10
1.161588549613953
 20
3.625781416893005
 10
1.166666746139527
 20
3.621875166893005
 10
1.180859446525574
 20
3.611718893051147
 10
1.200000047683715
 20
3.59765636920929
 10
1.218880295753479
 20
3.583073139190674
 10
1.233333349227905
 20
3.571875214576721
 10
1.233333349227905
 20
3.564192891120911
 10
1.218098998069763
 20
3.564192891120911
 10
1.233333349227905
 20
3.571875214576721
1001
CHIEFARC-LNWT
1070
     0
  0
LWPOLYLINE
  5
9F
330
6F
100
AcDbEntity
  8
0
  6
CONTINUOUS
 62
   178
100
AcDbPolyline
 90
       59
 70
     0
 43
0.0
 10
0.8345051407814035
 20
2.930859684944153
 10
0.8506510257720956
 20
2.914844036102295
 10
0.8333332538604736
 20
2.930859684944153
 10
0.8333332538604736
 20
2.964192986488342
 10
0.8339843153953543
 20
2.931510746479034
 10
0.8514322638511649
 20
2.964192986488342
 10
0.8514322638511649
 20
2.982291996479034
 10
0.8666667342185974
 20
2.997526407241821
 10
0.8847656846046457
 20
2.997526407241821
 10
0.8847656846046457
 20
3.015625357627869
 10
0.9000000357627878
 20
3.0308598279953
 10
0.9180989861488342
 20
3.0308598279953
 10
0.9180989861488342
 20
3.048958659172058
 10
0.9333333969116211
 20
3.064192891120911
 10
0.9514323472976685
 20
3.064192891120911
 10
0.9514323472976685
 20
3.082291841506958
 10
0.9666666984558114
 20
3.0975261926651
 10
0.9847657084465036
 20
3.0975261926651
 10
0.9847657084465036
 20
3.115625143051147
 10
1.00000011920929
 20
3.13085949420929
 10
1.018099069595337
 20
3.13085949420929
 10
1.018099069595337
 20
3.148958563804626
 10
1.033333539962769
 20
3.164193034172058
 10
1.051432371139527
 20
3.164193034172058
 10
1.051432371139527
 20
3.182291984558105
 10
1.066666603088379
 20
3.197526335716248
 10
1.084765553474426
 20
3.197526335716248
 10
1.084765553474426
 20
3.215625286102295
 10
1.099999904632569
 20
3.230859637260437
 10
1.118098855018616
 20
3.230859637260437
 10
1.118098855018616
 20
3.248958587646484
 10
1.133333206176758
 20
3.264192938804626
 10
1.151432275772095
 20
3.264192938804626
 10
1.151432275772095
 20
3.282291889190674
 10
1.166666746139527
 20
3.297526240348816
 10
1.184765696525574
 20
3.297526240348816
 10
1.184765696525574
 20
3.315625309944153
 10
1.200000047683715
 20
3.330859780311584
 10
1.218098998069763
 20
3.330859780311584
 10
1.218098998069763
 20
3.348958730697632
 10
1.233333349227905
 20
3.364193081855774
 10
1.251432299613953
 20
3.364193081855774
 10
1.251432299613953
 20
3.382292032241821
 10
1.266666650772095
 20
3.397526383399963
 10
1.284765601158143
 20
3.397526383399963
 10
1.284765601158143
 20
3.415625333786011
 10
1.299999952316284
 20
3.430859684944153
 10
1.318099021911621
 20
3.430859684944153
 10
1.318099021911621
 20
3.4489586353302
 10
1.333333492279053
 20
3.464192986488342
 10
1.3514324426651
 20
3.464192986488342
 10
1.345963716506959
 20
3.476823210716248
 10
1.333333492279053
 20
3.488281607627869
 10
1.328515768051148
 20
3.492708683013916
 10
1.322786569595337
 20
3.497526407241821
 10
1.310546874999999
 20
3.508073329925537
 10
1.299999952316296
 20
3.517448306083669
 10
1.292838454246522
 20
3.523698210716248
 10
1.283984303474427
 20
3.530859708786011
1001
CHIEFARC-LNWT
1070
     0
  0
LWPOLYLINE
  5
A0
330
6F
100
AcDbEntity
  8
0
  6
CONTINUOUS
 62
   178
100
AcDbPolyline
 90
       14
 70
     0
 43
0.0
 10
1.935807466506958
 20
2.500000238418579
 10
1.933333516120896
 20
2.509635686874443
 10
1.928776144981383
 20
2.526302456855781
 10
1.927474141120914
 20
2.530859768390642
 10
1.92148447036743
 20
2.552344024181375
 10
1.918099045753481
 20
2.564192950725548
 10
1.913932323455815
 20
2.578125178813925
 10
1.907942771911622
 20
2.597526192665098
 10
1.905859351158143
 20
2.603385567665101
 10
1.899999976158142
 20
2.622135579586029
 10
1.899999976158142
 20
2.615625143051147
 10
1.884765625
 20
2.615625143051147
 10
1.899999976158142
 20
2.622135579586029
 10
1.897786378860475
 20
2.628646016120911
1001
CHIEFARC-LNWT
1070
     0
  0
LWPOLYLINE
  5
A1
330
6F
100
AcDbEntity
  8
0
  6
CONTINUOUS
 62
   178
100
AcDbPolyline
 90
        7
 70
     0
 43
0.0
 10
1.218098998069763
 20
3.582291841506958
 10
1.233333349227905
 20
3.571875214576721
 10
1.237630248069763
 20
3.568489789962769
 10
1.243098974227905
 20
3.564192891120911
 10
1.256119728088379
 20
3.553646087646484
 10
1.266666650772095
 20
3.545312762260437
 10
1.266666650772095
 20
3.530859708786011
1001
CHIEFARC-LNWT
1070
     0
  0
LWPOLYLINE
  5
A2
330
6F
100
AcDbEntity
  8
0
  6
CONTINUOUS
 62
   178
100
AcDbPolyline
 90
        3
 70
     0
 43
0.0
 10
1.274609327316284
 20
3.5388023853302
 10
1.266666650772095
 20
3.545312762260437
 10
1.251432299613953
 20
3.548958539962769
1001
CHIEFARC-LNWT
1070
     0
  0
LWPOLYLINE
  5
A3
330
6F
100
AcDbEntity
  8
0
  6
CONTINUOUS
 62
   178
100
AcDbPolyline
 90
        4
 70
     0
 43
0.0
 10
1.284765601158143
 20
0.5975261926651001
 10
1.275650978088379
 20
0.6065105199813843
 10
1.266666650772095
 20
0.6156251430511475
 10
1.251432299613953
 20
0.6156251430511475
1001
CHIEFARC-LNWT
1070
     0
  0
LWPOLYLINE
  5
A4
330
6F
100
AcDbEntity
  8
0
  6
CONTINUOUS
 62
   178
100
AcDbPolyline
 90
        3
 70
     0
 43
0.0
 10
1.284765601158143
 20
0.582291841506958
 10
1.299999952316284
 20
0.582291841506958
 10
1.299999952316284
 20
0.5641928911209106
1001
CHIEFARC-LNWT
1070
     0
  0
LWPOLYLINE
  5
A5
330
6F
100
AcDbEntity
  8
0
  6
CONTINUOUS
 62
   178
100
AcDbPolyline
 90
        4
 70
     0
 43
0.0
 10
1.25
 20
2.064192891120911
 10
1.266666650772095
 20
2.078906416893005
 10
1.966666579246521
 20
2.078906416893005
 10
1.997526288032532
 20
2.0975261926651
1001
CHIEFARC-LNWT
1070
     0
  0
LWPOLYLINE
  5
A6
330
6F
100
AcDbEntity
  8
0
  6
CONTINUOUS
 62
   178
100
AcDbPolyline
 90
       13
 70
     0
 43
0.0
 10
1.251432299613953
 20
0.6308594942092896
 10
1.258984327316285
 20
0.623177170753479
 10
1.266666650772095
 20
0.6156251430511475
 10
1.266666650772095
 20
0.5975261926651001
 10
1.284765601158143
 20
0.5975261926651001
 10
1.292317628860473
 20
0.5898438692092896
 10
1.299999952316313
 20
0.5822918415069298
 10
1.308984398841859
 20
0.5731772184371948
 10
1.299999952316284
 20
0.5641928911209106
 10
1.318099021911621
 20
0.5641928911209106
 10
1.325651168823241
 20
0.5565105676651001
 10
1.333333492279053
 20
0.5489585399627686
 10
1.342317819595336
 20
0.5398439168930054
1001
CHIEFARC-LNWT
1070
     0
  0
LWPOLYLINE
  5
A7
330
6F
100
AcDbEntity
  8
0
  6
CONTINUOUS
 62
   178
100
AcDbPolyline
 90
       11
 70
     0
 43
0.0
 10
1.166666746139526
 20
0.6975263357162476
 10
1.175651073455811
 20
0.7065106630325317
 10
1.184765696525574
 20
0.6975263357162476
 10
1.192317724227905
 20
0.689844012260437
 10
1.200000047683772
 20
0.6822918653487595
 10
1.208984375000001
 20
0.6731772422790527
 10
1.200000047683717
 20
0.664192795753479
 10
1.218098998069763
 20
0.664192795753479
 10
1.22565102577199
 20
0.6565104722977723
 10
1.233333349227905
 20
0.6489584445953369
 10
1.218098998069763
 20
0.6489584445953369
1001
CHIEFARC-LNWT
1070
     0
  0
LWPOLYLINE
  5
A8
330
6F
100
AcDbEntity
  8
0
  6
CONTINUOUS
 62
   178
100
AcDbPolyline
 90
       12
 70
     0
 43
0.0
 10
1.284765601158143
 20
0.4822918176651001
 10
1.283984303474427
 20
0.4641928672790527
 10
1.299999952316284
 20
0.4776042699813843
 10
1.322786569595337
 20
0.4975261688232422
 10
1.318099021911621
 20
0.4975261688232422
 10
1.318099021911621
 20
0.5156251192092896
 10
1.322786569595337
 20
0.4975261688232422
 10
1.333333492279053
 20
0.5067709684371948
 10
1.3514324426651
 20
0.5308595895767212
 10
1.333333492279053
 20
0.5308595895767212
 10
1.333333492279053
 20
0.5489585399627686
 10
1.318099021911621
 20
0.5489585399627686
1001
CHIEFARC-LNWT
1070
     0
  0
LWPOLYLINE
  5
A9
330
6F
100
AcDbEntity
  8
0
  6
CONTINUOUS
 62
   178
100
AcDbPolyline
 90
        3
 70
     0
 43
0.0
 10
1.3514324426651
 20
0.5308595895767212
 10
1.342317819595337
 20
0.5398439168930054
 10
1.333333492279054
 20
0.5308595895767212
1001
CHIEFARC-LNWT
1070
     0
  0
LWPOLYLINE
  5
AA
330
6F
100
AcDbEntity
  8
0
  6
CONTINUOUS
 62
   178
100
AcDbPolyline
 90
        3
 70
     0
 43
0.0
 10
1.242317676544189
 20
0.6398438215255737
 10
1.251432299613953
 20
0.6308594942092896
 10
1.233333349227905
 20
0.6308594942092896
1001
CHIEFARC-LNWT
1070
     0
  0
LWPOLYLINE
  5
AB
330
6F
100
AcDbEntity
  8
0
  6
CONTINUOUS
 62
   178
100
AcDbPolyline
 90
        4
 70
     0
 43
0.0
 10
1.283984303474427
 20
0.4641928672790527
 10
1.266666650772095
 20
0.4497398138046265
 10
1.243098974227905
 20
0.4308596849441528
 10
1.251432299613953
 20
0.4489585161209106
1001
CHIEFARC-LNWT
1070
     0
  0
LWPOLYLINE
  5
AC
330
6F
100
AcDbEntity
  8
0
  6
CONTINUOUS
 62
   178
100
AcDbPolyline
 90
        5
 70
     0
 43
0.0
 10
1.154296875
 20
0.3641929626464844
 10
1.166666746139527
 20
0.3731774091720581
 10
1.199869871139527
 20
0.3973962068557739
 10
1.233333349227905
 20
0.4231773614883423
 10
1.243098974227905
 20
0.4308596849441528
1001
CHIEFARC-LNWT
1070
     0
  0
LWPOLYLINE
  5
AD
330
6F
100
AcDbEntity
  8
0
  6
CONTINUOUS
 62
   178
100
AcDbPolyline
 90
        4
 70
     0
 43
0.0
 10
1.018099069595337
 20
3.715625166893005
 10
1.033333539962769
 20
3.709896087646484
 10
1.020182490348816
 20
3.717708587646484
 10
1.00000011920929
 20
3.729687809944153
1001
CHIEFARC-LNWT
1070
     0
  0
LWPOLYLINE
  5
AE
330
6F
100
AcDbEntity
  8
0
  6
CONTINUOUS
 62
   178
100
AcDbPolyline
 90
        7
 70
     0
 43
0.0
 10
1.033333539962769
 20
3.709896087646484
 10
1.04101574420929
 20
3.705208539962769
 10
1.053515672683716
 20
3.697526216506958
 10
1.061588525772095
 20
3.692448139190674
 10
1.066666603088379
 20
3.68932318687439
 10
1.081900954246521
 20
3.6794273853302
 10
1.099999904632569
 20
3.667969107627869
1001
CHIEFARC-LNWT
1070
     0
  0
LWPOLYLINE
  5
AF
330
6F
100
AcDbEntity
  8
0
  6
CONTINUOUS
 62
   178
100
AcDbPolyline
 90
       27
 70
     0
 43
0.0
 10
1.997526288032532
 20
1.897526383399963
 10
1.985286593437196
 20
1.916146159172058
 10
1.251953125
 20
1.916146159172058
 10
1.25
 20
1.930859684944153
 10
1.25
 20
2.064192891120911
 10
1.251432299613953
 20
2.082291834056377
 10
1.266666650772095
 20
2.0975261926651
 10
1.997526288032532
 20
2.0975261926651
 10
1.995703339576721
 20
2.126562625169754
 10
1.995442867279054
 20
2.13085949420929
 10
1.993619918823241
 20
2.157812684774399
 10
1.993099093437195
 20
2.164192914962769
 10
1.990755319595337
 20
2.188281521201134
 10
1.989974141120911
 20
2.197526335716248
 10
1.987630367279053
 20
2.218489855527878
 10
1.98632824420929
 20
2.230859637260437
 10
1.984244823455811
 20
2.248437732458115
 10
1.982161521911621
 20
2.264192938804626
 10
1.980338573455811
 20
2.277864813804631
 10
1.977473974227905
 20
2.297526299953459
 10
1.975911498069765
 20
2.306771069765079
 10
1.972005128860472
 20
2.330859541893016
 10
1.971223950386047
 20
2.335416853427892
 10
1.966666579246521
 20
2.361198216676712
 10
1.966666579246521
 20
2.34895858168602
 10
1.951432347297669
 20
2.34895858168602
 10
1.966666579246521
 20
2.361198216676712
1001
CHIEFARC-LNWT
1070
     0
  0
LWPOLYLINE
  5
B0
330
6F
100
AcDbEntity
  8
0
  6
CONTINUOUS
 62
   178
100
AcDbPolyline
 90
        3
 70
     0
 43
0.0
 10
1.466666698455811
 20
3.348958492279053
 10
0.9666663814763236
 20
2.848958175299565
 10
0.9514323472976685
 20
2.830859541893005
1001
CHIEFARC-LNWT
1070
     0
  0
LWPOLYLINE
  5
B1
330
6F
100
AcDbEntity
  8
0
  6
CONTINUOUS
 62
   178
100
AcDbPolyline
 90
        6
 70
     0
 43
0.0
 10
1.784765601158142
 20
1.097526252269745
 10
1.771224021911621
 20
1.068750202655792
 10
1.768880248069763
 20
1.064192891120911
 10
1.766666769981384
 20
1.060156464576721
 10
1.750911474227905
 20
1.030859589576721
 10
1.751432299613953
 20
1.048958539962769
1001
CHIEFARC-LNWT
1070
     0
  0
LWPOLYLINE
  5
B2
330
6F
100
AcDbEntity
  8
0
  6
CONTINUOUS
 62
   178
100
AcDbPolyline
 90
        3
 70
     0
 43
0.0
 10
1.200000047683715
 20
0.664192795753479
 10
1.200000047683715
 20
0.6822918653488159
 10
1.184765696525574
 20
0.6822918653488159
1001
CHIEFARC-LNWT
1070
     0
  0
LWPOLYLINE
  5
B3
330
6F
100
AcDbEntity
  8
0
  6
CONTINUOUS
 62
   178
100
AcDbPolyline
 90
        6
 70
     0
 43
0.0
 10
1.118098855018616
 20
0.7641929388046265
 10
1.125650882720947
 20
0.7565106153488159
 10
1.133333206176758
 20
0.7489585876464844
 10
1.142317652702332
 20
0.7398439645767216
 10
1.133333206176758
 20
0.730859637260437
 10
1.151432275772095
 20
0.730859637260437
1001
CHIEFARC-LNWT
1070
     0
  0
LWPOLYLINE
  5
B4
330
6F
100
AcDbEntity
  8
0
  6
CONTINUOUS
 62
   178
100
AcDbPolyline
 90
        5
 70
     0
 43
0.0
 10
1.084765553474426
 20
0.7822918891906738
 10
1.099999904632569
 20
0.7822918891906738
 10
1.092317581176758
 20
0.7898439168930054
 10
1.084765553474426
 20
0.7975262403488159
 10
1.066666603088379
 20
0.7975262403488159
1001
CHIEFARC-LNWT
1070
     0
  0
LWPOLYLINE
  5
B5
330
6F
100
AcDbEntity
  8
0
  6
CONTINUOUS
 62
   178
100
AcDbPolyline
 90
        6
 70
     0
 43
0.0
 10
1.099999904632569
 20
0.7641929388046265
 10
1.099999904632569
 20
0.7822918891906738
 10
1.108984231948853
 20
0.7731772661209106
 10
1.118098855018616
 20
0.7641929388046265
 10
1.099999904632569
 20
0.7641929388046265
 10
1.108984231948853
 20
0.7731772661209106
1001
CHIEFARC-LNWT
1070
     0
  0
LWPOLYLINE
  5
B6
330
6F
100
AcDbEntity
  8
0
  6
CONTINUOUS
 62
   178
100
AcDbPolyline
 90
        3
 70
     0
 43
0.0
 10
1.053515672683716
 20
0.2975263595581055
 10
1.051432371139527
 20
0.3156251907348633
 10
1.051432371139527
 20
0.2975263595581055
1001
CHIEFARC-LNWT
1070
     0
  0
LWPOLYLINE
  5
B7
330
6F
100
AcDbEntity
  8
0
  6
CONTINUOUS
 62
   178
100
AcDbPolyline
 90
        5
 70
     0
 43
0.0
 10
1.17565107345581
 20
0.7065106630325317
 10
1.166666746139527
 20
0.7156252861022949
 10
1.158984422683717
 20
0.7231773138046265
 10
1.151432275772095
 20
0.730859637260437
 10
1.142317652702332
 20
0.7398439645767212
1001
CHIEFARC-LNWT
1070
     0
  0
LWPOLYLINE
  5
B8
330
6F
100
AcDbEntity
  8
0
  6
CONTINUOUS
 62
   178
100
AcDbPolyline
 90
        7
 70
     0
 43
0.0
 10
1.832682251930237
 20
1.196875214576721
 10
1.818098902702332
 20
1.164193034172058
 10
1.804817676544189
 20
1.13567727804184
 10
1.802473902702332
 20
1.130859553813934
 10
1.799999952316284
 20
1.125781416893005
 10
1.786067724227964
 20
1.097526252269862
 10
1.771224021911621
 20
1.068750202655792
1001
CHIEFARC-LNWT
1070
     0
  0
LWPOLYLINE
  5
B9
330
6F
100
AcDbEntity
  8
0
  6
CONTINUOUS
 62
   178
100
AcDbPolyline
 90
        4
 70
     0
 43
0.0
 10
1.184765696525574
 20
0.6975263357162476
 10
1.166666746139527
 20
0.6975263357162476
 10
1.166666746139527
 20
0.7156252861022949
 10
1.151432275772095
 20
0.7156252861022949
1001
CHIEFARC-LNWT
1070
     0
  0
LWPOLYLINE
  5
BA
330
6F
100
AcDbEntity
  8
0
  6
CONTINUOUS
 62
   178
100
AcDbPolyline
 90
        8
 70
     0
 43
0.0
 10
1.018099069595337
 20
0.8641930818557739
 10
1.025651216506959
 20
0.8565107583999634
 10
1.033333539962769
 20
0.8489586114883423
 10
1.033333539962769
 20
0.8308595418930054
 10
1.051432371139528
 20
0.8308595418930054
 10
1.058984398841858
 20
0.8231772184371948
 10
1.066666603088379
 20
0.8156251907348633
 10
1.051432371139527
 20
0.8156251907348633
1001
CHIEFARC-LNWT
1070
     0
  0
LWPOLYLINE
  5
BB
330
6F
100
AcDbEntity
  8
0
  6
CONTINUOUS
 62
   178
100
AcDbPolyline
 90
       12
 70
     0
 43
0.0
 10
1.151432275772095
 20
0.3641929626464844
 10
1.151432275772095
 20
0.3822919130325317
 10
1.154296875
 20
0.3641929626464844
 10
1.133333206176758
 20
0.3497397899627684
 10
1.105598807334893
 20
0.3308595418930009
 10
1.099999904632569
 20
0.3270834684371949
 10
1.08945298194887
 20
0.3203127384185898
 10
1.066666603088379
 20
0.3057293891906738
 10
1.053515672683716
 20
0.2975263595581055
 10
1.033333539962769
 20
0.2851564884185791
 10
1.002994894981384
 20
0.2671877145767212
 10
1.00000011920929
 20
0.2653647661209106
1001
CHIEFARC-LNWT
1070
     0
  0
LWPOLYLINE
  5
BC
330
6F
100
AcDbEntity
  8
0
  6
CONTINUOUS
 62
   178
100
AcDbPolyline
 90
        3
 70
     0
 43
0.0
 10
1.133333206176758
 20
0.730859637260437
 10
1.133333206176758
 20
0.7489585876464844
 10
1.118098855018616
 20
0.7489585876464844
1001
CHIEFARC-LNWT
1070
     0
  0
LWPOLYLINE
  5
BD
330
6F
100
AcDbEntity
  8
0
  6
CONTINUOUS
 62
   178
100
AcDbPolyline
 90
        4
 70
     0
 43
0.0
 10
1.051432371139527
 20
0.8308595418930054
 10
1.042317867279053
 20
0.8398439884185791
 10
1.033333539962769
 20
0.8489586114883423
 10
1.018099069595337
 20
0.8489586114883423
1001
CHIEFARC-LNWT
1070
     0
  0
LWPOLYLINE
  5
BE
330
6F
100
AcDbEntity
  8
0
  6
CONTINUOUS
 62
   178
100
AcDbPolyline
 90
        6
 70
     0
 43
0.0
 10
1.00000011920929
 20
0.8641930818557739
 10
1.008984565734864
 20
0.8731774091720581
 10
1.018099069595337
 20
0.8641930818557739
 10
1.00000011920929
 20
0.8641930818557739
 10
1.00000011920929
 20
0.8822920322418204
 10
1.008984565734864
 20
0.8731774091720581
1001
CHIEFARC-LNWT
1070
     0
  0
LWPOLYLINE
  5
BF
330
6F
100
AcDbEntity
  8
0
  6
CONTINUOUS
 62
   178
100
AcDbPolyline
 90
        6
 70
     0
 43
0.0
 10
0.9756510853767395
 20
0.9065107107162476
 10
0.9847657084465036
 20
0.8975263833999634
 10
0.9666666984558114
 20
0.8975263833999634
 10
0.9756510853767395
 20
0.9065107107162476
 10
0.9666666984558114
 20
0.9156253337860107
 10
0.9514323472976685
 20
0.9156253337860107
1001
CHIEFARC-LNWT
1070
     0
  0
LWPOLYLINE
  5
C0
330
6F
100
AcDbEntity
  8
0
  6
CONTINUOUS
 62
   178
100
AcDbPolyline
 90
       12
 70
     0
 43
0.0
 10
0.8847656846046448
 20
0.9975261688232422
 10
0.8923177719116211
 20
0.9898438453674316
 10
0.9000000357627878
 20
0.9822916984558105
 10
0.9000000357627878
 20
0.9641927480697632
 10
0.9180989861488342
 20
0.9641927480697632
 10
0.9256510734558105
 20
0.9565105438232422
 10
0.9333333969116211
 20
0.9489585161209106
 10
0.9423177838325805
 20
0.9398440122604061
 10
0.9514323472976686
 20
0.9308596849441527
 10
0.9589844346046448
 20
0.9231773614883423
 10
0.9666666984558114
 20
0.9156253337860107
 10
0.9666666984558114
 20
0.8975263833999634
1001
CHIEFARC-LNWT
1070
     0
  0
LWPOLYLINE
  5
C1
330
6F
100
AcDbEntity
  8
0
  6
CONTINUOUS
 62
   178
100
AcDbPolyline
 90
        6
 70
     0
 43
0.0
 10
0.8006510734558114
 20
0.1648440361022949
 10
0.8333332538604735
 20
0.1794273853302001
 10
0.8618490099906919
 20
0.1927086114883422
 10
0.8666667342185974
 20
0.1950523853302002
 10
0.8717448711395264
 20
0.1975263357162476
 10
0.8847656846046457
 20
0.2156251668930054
1001
CHIEFARC-LNWT
1070
     0
  0
LWPOLYLINE
  5
C2
330
6F
100
AcDbEntity
  8
0
  6
CONTINUOUS
 62
   178
100
AcDbPolyline
 90
        4
 70
     0
 43
0.0
 10
0.9847657084465036
 20
0.8975263833999634
 10
0.9923177957534781
 20
0.8898440599441528
 10
1.00000011920929
 20
0.8822920322418213
 10
0.9847657084465036
 20
0.8822920322418213
1001
CHIEFARC-LNWT
1070
     0
  0
LWPOLYLINE
  5
C3
330
6F
100
AcDbEntity
  8
0
  6
CONTINUOUS
 62
   178
100
AcDbPolyline
 90
        3
 70
     0
 43
0.0
 10
0.9977865815162659
 20
0.2641929388046265
 10
0.9666666984558114
 20
0.2466148138046265
 10
0.9373698234558105
 20
0.2308595180511475
1001
CHIEFARC-LNWT
1070
     0
  0
LWPOLYLINE
  5
C4
330
6F
100
AcDbEntity
  8
0
  6
CONTINUOUS
 62
   178
100
AcDbPolyline
 90
        6
 70
     0
 43
0.0
 10
0.8717448711395264
 20
0.1975263357162476
 10
0.9000000357627878
 20
0.2114585638046265
 10
0.9287760853767393
 20
0.2263022661209101
 10
0.9333333969116215
 20
0.2286460399627688
 10
0.9373698234558105
 20
0.2308595180511475
 10
0.9514323472976685
 20
0.2489584684371948
1001
CHIEFARC-LNWT
1070
     0
  0
LWPOLYLINE
  5
C5
330
6F
100
AcDbEntity
  8
0
  6
CONTINUOUS
 62
   178
100
AcDbPolyline
 90
        4
 70
     0
 43
0.0
 10
0.8180989027023315
 20
3.815625190734863
 10
0.8333332538604736
 20
3.815625190734863
 10
0.845703125
 20
3.809895992279053
 10
0.8666667342185974
 20
3.800000190734863
1001
CHIEFARC-LNWT
1070
     0
  0
LWPOLYLINE
  5
C6
330
6F
100
AcDbEntity
  8
0
  6
CONTINUOUS
 62
   178
100
AcDbPolyline
 90
        3
 70
     0
 43
0.0
 10
0.9666666984558114
 20
3.748437762260437
 10
0.9779948592185974
 20
3.742187738418579
 10
0.9977865815162659
 20
3.730859637260437
1001
CHIEFARC-LNWT
1070
     0
  0
LWPOLYLINE
  5
C7
330
6F
100
AcDbEntity
  8
0
  6
CONTINUOUS
 62
   178
100
AcDbPolyline
 90
        6
 70
     0
 43
0.0
 10
0.8683594465255737
 20
3.799218893051147
 10
0.8717448711395264
 20
3.797526240348816
 10
0.890755236148835
 20
3.788281440734863
 10
0.900000035762759
 20
3.783594012260452
 10
0.9128906726837082
 20
3.777083635330204
 10
0.9333333969116211
 20
3.766406536102295
1001
CHIEFARC-LNWT
1070
     0
  0
LWPOLYLINE
  5
C8
330
6F
100
AcDbEntity
  8
0
  6
CONTINUOUS
 62
   178
100
AcDbPolyline
 90
        5
 70
     0
 43
0.0
 10
0.9347656965255746
 20
3.765625357627869
 10
0.9373698234558105
 20
3.764193058013916
 10
0.9563802480697641
 20
3.753906607627869
 10
0.9666666984558114
 20
3.748437762260437
 10
0.9514323472976685
 20
3.748958587646484
1001
CHIEFARC-LNWT
1070
     0
  0
LWPOLYLINE
  5
C9
330
6F
100
AcDbEntity
  8
0
  6
CONTINUOUS
 62
   178
100
AcDbPolyline
 90
        6
 70
     0
 43
0.0
 10
1.768880248069763
 20
2.930859684944153
 10
1.779557347297669
 20
2.910416960716248
 10
1.786067724227906
 20
2.897526323795319
 10
1.790755152702332
 20
2.888281524181366
 10
1.799999952316284
 20
2.869271159172058
 10
1.801692605018617
 20
2.865885734558105
1001
CHIEFARC-LNWT
1070
     0
  0
LWPOLYLINE
  5
CA
330
6F
100
AcDbEntity
  8
0
  6
CONTINUOUS
 62
   178
100
AcDbPolyline
 90
        6
 70
     0
 43
0.0
 10
0.8333332538604736
 20
3.815625190734863
 10
0.8227863907814017
 20
3.82031261920929
 10
0.7998697757720956
 20
3.830729365348816
 10
0.7847656607627869
 20
3.830859541893005
 10
0.7847656607627869
 20
3.815625190734863
 10
0.7998697757720956
 20
3.830729365348816
1001
CHIEFARC-LNWT
1070
     0
  0
LWPOLYLINE
  5
CB
330
6F
100
AcDbEntity
  8
0
  6
CONTINUOUS
 62
   178
100
AcDbPolyline
 90
        4
 70
     0
 43
0.0
 10
0.9180989861488342
 20
0.9489585161209106
 10
0.9333333969116211
 20
0.9489585161209106
 10
0.9333333969116211
 20
0.9308596849441528
 10
0.9514323472976685
 20
0.9308596849441528
1001
CHIEFARC-LNWT
1070
     0
  0
LWPOLYLINE
  5
CC
330
6F
100
AcDbEntity
  8
0
  6
CONTINUOUS
 62
   178
100
AcDbPolyline
 90
        4
 70
     0
 43
0.0
 10
0.8847656846046457
 20
0.9822916984558105
 10
0.9000000357627878
 20
0.9822916984558105
 10
0.9089844226837158
 20
0.9731771945953369
 10
0.9180989861488342
 20
0.9641927480697632
1001
CHIEFARC-LNWT
1070
     0
  0
LWPOLYLINE
  5
CD
330
6F
100
AcDbEntity
  8
0
  6
CONTINUOUS
 62
   178
100
AcDbPolyline
 90
        4
 70
     0
 43
0.0
 10
0.8514322638511649
 20
1.015625178813934
 10
0.8666667342185974
 20
1.015625178813934
 10
0.8666667342185974
 20
0.9975261688232395
 10
0.8756511211395255
 20
1.006510555744171
1001
CHIEFARC-LNWT
1070
     0
  0
LWPOLYLINE
  5
CE
330
6F
100
AcDbEntity
  8
0
  6
CONTINUOUS
 62
   178
100
AcDbPolyline
 90
        6
 70
     0
 43
0.0
 10
0.8514322638511649
 20
1.082291841506958
 10
0.8345051407814035
 20
1.064192891120911
 10
0.8423176407814026
 20
1.03984397649765
 10
0.8333332538604736
 20
1.030859589576721
 10
0.8514322638511649
 20
1.030859589576721
 10
0.8423176407814026
 20
1.03984397649765
1001
CHIEFARC-LNWT
1070
     0
  0
LWPOLYLINE
  5
CF
330
6F
100
AcDbEntity
  8
0
  6
CONTINUOUS
 62
   178
100
AcDbPolyline
 90
        6
 70
     0
 43
0.0
 10
0.8514322638511649
 20
1.030859589576721
 10
0.8589844107627869
 20
1.023177266120911
 10
0.8666667342185974
 20
1.015625178813934
 10
0.8756511211395255
 20
1.006510555744171
 10
0.8847656846046457
 20
0.9975261688232422
 10
0.8666667342185974
 20
0.9975261688232422
1001
CHIEFARC-LNWT
1070
     0
  0
LWPOLYLINE
  5
D0
330
6F
100
AcDbEntity
  8
0
  6
CONTINUOUS
 62
   178
100
AcDbPolyline
 90
       14
 70
     0
 43
0.0
 10
0.7180989980697641
 20
0.1489585638046265
 10
0.7180989980697641
 20
0.1308596134185791
 10
0.7000000476837158
 20
0.1239585876464844
 10
0.6891927123069761
 20
0.1200523376464843
 10
0.6666665673255925
 20
0.1119793653488161
 10
0.6376301646232605
 20
0.1018232107162476
 10
0.6333332657814035
 20
0.1005210876464844
 10
0.6246092915534973
 20
0.0975263118743896
 10
0.5999999046325684
 20
0.0895835161209106
 10
0.5886718034744263
 20
0.086198091506958
 10
0.5666666626930238
 20
0.0794272422790528
 10
0.5412761569023126
 20
0.0721355676651002
 10
0.5333334803581236
 20
0.070052146911621
 10
0.5121093988418579
 20
0.0641927719116211
1001
CHIEFARC-LNWT
1070
     0
  0
LWPOLYLINE
  5
D1
330
6F
100
AcDbEntity
  8
0
  6
CONTINUOUS
 62
   178
100
AcDbPolyline
 90
        5
 70
     0
 43
0.0
 10
0.7993489503860474
 20
0.1641930341720581
 10
0.7666667103767395
 20
0.1502606868743896
 10
0.7430989742279052
 20
0.140625238418579
 10
0.7333333492279069
 20
0.1367189884185794
 10
0.7180989980697641
 20
0.1308596134185791
1001
CHIEFARC-LNWT
1070
     0
  0
LWPOLYLINE
  5
D2
330
6F
100
AcDbEntity
  8
0
  6
CONTINUOUS
 62
   178
100
AcDbPolyline
 90
       10
 70
     0
 43
0.0
 10
1.984765768051147
 20
1.764192938804626
 10
1.984505295753479
 20
1.748698160052299
 10
1.98632824420929
 20
1.764192938804626
 10
1.988932371139526
 20
1.786458536982536
 10
1.989974141120911
 20
1.797526240348816
 10
1.992317914962769
 20
1.823177352547646
 10
1.993099093437195
 20
1.830859661102295
 10
1.995182514190674
 20
1.859375357627869
 10
1.995442867279054
 20
1.864193081855774
 10
1.997265815734863
 20
1.894792012870312
1001
CHIEFARC-LNWT
1070
     0
  0
LWPOLYLINE
  5
D3
330
6F
100
AcDbEntity
  8
0
  6
CONTINUOUS
 62
   178
100
AcDbPolyline
 90
        3
 70
     0
 43
0.0
 10
0.8678386211395264
 20
2.897526323795319
 10
0.8839844465255737
 20
2.881510734558105
 10
0.8847656846046457
 20
2.864193022251129
1001
CHIEFARC-LNWT
1070
     0
  0
LWPOLYLINE
  5
D4
330
6F
100
AcDbEntity
  8
0
  6
CONTINUOUS
 62
   178
100
AcDbPolyline
 90
       11
 70
     0
 43
0.0
 10
0.8514322638511649
 20
2.897526323795319
 10
0.8506510257720956
 20
2.914844036102295
 10
0.8666667342185974
 20
2.898698210716248
 10
0.8514322638511649
 20
2.897526323795319
 10
0.8666667342185974
 20
2.897526323795319
 10
0.8839844465255737
 20
2.881510734558105
 10
0.9000000357627878
 20
2.865364909172058
 10
0.8847656846046457
 20
2.864193022251129
 10
0.9000000357627878
 20
2.864193022251129
 10
0.9173177480697641
 20
2.848177313804626
 10
0.9011719226837167
 20
2.864193022251129
1001
CHIEFARC-LNWT
1070
     0
  0
LWPOLYLINE
  5
D5
330
6F
100
AcDbEntity
  8
0
  6
CONTINUOUS
 62
   178
100
AcDbPolyline
 90
       10
 70
     0
 43
0.0
 10
0.3673177659511566
 20
0.0315107107162476
 10
0.4000000357627873
 20
0.0380210876464845
 10
0.4089843928813932
 20
0.0398440361022949
 10
0.4333333373069763
 20
0.0450522899627685
 10
0.4516927301883706
 20
0.0492188930511475
 10
0.4666666984558105
 20
0.0526043176651001
 10
0.4957031309604655
 20
0.0598958730697632
 10
0.5
 20
0.0609376430511475
 10
0.5121093988418579
 20
0.0641927719116211
 10
0.5180990099906921
 20
0.082291841506958
1001
CHIEFARC-LNWT
1070
     0
  0
LWPOLYLINE
  5
D6
330
6F
100
AcDbEntity
  8
0
  6
CONTINUOUS
 62
   178
100
AcDbPolyline
 90
        7
 70
     0
 43
0.0
 10
1.866666674613954
 20
2.715625286102295
 10
1.871744751930237
 20
2.702604472637177
 10
1.873567700386047
 20
2.697526335716248
 10
1.880598902702331
 20
2.678125202655792
 10
1.885546922683715
 20
2.664192855358124
 10
1.889453053474426
 20
2.653645992279053
 10
1.897005200386047
 20
2.630859553813934
1001
CHIEFARC-LNWT
1070
     0
  0
LWPOLYLINE
  5
D7
330
6F
100
AcDbEntity
  8
0
  6
CONTINUOUS
 62
   178
100
AcDbPolyline
 90
       12
 70
     0
 43
0.0
 10
0.6333332657814035
 20
3.894531488418579
 10
0.6561197042465201
 20
3.886979341506958
 10
0.666666567325592
 20
3.883073210716248
 10
0.6805989146232605
 20
3.878125190734863
 10
0.7000000476837159
 20
3.871093988418579
 10
0.7050781846046426
 20
3.869271039962769
 10
0.7180989980697641
 20
3.864192962646484
 10
0.7180989980697641
 20
3.848958492279053
 10
0.7290364503860474
 20
3.859896063804626
 10
0.7333333492279062
 20
3.858333587646484
 10
0.7529948353767386
 20
3.850521087646484
 10
0.7666667103767395
 20
3.844791889190674
1001
CHIEFARC-LNWT
1070
     0
  0
LWPOLYLINE
  5
D8
330
6F
100
AcDbEntity
  8
0
  6
CONTINUOUS
 62
   178
100
AcDbPolyline
 90
       11
 70
     0
 43
0.0
 10
0.6311197280883789
 20
3.895312666893005
 10
0.6246092915534973
 20
3.897526264190674
 10
0.6058592796325692
 20
3.903385639190674
 10
0.5999999046325684
 20
3.905469059944153
 10
0.5805988907814025
 20
3.911458611488342
 10
0.5666666626930212
 20
3.915625333786012
 10
0.5548177361488619
 20
3.919010758399956
 10
0.5333334803581009
 20
3.925000429153449
 10
0.5287761688232517
 20
3.926302433013913
 10
0.5121093988418692
 20
3.930859804153439
 10
0.5024739503860465
 20
3.93333375453949
1001
CHIEFARC-LNWT
1070
     0
  0
LWPOLYLINE
  5
D9
330
6F
100
AcDbEntity
  8
0
  6
CONTINUOUS
 62
   178
100
AcDbPolyline
 90
        4
 70
     0
 43
0.0
 10
0.7514322996139535
 20
3.848958492279053
 10
0.7666667103767395
 20
3.844791889190674
 10
0.7764323353767395
 20
3.840625166893005
 10
0.7993489503860474
 20
3.830859541893005
1001
CHIEFARC-LNWT
1070
     0
  0
LWPOLYLINE
  5
DA
330
6F
100
AcDbEntity
  8
0
  6
CONTINUOUS
 62
   178
100
AcDbPolyline
 90
       12
 70
     0
 43
0.0
 10
0.5
 20
3.934114933013916
 10
0.4759114682674416
 20
3.940104484558105
 10
0.4666666984558102
 20
3.942448258399963
 10
0.4488281309604688
 20
3.946354508399962
 10
0.4333333373069652
 20
3.950000286102298
 10
0.4217447936534955
 20
3.95260441303253
 10
0.4000000357627777
 20
3.957031488418581
 10
0.394140660762794
 20
3.958333492279051
 10
0.3662761151790619
 20
3.963802218437195
 10
0.3514322936534882
 20
3.9489586353302
 10
0.3514322936534882
 20
3.964192867279053
 10
0.3662761151790619
 20
3.963802218437195
1001
CHIEFARC-LNWT
1070
     0
  0
LWPOLYLINE
  5
DB
330
6F
100
AcDbEntity
  8
0
  6
CONTINUOUS
 62
   178
100
AcDbPolyline
 90
       15
 70
     0
 43
0.0
 10
0.3636719286441803
 20
0.0308597087860107
 10
0.3333332538604736
 20
0.0255211591720581
 10
0.3269530534744263
 20
0.0244793891906738
 10
0.300000011920929
 20
0.0200523138046265
 10
0.2873697876930237
 20
0.0182293653488159
 10
0.2666666507720947
 20
0.0153647661209106
 10
0.2488281279802322
 20
0.0130209922790527
 10
0.2333333492279053
 20
0.0111980438232422
 10
0.2110677510499963
 20
0.0085939168930054
 10
0.2000000476837159
 20
0.0075521469116211
 10
0.1743489354848871
 20
0.0052083730697632
 10
0.1666666269302368
 20
0.0044271945953369
 10
0.138150930404664
 20
0.0023437738418579
 10
0.1333332061767587
 20
0.002083420753479
 10
0.10273427516222
 20
0.0002604722976685
1001
CHIEFARC-LNWT
1070
     0
  0
LWPOLYLINE
  5
DC
330
6F
100
AcDbEntity
  8
0
  6
CONTINUOUS
 62
   178
100
AcDbPolyline
 90
       17
 70
     0
 43
0.0
 10
0.3636719286441803
 20
3.964192867279053
 10
0.3378905653953559
 20
3.968750238418579
 10
0.3333332538604705
 20
3.969531416893006
 10
0.309244781732568
 20
3.973437786102294
 10
0.3000000119209354
 20
3.975000262260436
 10
0.2803385257720997
 20
3.977864861488342
 10
0.2666666507721885
 20
3.97968780994414
 10
0.2509114444255807
 20
3.981771111488343
 10
0.2333333492279194
 20
3.98385453224182
 10
0.2209635674953228
 20
3.985156655311587
 10
0.2000000476837182
 20
3.987500429153442
 10
0.1907552331685861
 20
3.98828160762787
 10
0.1666666269302231
 20
3.990625381469728
 10
0.1602863967418821
 20
3.991146206855773
 10
0.1333332061767774
 20
3.992969155311583
 10
0.1290363371373148
 20
3.993229627609247
 10
0.0999999046325684
 20
3.995052576065063
1001
CHIEFARC-LNWT
1070
     0
  0
LWPOLYLINE
  5
DD
330
6F
100
AcDbEntity
  8
0
  6
CONTINUOUS
 62
   178
100
AcDbPolyline
 90
        5
 70
     0
 43
0.0
 10
1.784765601158142
 20
2.882291972637177
 10
1.799999952316284
 20
2.869271159172058
 10
1.799999952316284
 20
2.864193022251129
 10
1.784765601158142
 20
2.864193022251129
 10
1.799999952316284
 20
2.869271159172058
1001
CHIEFARC-LNWT
1070
     0
  0
LWPOLYLINE
  5
DE
330
6F
100
AcDbEntity
  8
0
  6
CONTINUOUS
 62
   178
100
AcDbPolyline
 90
        6
 70
     0
 43
0.0
 10
-0.0813801288604736
 20
0.730859637260437
 10
-0.066666603088378
 20
0.7475262880325317
 10
0.0666666030883789
 20
0.7475262880325317
 10
0.0813801288604736
 20
0.7455731630325317
 10
0.0813801288604736
 20
0.0122396945953369
 10
0.0999999046325684
 20
0.0
1001
CHIEFARC-LNWT
1070
     0
  0
LWPOLYLINE
  5
DF
330
6F
100
AcDbEntity
  8
0
  6
CONTINUOUS
 62
   178
100
AcDbPolyline
 90
       22
 70
     0
 43
0.0
 10
-0.3636719286441794
 20
0.0308597087860107
 10
-0.3378905653953553
 20
0.0263023376464844
 10
-0.3333332538604738
 20
0.0255211591720581
 10
-0.3092447817325585
 20
0.0216147899627686
 10
-0.300000011920929
 20
0.0200523138046265
 10
-0.2803385257720947
 20
0.0171877145767212
 10
-0.266666650772095
 20
0.0153647661209107
 10
-0.2509114444255821
 20
0.0132814645767212
 10
-0.2333333492279044
 20
0.0111980438232422
 10
-0.220963567495346
 20
0.009895920753479
 10
-0.2000000476837158
 20
0.0075521469116211
 10
-0.190755233168602
 20
0.0067709684371948
 10
-0.166666626930236
 20
0.0044271945953369
 10
-0.1602863967418661
 20
0.0039063692092895
 10
-0.1333332061767578
 20
0.002083420753479
 10
-0.1290363371372222
 20
0.0018229484558105
 10
-0.0999999046325684
 20
0.0
 10
-0.0819009616971016
 20
0.0308597087860107
 10
-0.0819009616971016
 20
0.7489585876464844
 10
-0.066666603088378
 20
0.7641929388046265
 10
0.0999999046325684
 20
0.7641929388046265
 10
0.0813801288604736
 20
0.7455731630325317
1001
CHIEFARC-LNWT
1070
     0
  0
LWPOLYLINE
  5
E0
330
6F
100
AcDbEntity
  8
0
  6
CONTINUOUS
 62
   178
100
AcDbPolyline
 90
        5
 70
     0
 43
0.0
 10
0.0666666030883789
 20
3.247526288032532
 10
-0.066666603088378
 20
3.247526288032532
 10
-0.0813801288604736
 20
3.249479413032532
 10
-0.0813801288604736
 20
3.982812881469727
 10
-0.0999999046325684
 20
3.995052576065063
1001
CHIEFARC-LNWT
1070
     0
  0
LWPOLYLINE
  5
E1
330
6F
100
AcDbEntity
  8
0
  6
CONTINUOUS
 62
   178
100
AcDbPolyline
 90
       10
 70
     0
 43
0.0
 10
-0.3485676944255829
 20
0.0641927719116211
 10
-0.3666667342185974
 20
0.0315107107162476
 10
-0.3941406607627869
 20
0.0367190837860107
 10
-0.400000035762786
 20
0.0380210876464844
 10
-0.4217447936534873
 20
0.0424481630325317
 10
-0.4333333373069763
 20
0.0450522899627686
 10
-0.4488281309604635
 20
0.0486980676651001
 10
-0.4666666984558105
 20
0.0526043176651001
 10
-0.4759114682674416
 20
0.054948091506958
 10
-0.4999999999999991
 20
0.0609376430511475
1001
CHIEFARC-LNWT
1070
     0
  0
LWPOLYLINE
  5
E2
330
6F
100
AcDbEntity
  8
0
  6
CONTINUOUS
 62
   178
100
AcDbPolyline
 90
       15
 70
     0
 43
0.0
 10
-0.10273427516222
 20
3.994792103767395
 10
-0.1333332061767578
 20
3.992969155311584
 10
-0.1381509304046631
 20
3.992708802223206
 10
-0.1666666269302359
 20
3.990625381469727
 10
-0.1743489354848862
 20
3.9898442029953
 10
-0.2000000476837158
 20
3.987500429153442
 10
-0.2110677510499964
 20
3.986458659172058
 10
-0.2333333492279044
 20
3.983854532241821
 10
-0.2488281279802322
 20
3.982031583786011
 10
-0.2666666507720952
 20
3.979687809944153
 10
-0.2873697876930111
 20
3.976823210716249
 10
-0.3000000119209242
 20
3.975000262260438
 10
-0.3269530534744263
 20
3.97057318687439
 10
-0.3333332538604736
 20
3.969531416893005
 10
-0.3636719286441794
 20
3.964192867279053
1001
CHIEFARC-LNWT
1070
     0
  0
LWPOLYLINE
  5
E3
330
6F
100
AcDbEntity
  8
0
  6
CONTINUOUS
 62
   178
100
AcDbPolyline
 90
       12
 70
     0
 43
0.0
 10
-0.3673177659511566
 20
3.963541865348816
 10
-0.4000000357627859
 20
3.957031488418579
 10
-0.4089843928813954
 20
3.955208539962768
 10
-0.4333333373069776
 20
3.950000286102294
 10
-0.4516927301883698
 20
3.945833683013916
 10
-0.4666666984558105
 20
3.942448258399963
 10
-0.4957031309604645
 20
3.9351567029953
 10
-0.4999999999999991
 20
3.934114933013916
 10
-0.5121093988418578
 20
3.930859804153442
 10
-0.5333334803581216
 20
3.925000429153443
 10
-0.5412761569023179
 20
3.922917008399962
 10
-0.5666666626930228
 20
3.915625333786011
1001
CHIEFARC-LNWT
1070
     0
  0
LWPOLYLINE
  5
E4
330
6F
100
AcDbEntity
  8
0
  6
CONTINUOUS
 62
   178
100
AcDbPolyline
 90
       14
 70
     0
 43
0.0
 10
-0.631119728088378
 20
0.0997399091720581
 10
-0.6246092915534973
 20
0.0975263118743896
 10
-0.6058592796325684
 20
0.0916669368743896
 10
-0.5999999046325684
 20
0.0895835161209106
 10
-0.5805988907814026
 20
0.0835939645767212
 10
-0.5666666626930228
 20
0.0794272422790527
 10
-0.5548177361488342
 20
0.0760418176651001
 10
-0.5333334803581237
 20
0.0700521469116211
 10
-0.528776168823241
 20
0.0687501430511474
 10
-0.5121093988418579
 20
0.0641927719116211
 10
-0.4999999999999991
 20
0.0975263118743896
 10
-0.4999999999999991
 20
0.0641927719116211
 10
-0.5121093988418579
 20
0.0641927719116211
 10
-0.5024739503860465
 20
0.0617188215255737
1001
CHIEFARC-LNWT
1070
     0
  0
LWPOLYLINE
  5
E5
330
6F
100
AcDbEntity
  8
0
  6
CONTINUOUS
 62
   178
100
AcDbPolyline
 90
       14
 70
     0
 43
0.0
 10
-0.5485677719116211
 20
3.915625333786011
 10
-0.5666666626930228
 20
3.915625333786011
 10
-0.5886718034744263
 20
3.908854484558105
 10
-0.5999999046325684
 20
3.905469059944153
 10
-0.6246092915534973
 20
3.897526264190674
 10
-0.6333332657814026
 20
3.894531488418579
 10
-0.6376301646232605
 20
3.893229365348816
 10
-0.666666567325592
 20
3.883073210716248
 10
-0.6891927123069753
 20
3.875000238418579
 10
-0.7000000476837178
 20
3.871093988418578
 10
-0.718098998069801
 20
3.86419296264647
 10
-0.7333333492279112
 20
3.858333587646482
 10
-0.7430989742278902
 20
3.854427337646491
 10
-0.7666667103767395
 20
3.844791889190674
1001
CHIEFARC-LNWT
1070
     0
  0
LWPOLYLINE
  5
E6
330
6F
100
AcDbEntity
  8
0
  6
CONTINUOUS
 62
   178
100
AcDbPolyline
 90
       13
 70
     0
 43
0.0
 10
-0.6333332657814026
 20
0.1005210876464844
 10
-0.6561197042465201
 20
0.1080732345581055
 10
-0.666666567325592
 20
0.1119793653488159
 10
-0.6805989146232605
 20
0.1169273853302002
 10
-0.7000000476837159
 20
0.1239585876464844
 10
-0.7050781846046439
 20
0.1257815361022949
 10
-0.7180989980697631
 20
0.130859613418579
 10
-0.7290364503860478
 20
0.1351565122604372
 10
-0.7333333492279054
 20
0.1367189884185792
 10
-0.7529948353767401
 20
0.1445314884185793
 10
-0.7666667103767381
 20
0.150260686874389
 10
-0.7764323353767395
 20
0.1544274091720581
 10
-0.7993489503860474
 20
0.1641930341720581
1001
CHIEFARC-LNWT
1070
     0
  0
LWPOLYLINE
  5
E7
330
6F
100
AcDbEntity
  8
0
  6
CONTINUOUS
 62
   178
100
AcDbPolyline
 90
        6
 70
     0
 43
0.0
 10
-0.8666667342185974
 20
0.1950523853302002
 10
-0.8457031249999992
 20
0.1851565837860108
 10
-0.8333332538604725
 20
0.1794273853302001
 10
-0.8227863907813927
 20
0.1747399568557695
 10
-0.800000011920929
 20
0.164583683013916
 10
-0.7819010615348816
 20
0.1975263357162476
1001
CHIEFARC-LNWT
1070
     0
  0
LWPOLYLINE
  5
E8
330
6F
100
AcDbEntity
  8
0
  6
CONTINUOUS
 62
   178
100
AcDbPolyline
 90
        3
 70
     0
 43
0.0
 10
-0.7993489503860474
 20
3.830859541893005
 10
-0.7666667103767395
 20
3.844791889190674
 10
-0.7485677599906921
 20
3.848958492279053
1001
CHIEFARC-LNWT
1070
     0
  0
LWPOLYLINE
  5
E9
330
6F
100
AcDbEntity
  8
0
  6
CONTINUOUS
 62
   178
100
AcDbPolyline
 90
       95
 70
     0
 43
0.0
 10
-1.333333492279052
 20
0.5489585399627686
 10
-1.315234422683716
 20
0.5489585399627686
 10
-1.299999952316284
 20
0.5641928911209106
 10
-1.299999952316284
 20
0.582291841506958
 10
-1.281901001930236
 20
0.582291841506958
 10
-1.266666650772094
 20
0.5975261926651001
 10
-1.266666650772094
 20
0.6156251430511475
 10
-1.248567700386047
 20
0.6156251430511475
 10
-1.233333349227905
 20
0.6308594942092896
 10
-1.233333349227905
 20
0.6489584445953369
 10
-1.215234398841857
 20
0.6489584445953369
 10
-1.200000047683715
 20
0.664192795753479
 10
-1.200000047683715
 20
0.6822918653488159
 10
-1.181901097297668
 20
0.6822918653488159
 10
-1.166666746139526
 20
0.6975263357162476
 10
-1.166666746139526
 20
0.7156252861022949
 10
-1.148567676544189
 20
0.7156252861022949
 10
-1.133333206176757
 20
0.730859637260437
 10
-1.133333206176757
 20
0.7489585876464844
 10
-1.11523425579071
 20
0.7489585876464844
 10
-1.099999904632568
 20
0.7641929388046265
 10
-1.099999904632568
 20
0.7822918891906738
 10
-1.081900954246521
 20
0.7822918891906738
 10
-1.066666603088379
 20
0.7975262403488159
 10
-1.066666603088379
 20
0.8156251907348633
 10
-1.048567771911621
 20
0.8156251907348633
 10
-1.033333539962769
 20
0.8308595418930054
 10
-1.033333539962769
 20
0.8489586114883423
 10
-1.015234589576721
 20
0.8489586114883423
 10
-1.00000011920929
 20
0.8641930818557739
 10
-1.00000011920929
 20
0.8822920322418213
 10
-0.9819011092185974
 20
0.8822920322418213
 10
-0.9666666984558105
 20
0.8975263833999634
 10
-0.9666666984558105
 20
0.9156253337860107
 10
-0.9485677480697632
 20
0.9156253337860107
 10
-0.9333333969116211
 20
0.9308596849441528
 10
-0.9333333969116211
 20
0.9489585161209106
 10
-0.9152344465255737
 20
0.9489585161209106
 10
-0.9000000357627869
 20
0.9641927480697632
 10
-0.9000000357627869
 20
0.9822916984558105
 10
-0.8819010853767395
 20
0.9822916984558105
 10
-0.8666667342185974
 20
0.9975261688232422
 10
-0.8666667342185974
 20
1.015625178813934
 10
-0.8485677242279053
 20
1.015625178813934
 10
-0.8333332538604727
 20
1.030859589576721
 10
-0.8333332538604727
 20
1.097526252269745
 10
-0.8666667342185974
 20
1.097526252269745
 10
-0.8666667342185974
 20
1.130859553813934
 10
-0.9000000357627869
 20
1.130859553813934
 10
-0.9000000357627869
 20
1.164193034172058
 10
-0.9666666984558105
 20
1.164193034172058
 10
-0.9819011092185974
 20
1.148958563804626
 10
-0.9819011092185974
 20
1.130859553813934
 10
-1.00000011920929
 20
1.130859553813934
 10
-1.015234589576721
 20
1.115625202655792
 10
-1.015234589576721
 20
1.097526252269745
 10
-1.033333539962769
 20
1.097526252269745
 10
-1.048567771911621
 20
1.082291841506958
 10
-1.048567771911621
 20
1.064192891120911
 10
-1.066666603088379
 20
1.064192891120911
 10
-1.081900954246521
 20
1.048958539962769
 10
-1.081900954246521
 20
1.030859589576721
 10
-1.099999904632568
 20
1.030859589576721
 10
-1.11523425579071
 20
1.015625178813934
 10
-1.11523425579071
 20
0.9975261688232422
 10
-1.133333206176757
 20
0.9975261688232422
 10
-1.148567676544189
 20
0.9822916984558105
 10
-1.148567676544189
 20
0.9641927480697632
 10
-1.166666746139526
 20
0.9641927480697632
 10
-1.181901097297668
 20
0.9489585161209106
 10
-1.181901097297668
 20
0.9308596849441528
 10
-1.200000047683715
 20
0.9308596849441528
 10
-1.215234398841857
 20
0.9156253337860107
 10
-1.215234398841857
 20
0.8975263833999634
 10
-1.233333349227905
 20
0.8975263833999634
 10
-1.248567700386047
 20
0.8822920322418213
 10
-1.248567700386047
 20
0.8641930818557739
 10
-1.266666650772094
 20
0.8641930818557739
 10
-1.281901001930236
 20
0.8489586114883423
 10
-1.281901001930236
 20
0.8308595418930054
 10
-1.299999952316284
 20
0.8308595418930054
 10
-1.315234422683716
 20
0.8156251907348633
 10
-1.315234422683716
 20
0.7975262403488159
 10
-1.333333492279052
 20
0.7975262403488159
 10
-1.348567843437195
 20
0.7822918891906738
 10
-1.348567843437195
 20
0.7641929388046265
 10
-1.366666793823242
 20
0.7641929388046265
 10
-1.381901144981384
 20
0.7489585876464844
 10
-1.381901144981384
 20
0.730859637260437
 10
-1.400000095367432
 20
0.730859637260437
 10
-1.415234446525574
 20
0.7156252861022949
 10
-1.415234446525574
 20
0.6975263357162476
 10
-1.433333396911621
 20
0.6975263357162476
 10
-1.448567748069763
 20
0.6822918653488159
 10
-1.448567748069763
 20
0.664192795753479
1001
CHIEFARC-LNWT
1070
     0
  0
LWPOLYLINE
  5
EA
330
6F
100
AcDbEntity
  8
0
  6
CONTINUOUS
 62
   178
100
AcDbPolyline
 90
       35
 70
     0
 43
0.0
 10
-1.102213501930237
 20
0.3286460638046265
 10
-1.105598807334899
 20
0.3308595418930054
 10
-1.099999904632568
 20
0.3641929626464844
 10
-1.099999904632568
 20
0.3308595418930054
 10
-1.105598807334899
 20
0.3308595418930054
 10
-1.122265458106995
 20
0.3419272899627686
 10
-1.133333206176757
 20
0.3497397899627686
 10
-1.142057180404663
 20
0.3554689884185791
 10
-1.154296875
 20
0.3641929626464844
 10
-1.161588549613952
 20
0.3692711591720581
 10
-1.166666746139526
 20
0.3731774091720581
 10
-1.180859446525574
 20
0.383333683013916
 10
-1.200130224227905
 20
0.3973962068557739
 10
-1.181901097297668
 20
0.3975263833999634
 10
-1.200000047683715
 20
0.3975263833999634
 10
-1.200000047683715
 20
0.4308596849441528
 10
-1.200130224227905
 20
0.3973962068557739
 10
-1.218880295753479
 20
0.41197943687439
 10
-1.233333349227904
 20
0.4231773614883416
 10
-1.237630248069773
 20
0.4265627861023026
 10
-1.243098974227906
 20
0.4308596849441541
 10
-1.256119728088378
 20
0.4414064884185784
 10
-1.266666650772094
 20
0.4497398138046259
 10
-1.274609327316283
 20
0.4562501907348629
 10
-1.283984303474425
 20
0.4641928672790518
 10
-1.29283845424652
 20
0.4713543653488153
 10
-1.299999952316282
 20
0.4776042699813827
 10
-1.310546874999999
 20
0.4869792461395256
 10
-1.322786569595338
 20
0.4975261688232427
 10
-1.328515768051147
 20
0.5023438930511468
 10
-1.333333492279057
 20
0.506770968437199
 10
-1.345963716506958
 20
0.5182293653488159
 10
-1.351432478685029
 20
0.5308596727660724
 10
-0.8514319225229237
 20
1.030860228928192
 10
-0.8339843153953543
 20
1.063541829586029
1001
CHIEFARC-LNWT
1070
     0
  0
LWPOLYLINE
  5
EB
330
6F
100
AcDbEntity
  8
0
  6
CONTINUOUS
 62
   178
100
AcDbPolyline
 90
        9
 70
     0
 43
0.0
 10
-0.9333333969116211
 20
0.2286460399627686
 10
-0.9128906726837149
 20
0.2179689407348633
 10
-0.9000000357627871
 20
0.2114585638046266
 10
-0.8907552361488343
 20
0.2067711353302003
 10
-0.8717448711395255
 20
0.1975263357162476
 10
-0.8666667342185974
 20
0.1975263357162476
 10
-0.8666667342185974
 20
0.2308595180511475
 10
-0.8717448711395255
 20
0.1975263357162476
 10
-0.8683594465255728
 20
0.195833683013916
1001
CHIEFARC-LNWT
1070
     0
  0
LWPOLYLINE
  5
EC
330
6F
100
AcDbEntity
  8
0
  6
CONTINUOUS
 62
   178
100
AcDbPolyline
 90
        9
 70
     0
 43
0.0
 10
1.733333349227905
 20
2.995312869548798
 10
1.744661450386047
 20
2.975521147251129
 10
1.750911474227905
 20
2.964192986488342
 10
1.756380319595337
 20
2.953906536102295
 10
1.766666769981384
 20
2.934896111488342
 10
1.766666769981384
 20
2.930859684944153
 10
1.751432299613953
 20
2.930859684944153
 10
1.766666769981384
 20
2.934896111488342
 10
1.768099069595337
 20
2.932291984558105
1001
CHIEFARC-LNWT
1070
     0
  0
LWPOLYLINE
  5
ED
330
6F
100
AcDbEntity
  8
0
  6
CONTINUOUS
 62
   178
100
AcDbPolyline
 90
        6
 70
     0
 43
0.0
 10
-0.9347656965255737
 20
0.2294272184371948
 10
-0.9373698234558105
 20
0.2308595180511475
 10
-0.9563802480697632
 20
0.2411459684371948
 10
-0.9666666984558105
 20
0.2466148138046265
 10
-0.9779948592185974
 20
0.2528648376464844
 10
-0.9977865815162659
 20
0.2641929388046265
1001
CHIEFARC-LNWT
1070
     0
  0
LWPOLYLINE
  5
EE
330
6F
100
AcDbEntity
  8
0
  6
CONTINUOUS
 62
   178
100
AcDbPolyline
 90
        3
 70
     0
 43
0.0
 10
-0.8678386211395264
 20
1.097526252269745
 10
-0.8839844465255737
 20
1.113541841506958
 10
-0.9000000357627869
 20
1.129687666893005
1001
CHIEFARC-LNWT
1070
     0
  0
LWPOLYLINE
  5
EF
330
6F
100
AcDbEntity
  8
0
  6
CONTINUOUS
 62
   178
100
AcDbPolyline
 90
        3
 70
     0
 43
0.0
 10
-0.8666667342185974
 20
1.096354365348816
 10
-0.8506510257720947
 20
1.080208539962769
 10
-0.8345051407814026
 20
1.064192891120911
1001
CHIEFARC-LNWT
1070
     0
  0
LWPOLYLINE
  5
F0
330
6F
100
AcDbEntity
  8
0
  6
CONTINUOUS
 62
   178
100
AcDbPolyline
 90
        3
 70
     0
 43
0.0
 10
-0.9011719226837158
 20
1.130859553813934
 10
-0.9173177480697632
 20
1.146875262260437
 10
-0.9333333969116211
 20
1.163021147251129
1001
CHIEFARC-LNWT
1070
     0
  0
LWPOLYLINE
  5
F1
330
6F
100
AcDbEntity
  8
0
  6
CONTINUOUS
 62
   178
100
AcDbPolyline
 90
        6
 70
     0
 43
0.0
 10
1.802473902702332
 20
2.864193022251129
 10
1.812369704246521
 20
2.843229413032532
 10
1.818098902702332
 20
2.830859541893005
 10
1.822786331176758
 20
2.820312678813934
 10
1.833203077316285
 20
2.797396063804626
 10
1.818098902702332
 20
2.797526299953461
1001
CHIEFARC-LNWT
1070
     0
  0
LWPOLYLINE
  5
F2
330
6F
100
AcDbEntity
  8
0
  6
CONTINUOUS
 62
   178
100
AcDbPolyline
 90
        8
 70
     0
 43
0.0
 10
-0.8618490099906921
 20
3.802343964576721
 10
-0.8666667342185974
 20
3.800000190734863
 10
-0.8717448711395255
 20
3.797526240348816
 10
-0.9000000357627869
 20
3.783594012260437
 10
-0.9287760853767376
 20
3.768750309944154
 10
-0.9333333969116235
 20
3.766406536102294
 10
-0.9373698234558112
 20
3.764193058013916
 10
-0.9666666984558105
 20
3.748437762260437
1001
CHIEFARC-LNWT
1070
     0
  0
LWPOLYLINE
  5
F3
330
6F
100
AcDbEntity
  8
0
  6
CONTINUOUS
 62
   178
100
AcDbPolyline
 90
        3
 70
     0
 43
0.0
 10
-0.9485677480697632
 20
3.748958587646484
 10
-0.9666666984558105
 20
3.748437762260437
 10
-0.9977865815162659
 20
3.730859637260437
1001
CHIEFARC-LNWT
1070
     0
  0
LWPOLYLINE
  5
F4
330
6F
100
AcDbEntity
  8
0
  6
CONTINUOUS
 62
   178
100
AcDbPolyline
 90
        3
 70
     0
 43
0.0
 10
-0.815234363079071
 20
3.815625190734863
 10
-0.8333332538604727
 20
3.815625190734863
 10
-0.8006510734558105
 20
3.830208539962769
1001
CHIEFARC-LNWT
1070
     0
  0
LWPOLYLINE
  5
F5
330
6F
100
AcDbEntity
  8
0
  6
CONTINUOUS
 62
   178
100
AcDbPolyline
 90
        9
 70
     0
 43
0.0
 10
-1.099999904632568
 20
0.3270834684371948
 10
-1.081900954246521
 20
0.3156251907348632
 10
-1.066666603088378
 20
0.3057293891906733
 10
-1.061588525772093
 20
0.3026044368743893
 10
-1.053515672683713
 20
0.2975263595581042
 10
-1.041015744209287
 20
0.2898440361022939
 10
-1.033333539962767
 20
0.285156488418578
 10
-1.020182490348816
 20
0.2773439884185791
 10
-1.00000011920929
 20
0.2653647661209106
1001
CHIEFARC-LNWT
1070
     0
  0
LWPOLYLINE
  5
F6
330
6F
100
AcDbEntity
  8
0
  6
CONTINUOUS
 62
   178
100
AcDbPolyline
 90
       28
 70
     0
 43
0.0
 10
-1.668880224227905
 20
0.8953127861022949
 10
-1.666666746139526
 20
0.8919274806976318
 10
-1.655598998069763
 20
0.8752608299255371
 10
-1.647786498069763
 20
0.8641930818557739
 10
-1.642057299613953
 20
0.8554691076278687
 10
-1.633333325386047
 20
0.8432294130325317
 10
-1.628255128860473
 20
0.8359377384185791
 10
-1.624348878860473
 20
0.8308595418930054
 10
-1.614192605018615
 20
0.8166668415069581
 10
-1.600130081176756
 20
0.7973960638046247
 10
-1.585546851158129
 20
0.778645992279036
 10
-1.574348926544182
 20
0.7641929388046179
 10
-1.57096350193021
 20
0.7598960399627342
 10
-1.566666603088381
 20
0.75442731380463
 10
-1.556119799613952
 20
0.7414065599441523
 10
-1.547786474227905
 20
0.7308596372604368
 10
-1.541276097297667
 20
0.7229169607162462
 10
-1.533333420753479
 20
0.713541984558105
 10
-1.526171922683715
 20
0.7046878337860094
 10
-1.51992201805115
 20
0.6975263357162508
 10
-1.510547041893004
 20
0.6869794130325307
 10
-1.500000119209291
 20
0.6747397184371962
 10
-1.495182394981384
 20
0.669010519981384
 10
-1.490755319595338
 20
0.6641927957534804
 10
-1.479296922683715
 20
0.6515625715255737
 10
-1.46666686483452
 20
0.646093917407293
 10
-0.9666668263261157
 20
1.146093955915712
 10
-0.9339844584465027
 20
1.163541972637177
1001
CHIEFARC-LNWT
1070
     0
  0
LWPOLYLINE
  5
F7
330
6F
100
AcDbEntity
  8
0
  6
CONTINUOUS
 62
   178
100
AcDbPolyline
 90
        9
 70
     0
 43
0.0
 10
-1.133333206176757
 20
3.645312786102295
 10
-1.105598807334899
 20
3.664193034172058
 10
-1.099999904632564
 20
3.667969107627872
 10
-1.089452981948911
 20
3.674739837646447
 10
-1.066666603088391
 20
3.689323186874382
 10
-1.053515672683722
 20
3.697526216506954
 10
-1.033333539962766
 20
3.709896087646486
 10
-1.002994894981391
 20
3.727864861488338
 10
-1.00000011920929
 20
3.729687809944153
1001
CHIEFARC-LNWT
1070
     0
  0
LWPOLYLINE
  5
F8
330
6F
100
AcDbEntity
  8
0
  6
CONTINUOUS
 62
   178
100
AcDbPolyline
 90
       39
 70
     0
 43
0.0
 10
-1.098307251930237
 20
2.865885734558105
 10
-1.09570300579071
 20
2.864193022251129
 10
-1.078515529632569
 20
2.852344036102295
 10
-1.066666603088379
 20
2.844010651111603
 10
-1.058984398841858
 20
2.838541865348816
 10
-1.048046946525574
 20
2.830859541893005
 10
-1.039453268051153
 20
2.824739754199985
 10
-1.033333539962784
 20
2.820573091506969
 10
-1.019661664962768
 20
2.811198115348816
 10
-0.9805990173345154
 20
2.783594076418397
 10
-0.98919278383255
 20
2.764192998409271
 10
-1.00000011920929
 20
2.748698174953461
 10
-1.012369990348815
 20
2.730859637260437
 10
-1.033333539962769
 20
2.70104193687439
 10
-1.035807490348815
 20
2.697526335716248
 10
-1.041536569595336
 20
2.68932318687439
 10
-1.059244751930233
 20
2.664192855358129
 10
-1.066666603088379
 20
2.653385579586029
 10
-1.077994704246521
 20
2.652864754199982
 10
-1.094140529632568
 20
2.664192855358124
 10
-1.097525954246521
 20
2.666666805744171
 10
-1.099999904632568
 20
2.668229341506958
 10
-1.1173175573349
 20
2.680208563804626
 10
-1.133333206176757
 20
2.691666960716248
 10
-1.136848807334899
 20
2.694010674953461
 10
-1.141796827316284
 20
2.697526335716248
 10
-1.156380176544189
 20
2.707812786102295
 10
-1.166666746139526
 20
2.714844048023224
 10
-1.175911545753479
 20
2.721614837646484
 10
-1.189453125
 20
2.730859637260437
 10
-1.195703148841855
 20
2.735156536102292
 10
-1.200000047683715
 20
2.738281548023224
 10
-1.200000047683715
 20
2.730859637260437
 10
-1.215234398841857
 20
2.730859637260437
 10
-1.200000047683715
 20
2.738281548023224
 10
-1.215234398841857
 20
2.748958587646484
 10
-1.248567700386047
 20
2.748958587646484
 10
-1.248567700386047
 20
2.764192998409271
 10
-1.234765648841857
 20
2.762760698795319
1001
CHIEFARC-LNWT
1070
     0
  0
LWPOLYLINE
  5
F9
330
6F
100
AcDbEntity
  8
0
  6
CONTINUOUS
 62
   178
100
AcDbPolyline
 90
        3
 70
     0
 43
0.0
 10
-1.00000011920929
 20
2.797526299953461
 10
-1.00000011920929
 20
2.830859541892777
 10
-1.000130295753479
 20
2.797396063804626
1001
CHIEFARC-LNWT
1070
     0
  0
LWPOLYLINE
  5
FA
330
6F
100
AcDbEntity
  8
0
  6
CONTINUOUS
 62
   178
100
AcDbPolyline
 90
        8
 70
     0
 43
0.0
 10
1.833333253860474
 20
2.796875238418579
 10
1.843098878860475
 20
2.773958623409271
 10
1.847265601158143
 20
2.764192998409271
 10
1.852994799613953
 20
2.750521123409271
 10
1.860807299613952
 20
2.730859637260437
 10
1.862369775772095
 20
2.726562738418579
 10
1.866666674613954
 20
2.715625286102295
 10
1.851432204246521
 20
2.715625286102295
1001
CHIEFARC-LNWT
1070
     0
  0
LWPOLYLINE
  5
FB
330
6F
100
AcDbEntity
  8
0
  6
CONTINUOUS
 62
   178
100
AcDbPolyline
 90
        5
 70
     0
 43
0.0
 10
1.948307394981384
 20
1.545833557844162
 10
1.952473998069763
 20
1.564192950725555
 10
1.957682251930238
 20
1.588541895151138
 10
1.959505200386047
 20
1.597526252269745
 10
1.966015577316284
 20
1.630208522081375
1001
CHIEFARC-LNWT
1070
     0
  0
LWPOLYLINE
  5
FC
330
6F
100
AcDbEntity
  8
0
  6
CONTINUOUS
 62
   178
100
AcDbPolyline
 90
        6
 70
     0
 43
0.0
 10
-1.997526288032532
 20
1.897526383399963
 10
-1.966666579246521
 20
1.91562532633543
 10
-1.248567700386047
 20
1.91562532633543
 10
-1.233333349227905
 20
1.930859684944153
 10
-1.233333349227905
 20
2.0975261926651
 10
-1.251953125
 20
2.078906416893005
1001
CHIEFARC-LNWT
1070
     0
  0
LWPOLYLINE
  5
FD
330
6F
100
AcDbEntity
  8
0
  6
CONTINUOUS
 62
   178
100
AcDbPolyline
 90
        6
 70
     0
 43
0.0
 10
-1.266666650772094
 20
1.916146159172058
 10
-1.25
 20
1.930859684944153
 10
-1.25
 20
2.064192891120911
 10
-1.251953125
 20
2.078906416893005
 10
-1.985286593437194
 20
2.078906416893005
 10
-1.997526288032532
 20
2.0975261926651
1001
CHIEFARC-LNWT
1070
     0
  0
LWPOLYLINE
  5
FE
330
6F
100
AcDbEntity
  8
0
  6
CONTINUOUS
 62
   178
100
AcDbPolyline
 90
       21
 70
     0
 43
0.0
 10
-1.235546946525573
 20
2.961979448795319
 10
-1.238411426544189
 20
2.964192986488342
 10
-1.233333349227905
 20
2.964192986488342
 10
-1.233333349227905
 20
2.997526407241821
 10
-1.238411426544189
 20
2.964192986488342
 10
-1.255078077316284
 20
2.975781559944153
 10
-1.266666650772094
 20
2.983854472637177
 10
-1.274609327316283
 20
2.989583671092987
 10
-1.286067724227905
 20
2.997526407241821
 10
-1.294140577316284
 20
3.003385782241821
 10
-1.299999952316284
 20
3.007292032241821
 10
-1.313932299613953
 20
3.016927480697632
 10
-1.352987561030048
 20
3.044526538454938
 10
-1.366666793823277
 20
3.053906559944177
 10
-1.372786521911619
 20
3.05807316303253
 10
-1.381380319595344
 20
3.064192891120916
 10
-1.392317771911626
 20
3.071875214576725
 10
-1.400000095367441
 20
3.07734394073487
 10
-1.411849021911684
 20
3.085677266120955
 10
-1.428776144981383
 20
3.0975261926651
 10
-1.431380271911621
 20
3.0994793176651
1001
CHIEFARC-LNWT
1070
     0
  0
LWPOLYLINE
  5
FF
330
6F
100
AcDbEntity
  8
0
  6
CONTINUOUS
 62
   178
100
AcDbPolyline
 90
        4
 70
     0
 43
0.0
 10
-1.233333349227905
 20
3.571875214576721
 10
-1.243098974227905
 20
3.564192891120911
 10
-1.266666650772094
 20
3.545312762260437
 10
-1.248567700386047
 20
3.548958539962769
1001
CHIEFARC-LNWT
1070
     0
  0
LWPOLYLINE
  5
100
330
6F
100
AcDbEntity
  8
0
  6
CONTINUOUS
 62
   178
100
AcDbPolyline
 90
        7
 70
     0
 43
0.0
 10
-1.11523425579071
 20
3.648958563804626
 10
-1.133333206176757
 20
3.645312786102295
 10
-1.154296875
 20
3.630859613418579
 10
-1.166666746139526
 20
3.621875166893005
 10
-1.200130224227905
 20
3.5975261926651
 10
-1.233333349227905
 20
3.571875214576721
 10
-1.215234398841857
 20
3.582291841506958
1001
CHIEFARC-LNWT
1070
     0
  0
LWPOLYLINE
  5
101
330
6F
100
AcDbEntity
  8
0
  6
CONTINUOUS
 62
   178
100
AcDbPolyline
 90
       16
 70
     0
 43
0.0
 10
-1.099999904632568
 20
2.867187798023224
 10
-1.117838382720947
 20
2.879687786102295
 10
-1.133333206176798
 20
2.890625298023253
 10
-1.137369632720942
 20
2.893489897251126
 10
-1.143359303474426
 20
2.897526323795319
 10
-1.133333206176757
 20
2.930859684944153
 10
-1.133333206176757
 20
2.897526323795319
 10
-1.143359303474426
 20
2.897526323795319
 10
-1.156901001930237
 20
2.907291948795319
 10
-1.166666746139526
 20
2.9138023853302
 10
-1.176692724227905
 20
2.920833647251129
 10
-1.190755248069763
 20
2.930859684944153
 10
-1.196223974227905
 20
2.934635698795319
 10
-1.200000047683715
 20
2.9372398853302
 10
-1.215755224227905
 20
2.948437809944153
 10
-1.233333349227905
 20
2.9606773853302
1001
CHIEFARC-LNWT
1070
     0
  0
LWPOLYLINE
  5
102
330
6F
100
AcDbEntity
  8
0
  6
CONTINUOUS
 62
   178
100
AcDbPolyline
 90
        8
 70
     0
 43
0.0
 10
-1.315234422683716
 20
2.815625190734863
 10
-1.299999952316284
 20
2.808333575725555
 10
-1.293619751930236
 20
2.803906500339508
 10
-1.284505128860473
 20
2.797526299953461
 10
-1.274088501930236
 20
2.790104448795319
 10
-1.266666650772114
 20
2.78489607572557
 10
-1.254557251930225
 20
2.776302337646476
 10
-1.237109422683715
 20
2.764192998409271
1001
CHIEFARC-LNWT
1070
     0
  0
LWPOLYLINE
  5
103
330
6F
100
AcDbEntity
  8
0
  6
CONTINUOUS
 62
   178
100
AcDbPolyline
 90
        3
 70
     0
 43
0.0
 10
-1.332161664962768
 20
2.830859541893005
 10
-1.313151121139526
 20
2.817708551883698
 10
-1.299999952316284
 20
2.808333575725555
1001
CHIEFARC-LNWT
1070
     0
  0
LWPOLYLINE
  5
104
330
6F
100
AcDbEntity
  8
0
  6
CONTINUOUS
 62
   178
100
AcDbPolyline
 90
       16
 70
     0
 43
0.0
 10
-1.515234470367431
 20
3.282291889190674
 10
-1.533333420753479
 20
3.281510591506958
 10
-1.519922018051147
 20
3.297526240348816
 10
-1.500000119209289
 20
3.32031285762787
 10
-1.490755319595334
 20
3.330859780311588
 10
-1.466666698455806
 20
3.357292056083683
 10
-1.46028649806976
 20
3.364193081855777
 10
-1.433333396911618
 20
3.392448306083682
 10
-1.394922018051147
 20
3.430859684944153
 10
-1.366666793823242
 20
3.457812786102295
 10
-1.359765768051147
 20
3.464192986488342
 10
-1.333333492279052
 20
3.488281607627869
 10
-1.322786569595337
 20
3.497526407241821
 10
-1.299999952316282
 20
3.517448306083681
 10
-1.283984303474437
 20
3.530859708786002
 10
-1.266666650772094
 20
3.545312762260437
1001
CHIEFARC-LNWT
1070
     0
  0
LWPOLYLINE
  5
105
330
6F
100
AcDbEntity
  8
0
  6
CONTINUOUS
 62
   178
100
AcDbPolyline
 90
       12
 70
     0
 43
0.0
 10
-1.400000095367432
 20
2.878385722637177
 10
-1.391796946525574
 20
2.872396111488342
 10
-1.381901144981384
 20
2.864193022251129
 10
-1.400000095367432
 20
2.864193022251129
 10
-1.391796946525574
 20
2.872396111488342
 10
-1.379817843437195
 20
2.864193022251129
 10
-1.372005343437194
 20
2.858854472637177
 10
-1.381901144981384
 20
2.848958551883698
 10
-1.381901144981384
 20
2.864193022251129
 10
-1.372005343437194
 20
2.858854472637177
 10
-1.366666793823242
 20
2.854948163032532
 10
-1.352474093437194
 20
2.845052301883698
1001
CHIEFARC-LNWT
1070
     0
  0
LWPOLYLINE
  5
106
330
6F
100
AcDbEntity
  8
0
  6
CONTINUOUS
 62
   178
100
AcDbPolyline
 90
        5
 70
     0
 43
0.0
 10
-1.333333492279052
 20
2.830859541893005
 10
-1.348567843437195
 20
2.830859541893005
 10
-1.352474093437194
 20
2.845052301883698
 10
-1.333333492279052
 20
2.831771016120911
 10
-1.348567843437195
 20
2.830859541893005
1001
CHIEFARC-LNWT
1070
     0
  0
LWPOLYLINE
  5
107
330
6F
100
AcDbEntity
  8
0
  6
CONTINUOUS
 62
   178
100
AcDbPolyline
 90
       23
 70
     0
 43
0.0
 10
-1.415234446525574
 20
2.882291972637177
 10
-1.400000095367432
 20
2.878385722637177
 10
-1.411328196525574
 20
2.886198222637177
 10
-1.427474021911621
 20
2.897526323795319
 10
-1.430859446525574
 20
2.900000274181366
 10
-1.433333396911621
 20
2.901562809944153
 10
-1.450390696525573
 20
2.9138023853302
 10
-1.46666669845581
 20
2.925000309944153
 10
-1.470182299613953
 20
2.927344083786011
 10
-1.481901168823242
 20
2.915625274181366
 10
-1.481901168823242
 20
2.930859684944153
 10
-1.470182299613953
 20
2.927344083786011
 10
-1.475130319595336
 20
2.930859684944153
 10
-1.489713668823242
 20
2.9411461353302
 10
-1.500000119209256
 20
2.948437809944129
 10
-1.509244918823249
 20
2.954948186874395
 10
-1.522526144981381
 20
2.964192986488341
 10
-1.529036521911621
 20
2.9684898853302
 10
-1.533333420753479
 20
2.971614897251129
 10
-1.533333420753479
 20
2.964192986488342
 10
-1.548567771911621
 20
2.964192986488342
 10
-1.533333420753479
 20
2.971614897251129
 10
-1.548567771911621
 20
2.982291996479034
1001
CHIEFARC-LNWT
1070
     0
  0
LWPOLYLINE
  5
108
330
6F
100
AcDbEntity
  8
0
  6
CONTINUOUS
 62
   178
100
AcDbPolyline
 90
        3
 70
     0
 43
0.0
 10
-1.333333492279052
 20
3.0308598279953
 10
-1.333333492279052
 20
3.064192891120911
 10
-1.333463668823242
 20
3.030729651451111
1001
CHIEFARC-LNWT
1070
     0
  0
LWPOLYLINE
  5
109
330
6F
100
AcDbEntity
  8
0
  6
CONTINUOUS
 62
   178
100
AcDbPolyline
 90
       14
 70
     0
 43
0.0
 10
1.851432204246521
 20
1.24895852804184
 10
1.847265601158143
 20
1.230859577655792
 10
1.856901049613953
 20
1.254427313804626
 10
1.860807299613952
 20
1.264192938804626
 10
1.866666674613954
 20
1.279427289962769
 10
1.873567700386047
 20
1.297526240348816
 10
1.877473950386046
 20
1.308333575725555
 10
1.885546922683712
 20
1.33085972070693
 10
1.895703077316286
 20
1.359896123409273
 10
1.897005200386047
 20
1.364193022251128
 10
1.899999976158142
 20
1.372916996479034
 10
1.90794277191162
 20
1.39752638339996
 10
1.911328196525573
 20
1.408854484558103
 10
1.918099045753479
 20
1.430859625339508
1001
CHIEFARC-LNWT
1070
     0
  0
LWPOLYLINE
  5
10A
330
6F
100
AcDbEntity
  8
0
  6
CONTINUOUS
 62
   178
100
AcDbPolyline
 90
        6
 70
     0
 43
0.0
 10
-1.802473902702332
 20
1.130859553813934
 10
-1.812369704246521
 20
1.151823163032532
 10
-1.818098902702332
 20
1.164193034172058
 10
-1.822786331176757
 20
1.174739897251128
 10
-1.832942605018616
 20
1.197526276111603
 10
-1.799999952316284
 20
1.230859577655792
1001
CHIEFARC-LNWT
1070
     0
  0
LWPOLYLINE
  5
10B
330
6F
100
AcDbEntity
  8
0
  6
CONTINUOUS
 62
   178
100
AcDbPolyline
 90
        9
 70
     0
 43
0.0
 10
-1.801692605018616
 20
1.129166841506958
 10
-1.799999952316284
 20
1.125781416893005
 10
-1.799999952316284
 20
1.130859553813934
 10
-1.781901121139526
 20
1.130859553813934
 10
-1.799999952316284
 20
1.125781416893005
 10
-1.790755152702332
 20
1.106771051883698
 10
-1.786067724227905
 20
1.097526252269745
 10
-1.779557347297668
 20
1.084635615348816
 10
-1.768880248069763
 20
1.064192891120911
1001
CHIEFARC-LNWT
1070
     0
  0
LWPOLYLINE
  5
10C
330
6F
100
AcDbEntity
  8
0
  6
CONTINUOUS
 62
   178
100
AcDbPolyline
 90
        9
 70
     0
 43
0.0
 10
-1.733333349227905
 20
0.9997397065162659
 10
-1.744661450386046
 20
1.019531428813934
 10
-1.750911474227905
 20
1.030859589576721
 10
-1.756380319595336
 20
1.041146039962769
 10
-1.766666769981384
 20
1.060156464576721
 10
-1.766666769981384
 20
1.064192891120911
 10
-1.748567819595337
 20
1.064192891120911
 10
-1.766666769981384
 20
1.060156464576721
 10
-1.768099069595336
 20
1.062760591506958
1001
CHIEFARC-LNWT
1070
     0
  0
LWPOLYLINE
  5
10D
330
6F
100
AcDbEntity
  8
0
  6
CONTINUOUS
 62
   178
100
AcDbPolyline
 90
        9
 70
     0
 43
0.0
 10
-1.670442819595336
 20
0.8975263833999634
 10
-1.681901097297668
 20
0.9156253337860109
 10
-1.691796898841858
 20
0.9308596849441549
 10
-1.694921851158144
 20
0.9359377622604396
 10
-1.699999928474428
 20
0.9440106153488195
 10
-1.707682251930232
 20
0.9565105438232339
 10
-1.712369799613953
 20
0.9641927480697647
 10
-1.720182299613953
 20
0.9773437976837158
 10
-1.732161521911621
 20
0.9975261688232422
1001
CHIEFARC-LNWT
1070
     0
  0
LWPOLYLINE
  5
10E
330
6F
100
AcDbEntity
  8
0
  6
CONTINUOUS
 62
   178
100
AcDbPolyline
 90
       10
 70
     0
 43
0.0
 10
1.951432347297669
 20
1.564192950725555
 10
1.948307394981384
 20
1.545833557844162
 10
1.944921970367432
 20
1.530859589576721
 10
1.937630414962769
 20
1.501823157072067
 10
1.936588644981384
 20
1.497526288032532
 10
1.933333516120911
 20
1.485416889190674
 10
1.927474141120911
 20
1.464192807674408
 10
1.925390720367432
 20
1.456250131130219
 10
1.918099045753479
 20
1.430859625339508
 10
1.918099045753479
 20
1.448958516120911
1001
CHIEFARC-LNWT
1070
     0
  0
LWPOLYLINE
  5
10F
330
6F
100
AcDbEntity
  8
0
  6
CONTINUOUS
 62
   178
100
AcDbPolyline
 90
       16
 70
     0
 43
0.0
 10
-1.433333396911621
 20
3.100520968437195
 10
-1.451171875
 20
3.113021016120911
 10
-1.46666669845581
 20
3.123958468437195
 10
-1.470703124999969
 20
3.126823067665079
 10
-1.47643232345581
 20
3.13085949420929
 10
-1.46666669845581
 20
3.13085949420929
 10
-1.46666669845581
 20
3.164193034172058
 10
-1.476432323455811
 20
3.13085949420929
 10
-1.490234494209289
 20
3.140625238418579
 10
-1.50000011920929
 20
3.147396087646484
 10
-1.510026097297668
 20
3.15416693687439
 10
-1.524088621139526
 20
3.164193034172058
 10
-1.529557347297668
 20
3.167969107627869
 10
-1.533333420753479
 20
3.170573234558105
 10
-1.549088597297668
 20
3.181771159172058
 10
-1.566666603088378
 20
3.194010734558105
1001
CHIEFARC-LNWT
1070
     0
  0
LWPOLYLINE
  5
110
330
6F
100
AcDbEntity
  8
0
  6
CONTINUOUS
 62
   178
100
AcDbPolyline
 90
        9
 70
     0
 43
0.0
 10
-1.665494918823242
 20
3.064192891120911
 10
-1.646484375
 20
3.051041960716248
 10
-1.633333325386047
 20
3.041666984558105
 10
-1.626953125
 20
3.037240028381348
 10
-1.617838501930236
 20
3.0308598279953
 10
-1.60742175579071
 20
3.023437976837158
 10
-1.599999904632568
 20
3.018489956855774
 10
-1.587630152702331
 20
3.009896278381348
 10
-1.570182204246521
 20
2.997526407241821
1001
CHIEFARC-LNWT
1070
     0
  0
LWPOLYLINE
  5
111
330
6F
100
AcDbEntity
  8
0
  6
CONTINUOUS
 62
   178
100
AcDbPolyline
 90
        8
 70
     0
 43
0.0
 10
-1.548567771911621
 20
3.248958587646484
 10
-1.566666603088378
 20
3.240625262260437
 10
-1.574348926544189
 20
3.230859637260437
 10
-1.588411331176757
 20
3.209114909172058
 10
-1.566666603088378
 20
3.230859637260437
 10
-1.566666603088378
 20
3.197526335716248
 10
-1.571744680404663
 20
3.197526335716248
 10
-1.588411331176757
 20
3.209114909172058
1001
CHIEFARC-LNWT
1070
     0
  0
LWPOLYLINE
  5
112
330
6F
100
AcDbEntity
  8
0
  6
CONTINUOUS
 62
   178
100
AcDbPolyline
 90
        3
 70
     0
 43
0.0
 10
-1.566666603088378
 20
3.240625262260437
 10
-1.547786474227905
 20
3.264192938804626
 10
-1.533333420753479
 20
3.281510591506958
1001
CHIEFARC-LNWT
1070
     0
  0
LWPOLYLINE
  5
113
330
6F
100
AcDbEntity
  8
0
  6
CONTINUOUS
 62
   178
100
AcDbPolyline
 90
        7
 70
     0
 43
0.0
 10
1.984505295753479
 20
1.748698160052299
 10
1.982161521911621
 20
1.730859637260437
 10
1.979296922683717
 20
1.710156500339508
 10
1.977473974227904
 20
1.697526276111603
 10
1.973046898841859
 20
1.670573234558105
 10
1.972005128860474
 20
1.664193034172058
 10
1.966666579246521
 20
1.633854359388351
1001
CHIEFARC-LNWT
1070
     0
  0
LWPOLYLINE
  5
114
330
6F
100
AcDbEntity
  8
0
  6
CONTINUOUS
 62
   178
100
AcDbPolyline
 90
        3
 70
     0
 43
0.0
 10
-1.568619728088379
 20
3.195573210716248
 10
-1.571744680404663
 20
3.197526335716248
 10
-1.566666603088378
 20
3.230859637260437
1001
CHIEFARC-LNWT
1070
     0
  0
LWPOLYLINE
  5
115
330
6F
100
AcDbEntity
  8
0
  6
CONTINUOUS
 62
   178
100
AcDbPolyline
 90
        5
 70
     0
 43
0.0
 10
-1.566666603088378
 20
2.995052456855774
 10
-1.548567771911621
 20
2.982291996479034
 10
-1.581900954246521
 20
2.982291996479034
 10
-1.581900954246521
 20
2.997526407241821
 10
-1.568098902702332
 20
2.996094107627869
1001
CHIEFARC-LNWT
1070
     0
  0
LWPOLYLINE
  5
116
330
6F
100
AcDbEntity
  8
0
  6
CONTINUOUS
 62
   178
100
AcDbPolyline
 90
       13
 70
     0
 43
0.0
 10
-1.833333253860473
 20
1.198177337646484
 10
-1.843098878860473
 20
1.221093952655792
 10
-1.847265601158142
 20
1.230859577655792
 10
-1.852994799613952
 20
1.244531452655792
 10
-1.860807299613952
 20
1.264192938804626
 10
-1.862369775772094
 20
1.268489837646484
 10
-1.866666674613953
 20
1.279427289962769
 10
-1.871744751930237
 20
1.292448103427887
 10
-1.873567700386047
 20
1.297526240348816
 10
-1.880598902702332
 20
1.316927373409271
 10
-1.885546922683716
 20
1.33085972070694
 10
-1.889453053474425
 20
1.341406583786011
 10
-1.897005200386047
 20
1.364193022251129
1001
CHIEFARC-LNWT
1070
     0
  0
LWPOLYLINE
  5
117
330
6F
100
AcDbEntity
  8
0
  6
CONTINUOUS
 62
   178
100
AcDbPolyline
 90
       14
 70
     0
 43
0.0
 10
-1.733333349227905
 20
2.995312869548798
 10
-1.715234398841858
 20
2.982291996479034
 10
-1.733333349227905
 20
2.982291996479034
 10
-1.733333349227905
 20
2.995312869548798
 10
-1.750911474227905
 20
2.964192986488342
 10
-1.766666769981384
 20
2.934896111488342
 10
-1.768880248069763
 20
2.930859684944152
 10
-1.771224021911618
 20
2.926302373409276
 10
-1.786067724227903
 20
2.897526323795322
 10
-1.799999952316286
 20
2.869271159172055
 10
-1.802473902702332
 20
2.864193022251129
 10
-1.804817676544189
 20
2.859375298023224
 10
-1.818098902702332
 20
2.830859541893005
 10
-1.832682251930236
 20
2.798177361488342
1001
CHIEFARC-LNWT
1070
     0
  0
LWPOLYLINE
  5
118
330
6F
100
AcDbEntity
  8
0
  6
CONTINUOUS
 62
   178
100
AcDbPolyline
 90
        6
 70
     0
 43
0.0
 10
-1.666666746139526
 20
3.065104365348816
 10
-1.691796898841857
 20
3.064192891120911
 10
-1.699999928474426
 20
3.051041960716248
 10
-1.712369799613952
 20
3.0308598279953
 10
-1.730338573455811
 20
3.000521183013916
 10
-1.732161521911621
 20
2.997526407241821
1001
CHIEFARC-LNWT
1070
     0
  0
LWPOLYLINE
  5
119
330
6F
100
AcDbEntity
  8
0
  6
CONTINUOUS
 62
   178
100
AcDbPolyline
 90
        3
 70
     0
 43
0.0
 10
-1.699999928474426
 20
3.051041960716248
 10
-1.681901097297668
 20
3.048958659172058
 10
-1.699999928474426
 20
3.048958659172058
1001
CHIEFARC-LNWT
1070
     0
  0
LWPOLYLINE
  5
11A
330
6F
100
AcDbEntity
  8
0
  6
CONTINUOUS
 62
   178
100
AcDbPolyline
 90
       14
 70
     0
 43
0.0
 10
-1.897786378860473
 20
1.366406559944153
 10
-1.899999976158142
 20
1.372916996479034
 10
-1.905859351158142
 20
1.391667008399963
 10
-1.907942771911621
 20
1.397526383399963
 10
-1.913932323455811
 20
1.416927397251129
 10
-1.918099045753479
 20
1.430859625339508
 10
-1.921484470367431
 20
1.442708551883698
 10
-1.92747414112091
 20
1.464192807674408
 10
-1.928776144981384
 20
1.46875011920929
 10
-1.933333516120911
 20
1.485416889190674
 10
-1.933333516120911
 20
1.497526288032532
 10
-1.915234446525573
 20
1.497526288032532
 10
-1.933333516120911
 20
1.485416889190674
 10
-1.935807466506958
 20
1.495052337646484
1001
CHIEFARC-LNWT
1070
     0
  0
LWPOLYLINE
  5
11B
330
6F
100
AcDbEntity
  8
0
  6
CONTINUOUS
 62
   178
100
AcDbPolyline
 90
       18
 70
     0
 43
0.0
 10
-1.966666579246521
 20
1.916146159172058
 10
-1.997526288032532
 20
1.897526383399963
 10
-1.99570333957672
 20
1.868489950895309
 10
-1.995442867279053
 20
1.864193081855774
 10
-1.993619918823242
 20
1.837239891290665
 10
-1.993099093437195
 20
1.830859661102295
 10
-1.990755319595337
 20
1.80677105486393
 10
-1.98997414112091
 20
1.797526240348816
 10
-1.987630367279052
 20
1.776562720537186
 10
-1.986328244209289
 20
1.764192938804626
 10
-1.98424482345581
 20
1.746614843606949
 10
-1.982161521911621
 20
1.730859637260437
 10
-1.98033857345581
 20
1.717187762260437
 10
-1.977473974227905
 20
1.697526276111603
 10
-1.975911498069763
 20
1.688281506299973
 10
-1.972005128860473
 20
1.664193034172058
 10
-1.971223950386047
 20
1.659635722637177
 10
-1.966666579246521
 20
1.633854359388351
1001
CHIEFARC-LNWT
1070
     0
  0
LWPOLYLINE
  5
11C
330
6F
100
AcDbEntity
  8
0
  6
CONTINUOUS
 62
   178
100
AcDbPolyline
 90
        9
 70
     0
 43
0.0
 10
-1.966015577316284
 20
1.630859553813934
 10
-1.960807204246521
 20
1.603385627269745
 10
-1.959505200386047
 20
1.597526252269745
 10
-1.955078125
 20
1.575781494379044
 10
-1.952473998069763
 20
1.564192950725555
 10
-1.948828220367431
 20
1.548698157072067
 10
-1.944921970367431
 20
1.530859589576721
 10
-1.942578196525574
 20
1.521614819765091
 10
-1.936588644981384
 20
1.497526288032532
1001
CHIEFARC-LNWT
1070
     0
  0
LWPOLYLINE
  5
11D
330
6F
100
AcDbEntity
  8
0
  6
CONTINUOUS
 62
   178
100
AcDbPolyline
 90
       18
 70
     0
 43
0.0
 10
-1.966666579246521
 20
2.361198216676712
 10
-1.948567748069763
 20
2.34895858168602
 10
-1.966666579246521
 20
2.34895858168602
 10
-1.966666579246521
 20
2.361198216676712
 10
-1.972005128860473
 20
2.330859541893005
 10
-1.973046898841858
 20
2.324479341506958
 10
-1.977473974227905
 20
2.297526299953461
 10
-1.979296922683715
 20
2.284896075725555
 10
-1.982161521911621
 20
2.264192938804626
 10
-1.984505295753479
 20
2.246354416012764
 10
-1.986328244209289
 20
2.230859637260437
 10
-1.988932371139526
 20
2.208594039082527
 10
-1.98997414112091
 20
2.197526335716248
 10
-1.992317914962768
 20
2.171875223517418
 10
-1.993099093437195
 20
2.164192914962769
 10
-1.995182514190673
 20
2.135677218437195
 10
-1.995442867279053
 20
2.13085949420929
 10
-1.997265815734863
 20
2.100260563194752
1001
CHIEFARC-LNWT
1070
     0
  0
LWPOLYLINE
  5
11E
330
6F
100
AcDbEntity
  8
0
  6
CONTINUOUS
 62
   178
100
AcDbPolyline
 90
       16
 70
     0
 43
0.0
 10
-1.866666674613953
 20
2.715625286102295
 10
-1.873567700386047
 20
2.697526335716248
 10
-1.877473950386047
 20
2.686719000339508
 10
-1.885546922683716
 20
2.664192855358124
 10
-1.895703077316284
 20
2.635156452655792
 10
-1.897005200386047
 20
2.630859553813934
 10
-1.899999976158142
 20
2.622135579586029
 10
-1.899999976158142
 20
2.615625143051147
 10
-1.881901025772094
 20
2.615625143051147
 10
-1.899999976158142
 20
2.622135579586029
 10
-1.907942771911621
 20
2.5975261926651
 10
-1.911328196525573
 20
2.586198091506958
 10
-1.918099045753479
 20
2.564192950725555
 10
-1.925390720367431
 20
2.538802444934845
 10
-1.92747414112091
 20
2.530859768390656
 10
-1.933333516120911
 20
2.50963568687439
1001
CHIEFARC-LNWT
1070
     0
  0
LWPOLYLINE
  5
11F
330
6F
100
AcDbEntity
  8
0
  6
CONTINUOUS
 62
   178
100
AcDbPolyline
 90
        6
 70
     0
 43
0.0
 10
-1.848567724227905
 20
2.715625286102295
 10
-1.866666674613953
 20
2.715625286102295
 10
-1.860807299613952
 20
2.730859637260437
 10
-1.856901049613953
 20
2.740625262260437
 10
-1.847265601158142
 20
2.764192998409271
 10
-1.833333253860473
 20
2.796875238418579
1001
CHIEFARC-LNWT
1070
     0
  0
LWPOLYLINE
  5
120
330
6F
100
AcDbEntity
  8
0
  6
CONTINUOUS
 62
   178
100
AcDbPolyline
 90
       10
 70
     0
 43
0.0
 10
-1.915234446525573
 20
2.515625298023224
 10
-1.933333516120911
 20
2.50963568687439
 10
-1.936588644981384
 20
2.497526288032532
 10
-1.937630414962768
 20
2.493229418992996
 10
-1.944921970367431
 20
2.464192986488342
 10
-1.948307394981384
 20
2.449219018220901
 10
-1.952473998069763
 20
2.430859625339508
 10
-1.957682251930237
 20
2.406510680913925
 10
-1.959505200386047
 20
2.397526323795319
 10
-1.966015577316284
 20
2.364844053983688
1001
CHIEFARC-LNWT
1070
     0
  0
LINE
  5
121
330
6F
100
AcDbEntity
  8
0
  6
CONTINUOUS
 62
   178
100
AcDbLine
 10
1.877473950386046
 20
1.308333575725555
 30
0.0
 11
1.884765625
 21
1.33085972070694
 31
0.0
1001
CHIEFARC-LNWT
1070
     0
  0
LINE
  5
122
330
6F
100
AcDbEntity
  8
0
  6
CONTINUOUS
 62
   178
100
AcDbLine
 10
1.751432299613953
 20
2.9489586353302
 30
0.0
 11
1.766666769981384
 21
2.934896111488342
 31
0.0
1001
CHIEFARC-LNWT
1070
     0
  0
LINE
  5
123
330
6F
100
AcDbEntity
  8
0
  6
CONTINUOUS
 62
   178
100
AcDbLine
 10
1.750911474227905
 20
1.030859589576721
 30
0.0
 11
1.733333349227905
 21
0.9997397065162659
 31
0.0
1001
CHIEFARC-LNWT
1070
     0
  0
LINE
  5
124
330
6F
100
AcDbEntity
  8
0
  6
CONTINUOUS
 62
   178
100
AcDbLine
 10
1.818098902702332
 20
1.164193034172058
 30
0.0
 11
1.818098902702332
 21
1.182291924953461
 31
0.0
1001
CHIEFARC-LNWT
1070
     0
  0
LINE
  5
125
330
6F
100
AcDbEntity
  8
0
  6
CONTINUOUS
 62
   178
100
AcDbLine
 10
1.847265601158143
 20
1.230859577655792
 30
0.0
 11
1.833333253860474
 21
1.198177337646484
 31
0.0
1001
CHIEFARC-LNWT
1070
     0
  0
LINE
  5
126
330
6F
100
AcDbEntity
  8
0
  6
CONTINUOUS
 62
   178
100
AcDbLine
 10
1.918099045753479
 20
2.515625298023224
 30
0.0
 11
1.933333516120911
 21
2.50963568687439
 31
0.0
1001
CHIEFARC-LNWT
1070
     0
  0
LINE
  5
127
330
6F
100
AcDbEntity
  8
0
  6
CONTINUOUS
 62
   178
100
AcDbLine
 10
1.647786498069763
 20
0.8641930818557739
 30
0.0
 11
1.651432275772095
 21
0.8822920322418213
 31
0.0
1001
CHIEFARC-LNWT
1070
     0
  0
LINE
  5
128
330
6F
100
AcDbEntity
  8
0
  6
CONTINUOUS
 62
   178
100
AcDbLine
 10
1.599999904632569
 20
0.7975262403488159
 30
0.0
 11
1.599999904632569
 21
0.8308595418930054
 31
0.0
1001
CHIEFARC-LNWT
1070
     0
  0
LINE
  5
129
330
6F
100
AcDbEntity
  8
0
  6
CONTINUOUS
 62
   178
100
AcDbLine
 10
1.599999904632569
 20
3.197526335716248
 30
0.0
 11
1.584765553474426
 21
3.197526335716248
 31
0.0
1001
CHIEFARC-LNWT
1070
     0
  0
LINE
  5
12A
330
6F
100
AcDbEntity
  8
0
  6
CONTINUOUS
 62
   178
100
AcDbLine
 10
1.547786474227904
 20
0.730859637260437
 30
0.0
 11
1.551432251930237
 21
0.7489585876464844
 31
0.0
1001
CHIEFARC-LNWT
1070
     0
  0
LINE
  5
12B
330
6F
100
AcDbEntity
  8
0
  6
CONTINUOUS
 62
   178
100
AcDbLine
 10
1.551432251930237
 20
3.248958587646484
 30
0.0
 11
1.566666603088379
 21
3.240625262260437
 31
0.0
1001
CHIEFARC-LNWT
1070
     0
  0
LINE
  5
12C
330
6F
100
AcDbEntity
  8
0
  6
CONTINUOUS
 62
   178
100
AcDbLine
 10
1.25
 20
1.930859684944153
 30
0.0
 11
1.251432299613953
 21
1.91562532633543
 31
0.0
1001
CHIEFARC-LNWT
1070
     0
  0
LINE
  5
12D
330
6F
100
AcDbEntity
  8
0
  6
CONTINUOUS
 62
   178
100
AcDbLine
 10
1.275650978088379
 20
0.6065105199813843
 30
0.0
 11
1.266666650772094
 21
0.5975261926651001
 31
0.0
1001
CHIEFARC-LNWT
1070
     0
  0
LINE
  5
12E
330
6F
100
AcDbEntity
  8
0
  6
CONTINUOUS
 62
   178
100
AcDbLine
 10
1.218098998069763
 20
0.664192795753479
 30
0.0
 11
1.208984375000001
 21
0.6731772422790527
 31
0.0
1001
CHIEFARC-LNWT
1070
     0
  0
LINE
  5
12F
330
6F
100
AcDbEntity
  8
0
  6
CONTINUOUS
 62
   178
100
AcDbLine
 10
1.318099021911621
 20
0.5641928911209106
 30
0.0
 11
1.308984398841859
 21
0.5731772184371948
 31
0.0
1001
CHIEFARC-LNWT
1070
     0
  0
LINE
  5
130
330
6F
100
AcDbEntity
  8
0
  6
CONTINUOUS
 62
   178
100
AcDbLine
 10
1.200000047683715
 20
0.3975263833999634
 30
0.0
 11
1.233333349227905
 21
0.4308596849441528
 31
0.0
1001
CHIEFARC-LNWT
1070
     0
  0
LINE
  5
131
330
6F
100
AcDbEntity
  8
0
  6
CONTINUOUS
 62
   178
100
AcDbLine
 10
1.118098855018616
 20
3.648958563804626
 30
0.0
 11
1.133333206176758
 21
3.645312786102295
 31
0.0
1001
CHIEFARC-LNWT
1070
     0
  0
LINE
  5
132
330
6F
100
AcDbEntity
  8
0
  6
CONTINUOUS
 62
   178
100
AcDbLine
 10
1.351432204246518
 20
3.464192986488342
 30
0.0
 11
0.8514322042465228
 21
2.964192986488342
 31
0.0
1001
CHIEFARC-LNWT
1070
     0
  0
LINE
  5
133
330
6F
100
AcDbEntity
  8
0
  6
CONTINUOUS
 62
   178
100
AcDbLine
 10
1.118098855018616
 20
0.3489584922790527
 30
0.0
 11
1.1055988073349
 21
0.3308595418930054
 31
0.0
1001
CHIEFARC-LNWT
1070
     0
  0
LINE
  5
134
330
6F
100
AcDbEntity
  8
0
  6
CONTINUOUS
 62
   178
100
AcDbLine
 10
1.075650930404663
 20
0.8065105676651001
 30
0.0
 11
1.084765553474426
 21
0.7975262403488159
 31
0.0
1001
CHIEFARC-LNWT
1070
     0
  0
LINE
  5
135
330
6F
100
AcDbEntity
  8
0
  6
CONTINUOUS
 62
   178
100
AcDbLine
 10
1.033333539962769
 20
0.8308595418930054
 30
0.0
 11
1.042317867279053
 21
0.8398439884185791
 31
0.0
1001
CHIEFARC-LNWT
1070
     0
  0
LINE
  5
136
330
6F
100
AcDbEntity
  8
0
  6
CONTINUOUS
 62
   178
100
AcDbLine
 10
0.8847656846046457
 20
1.115625202655792
 30
0.0
 11
0.8678386211395264
 21
1.097526252269745
 31
0.0
1001
CHIEFARC-LNWT
1070
     0
  0
LINE
  5
137
330
6F
100
AcDbEntity
  8
0
  6
CONTINUOUS
 62
   178
100
AcDbLine
 10
0.9011719226837167
 20
1.130859553813934
 30
0.0
 11
0.9180989861488342
 21
1.148958563804626
 31
0.0
1001
CHIEFARC-LNWT
1070
     0
  0
LINE
  5
138
330
6F
100
AcDbEntity
  8
0
  6
CONTINUOUS
 62
   178
100
AcDbLine
 10
0.9333333969116211
 20
0.9308596849441528
 30
0.0
 11
0.9423177838325492
 21
0.939844012260437
 31
0.0
1001
CHIEFARC-LNWT
1070
     0
  0
LINE
  5
139
330
6F
100
AcDbEntity
  8
0
  6
CONTINUOUS
 62
   178
100
AcDbLine
 10
0.9000000357627869
 20
0.9641927480697632
 30
0.0
 11
0.9089844226837158
 21
0.9731771945953369
 31
0.0
1001
CHIEFARC-LNWT
1070
     0
  0
LINE
  5
13A
330
6F
100
AcDbEntity
  8
0
  6
CONTINUOUS
 62
   178
100
AcDbLine
 10
0.7180989980697641
 20
3.864192962646484
 30
0.0
 11
0.7290364503860474
 21
3.859896063804626
 31
0.0
1001
CHIEFARC-LNWT
1070
     0
  0
LINE
  5
13B
330
6F
100
AcDbEntity
  8
0
  6
CONTINUOUS
 62
   178
100
AcDbLine
 10
0.5666666626930237
 20
3.915625333786011
 30
0.0
 11
0.5514323711395273
 21
3.915625333786011
 31
0.0
1001
CHIEFARC-LNWT
1070
     0
  0
LINE
  5
13C
330
6F
100
AcDbEntity
  8
0
  6
CONTINUOUS
 62
   178
100
AcDbLine
 10
-0.0819009616971016
 20
3.248958587646484
 30
0.0
 11
-0.066666603088378
 21
3.247526288032532
 31
0.0
1001
CHIEFARC-LNWT
1070
     0
  0
LINE
  5
13D
330
6F
100
AcDbEntity
  8
0
  6
CONTINUOUS
 62
   178
100
AcDbLine
 10
-0.0813801288604736
 20
0.0308597087860107
 30
0.0
 11
-0.0999999046325684
 21
0.0
 31
0.0
1001
CHIEFARC-LNWT
1070
     0
  0
LINE
  5
13E
330
6F
100
AcDbEntity
  8
0
  6
CONTINUOUS
 62
   178
100
AcDbLine
 10
-1.033333539962769
 20
3.709896087646484
 30
0.0
 11
-1.015234589576721
 21
3.715625166893005
 31
0.0
1001
CHIEFARC-LNWT
1070
     0
  0
LINE
  5
13F
330
6F
100
AcDbEntity
  8
0
  6
CONTINUOUS
 62
   178
100
AcDbLine
 10
-1.033333539962769
 20
2.70104193687439
 30
0.0
 11
-1.015234589576721
 21
2.715625286102295
 31
0.0
1001
CHIEFARC-LNWT
1070
     0
  0
LINE
  5
140
330
6F
100
AcDbEntity
  8
0
  6
CONTINUOUS
 62
   178
100
AcDbLine
 10
-0.9819011092185974
 20
2.748958587646484
 30
0.0
 11
-1.00000011920929
 21
2.748698174953461
 31
0.0
1001
CHIEFARC-LNWT
1070
     0
  0
LINE
  5
141
330
6F
100
AcDbEntity
  8
0
  6
CONTINUOUS
 62
   178
100
AcDbLine
 10
-1.181901097297668
 20
2.715625286102295
 30
0.0
 11
-1.166666746139526
 21
2.714844048023224
 31
0.0
1001
CHIEFARC-LNWT
1070
     0
  0
LINE
  5
142
330
6F
100
AcDbEntity
  8
0
  6
CONTINUOUS
 62
   178
100
AcDbLine
 10
-1.181901097297668
 20
3.5975261926651
 30
0.0
 11
-1.200000047683715
 21
3.5975261926651
 31
0.0
1001
CHIEFARC-LNWT
1070
     0
  0
LINE
  5
143
330
6F
100
AcDbEntity
  8
0
  6
CONTINUOUS
 62
   178
100
AcDbLine
 10
-1.215234398841857
 20
2.748958587646484
 30
0.0
 11
-1.233333349227905
 21
2.761719048023224
 31
0.0
1001
CHIEFARC-LNWT
1070
     0
  0
LINE
  5
144
330
6F
100
AcDbEntity
  8
0
  6
CONTINUOUS
 62
   178
100
AcDbLine
 10
-1.50000011920929
 20
2.948437809944153
 30
0.0
 11
-1.515234470367431
 21
2.9489586353302
 31
0.0
1001
CHIEFARC-LNWT
1070
     0
  0
LINE
  5
145
330
6F
100
AcDbEntity
  8
0
  6
CONTINUOUS
 62
   178
100
AcDbLine
 10
-1.766666769981384
 20
2.934896111488342
 30
0.0
 11
-1.748567819595337
 21
2.9489586353302
 31
0.0
1001
CHIEFARC-LNWT
1070
     0
  0
LINE
  5
146
330
6F
100
AcDbEntity
  8
0
  6
CONTINUOUS
 62
   178
100
AcDbLine
 10
-1.781901121139526
 20
2.882291972637177
 30
0.0
 11
-1.799999952316284
 21
2.869271159172058
 31
0.0
1001
CHIEFARC-LNWT
1070
     0
  0
LINE
  5
147
330
6F
100
AcDbEntity
  8
0
  6
CONTINUOUS
 62
   178
100
AcDbLine
 10
-1.691796898841857
 20
3.064192891120911
 30
0.0
 11
-1.666666746139526
 21
3.064192891120911
 31
0.0
1001
CHIEFARC-LNWT
1070
     0
  0
LINE
  5
148
330
6F
100
AcDbEntity
  8
0
  6
CONTINUOUS
 62
   178
100
AcDbLine
 10
-1.633333325386047
 20
3.041666984558105
 30
0.0
 11
-1.648567795753479
 21
3.048958659172058
 31
0.0
1001
CHIEFARC-LNWT
1070
     0
  0
ENDBLK
  5
14A
330
6F
100
AcDbEntity
  8
0
100
AcDbBlockEnd
  0
ENDSEC
  0
SECTION
  2
ENTITIES
  0
INSERT
  5
14B
330
1F
100
AcDbEntity
  8
FIXTURES__INTERIOR
  6
CONTINUOUS
100
AcDbBlockReference
  2
WIDGET
 10
284.0
 20
123.0049474239349
 30
0.0
 50
360.0
1001
CHIEFARC-LNWT
1070
     0
  0
INSERT
  5
14D
330
1F
100
AcDbEntity
  8
FIXTURES__INTERIOR
100
AcDbBlockReference
  2
WIDGET
 10
288.5
 20
123.0049474239349
 30
0.0
 50
360.0
  0
INSERT
  5
14E
330
1F
100
AcDbEntity
  8
FIXTURES__INTERIOR
100
AcDbBlockReference
  2
WIDGET
 10
293.0
 20
123.0049474239349
 30
0.0
 50
360.0
  0
INSERT
  5
14F
330
1F
100
AcDbEntity
  8
FIXTURES__INTERIOR
100
AcDbBlockReference
  2
WIDGET
 10
297.5
 20
123.0049474239349
 30
0.0
 50
360.0
  0
INSERT
  5
150
330
1F
100
AcDbEntity
  8
FIXTURES__INTERIOR
100
AcDbBlockReference
  2
WIDGET
 10
284.0
 20
118.5049474239349
 30
0.0
 50
360.0
  0
INSERT
  5
151
330
1F
100
AcDbEntity
  8
FIXTURES__INTERIOR
100
AcDbBlockReference
  2
WIDGET
 10
288.5
 20
118.5049474239349
 30
0.0
 50
360.0
  0
INSERT
  5
152
330
1F
100
AcDbEntity
  8
FIXTURES__INTERIOR
100
AcDbBlockReference
  2
WIDGET
 10
293.0
 20
118.5049474239349
 30
0.0
 50
360.0
  0
INSERT
  5
153
330
1F
100
AcDbEntity
  8
FIXTURES__INTERIOR
100
AcDbBlockReference
  2
WIDGET
 10
297.5
 20
118.5049474239349
 30
0.0
 50
360.0
  0
INSERT
  5
154
330
1F
100
AcDbEntity
  8
FIXTURES__INTERIOR
100
AcDbBlockReference
  2
WIDGET
 10
284.0
 20
114.0049474239349
 30
0.0
 50
360.0
  0
INSERT
  5
155
330
1F
100
AcDbEntity
  8
FIXTURES__INTERIOR
100
AcDbBlockReference
  2
WIDGET
 10
288.5
 20
114.0049474239349
 30
0.0
 50
360.0
  0
INSERT
  5
156
330
1F
100
AcDbEntity
  8
FIXTURES__INTERIOR
100
AcDbBlockReference
  2
WIDGET
 10
293.0
 20
114.0049474239349
 30
0.0
 50
360.0
  0
INSERT
  5
157
330
1F
100
AcDbEntity
  8
FIXTURES__INTERIOR
100
AcDbBlockReference
  2
WIDGET
 10
297.5
 20
114.0049474239349
 30
0.0
 50
360.0
  0
INSERT
  5
158
330
1F
100
AcDbEntity
  8
FIXTURES__INTERIOR
100
AcDbBlockReference
  2
WIDGET
 10
284.0
 20
109.5049474239349
 30
0.0
 50
360.0
  0
INSERT
  5
159
330
1F
100
AcDbEntity
  8
FIXTURES__INTERIOR
100
AcDbBlockReference
  2
WIDGET
 10
288.5
 20
109.5049474239349
 30
0.0
 50
360.0
  0
INSERT
  5
15A
330
1F
100
AcDbEntity
  8
FIXTURES__INTERIOR
100
AcDbBlockReference
  2
WIDGET
 10
293.0
 20
109.5049474239349
 30
0.0
 50
360.0
  0
INSERT
  5
15B
330
1F
100
AcDbEntity
  8
FIXTURES__INTERIOR
100
AcDbBlockReference
  2
WIDGET
 10
297.5
 20
109.5049474239349
 30
0.0
 50
360.0
  0
ENDSEC
  0
SECTION
  2
OBJECTS
  0
DICTIONARY
  5
C
330
0
100
AcDbDictionary
  3
ACAD_GROUP
350
D
  3
ACAD_LAYOUT
350
1A
  3
ACAD_MATERIAL
350
43
  3
ACAD_MLEADERSTYLE
350
6B
  3
ACAD_MLINESTYLE
350
17
  3
ACAD_PLOTSETTINGS
350
19
  3
ACAD_SCALELIST
350
47
  3
ACAD_VISUALSTYLE
350
2A
  3
ACDBHEADERROUNDTRIPXREC
350
15E
  3
ACDBVARIABLEDICTIONARY
350
17F
  3
DWGPROPS
350
186
  0
DICTIONARY
  5
187
330
8
100
AcDbDictionary
280
     1
  3
ACAD_XREC_ROUNDTRIP
360
188
  0
DICTIONARY
  5
D
102
{ACAD_REACTORS
330
C
102
}
330
C
100
AcDbDictionary
  0
DICTIONARY
  5
1A
102
{ACAD_REACTORS
330
C
102
}
330
C
100
AcDbDictionary
  0
DICTIONARY
  5
43
102
{ACAD_REACTORS
330
C
102
}
330
C
100
AcDbDictionary
  3
BYBLOCK
350
45
  3
BYLAYER
350
44
  3
GLOBAL
350
46
  0
DICTIONARY
  5
6B
102
{ACAD_REACTORS
330
C
102
}
330
C
100
AcDbDictionary
  3
STANDARD
350
6C
  0
DICTIONARY
  5
17
102
{ACAD_REACTORS
330
C
102
}
330
C
100
AcDbDictionary
  3
STANDARD
350
18
  0
DICTIONARY
  5
19
102
{ACAD_REACTORS
330
C
102
}
330
C
100
AcDbDictionary
  0
DICTIONARY
  5
47
102
{ACAD_REACTORS
330
C
102
}
330
C
100
AcDbDictionary
  3
A0
350
48
  3
A1
350
49
  3
A2
350
4A
  3
A3
350
4B
  3
A4
350
4C
  3
A5
350
4D
  3
A6
350
4E
  3
A7
350
4F
  3
A8
350
50
  3
A9
350
51
  3
B0
350
52
  3
B1
350
53
  3
B2
350
54
  3
B3
350
55
  3
B4
350
56
  3
B5
350
57
  3
B6
350
58
  3
B7
350
59
  3
B8
350
5A
  3
B9
350
5B
  3
C0
350
5C
  3
C1
350
5D
  3
C2
350
5E
  3
C3
350
5F
  3
C4
350
60
  3
C5
350
61
  3
C6
350
62
  3
C7
350
63
  3
C8
350
64
  3
C9
350
65
  3
D0
350
66
  3
D1
350
67
  3
D2
350
68
  0
DICTIONARY
  5
2A
102
{ACAD_REACTORS
330
C
102
}
330
C
100
AcDbDictionary
  3
2DWIREFRAME
350
2F
  3
BASIC
350
32
  3
BRIGHTEN
350
36
  3
COLORCHANGE
350
3A
  3
CONCEPTUAL
350
34
  3
DIM
350
35
  3
EDGECOLOROFF
350
3D
  3
FACEPATTERN
350
39
  3
FLAT
350
2B
  3
FLATWITHEDGES
350
2C
  3
GOURAUD
350
2D
  3
GOURAUDWITHEDGES
350
2E
  3
HIDDEN
350
31
  3
JITTEROFF
350
3B
  3
LINEPATTERN
350
38
  3
OVERHANGOFF
350
3C
  3
REALISTIC
350
33
  3
SHADED
350
42
  3
SHADED_WITH_EDGES
350
41
  3
SHADES_OF_GRAY
350
3E
  3
SKETCHY
350
3F
  3
THICKEN
350
37
  3
WIREFRAME
350
30
  3
X-RAY
350
40
  0
DICTIONARY
  5
15E
102
{ACAD_REACTORS
330
C
102
}
330
C
100
AcDbDictionary
  3
CEPSNID
350
168
  3
CEPSNTYPE
350
167
  3
DIMSTYLEDATA
350
17E
  3
FINGERPRINTGUID
350
169
  3
HYPERLINKBASE
350
161
  3
INSUNITS
350
166
  3
LAYOUTDICT
350
163
  3
LWETCUNION
350
165
  3
PLOTSETDICT
350
164
  3
PSVPSCALE
350
16B
  3
PUCSBASE
350
16E
  3
PUCSORGBACK
350
174
  3
PUCSORGBOTTOM
350
170
  3
PUCSORGFRONT
350
173
  3
PUCSORGLEFT
350
171
  3
PUCSORGRIGHT
350
172
  3
PUCSORGTOP
350
16F
  3
PUCSORTHOREF
350
16C
  3
PUCSORTHOVIEW
350
16D
  3
STYLESHEET
350
162
  3
TSTACKALIGN
350
15F
  3
TSTACKSIZE
350
160
  3
UCSBASE
350
177
  3
UCSORGBACK
350
17D
  3
UCSORGBOTTOM
350
179
  3
UCSORGFRONT
350
17C
  3
UCSORGLEFT
350
17A
  3
UCSORGRIGHT
350
17B
  3
UCSORGTOP
350
178
  3
UCSORTHOREF
350
175
  3
UCSORTHOVIEW
350
176
  3
VERSIONGUID
350
16A
  0
DICTIONARY
  5
17F
102
{ACAD_REACTORS
330
C
102
}
330
C
100
AcDbDictionary
  3
CANNOSCALE
350
189
  3
CMLEADERSTYLE
350
181
  3
CTABLESTYLE
350
180
  3
DIMASSOC
350
184
  3
HIDETEXT
350
185
  3
MSLTSCALE
350
18A
  0
XRECORD
  5
186
102
{ACAD_REACTORS
330
C
102
}
330
C
100
AcDbXrecord
  1
DWGPROPS COOKIE
  2

  3

  4

  6
Chief Architect Premier X9; Version 19.2.0.39; Chief Architect, Inc.; 2017
  7

  8

  9

300
=
301
=
302
=
303
=
304
=
305
=
306
=
307
=
308
=
309
=
 40
0.0
 41
2458056.931883125
 42
2458056.931883252
  1

 90
        0
  0
XRECORD
  5
188
102
{ACAD_REACTORS
330
187
102
}
330
187
100
AcDbXrecord
102
VTR_0.000_0.000_1.000_1.000_VISUALSTYLE
340
2F
102
VTR_0.000_0.000_1.000_1.000_GRIDDISPLAY
 70
     3
102
VTR_0.000_0.000_1.000_1.000_GRIDMAJOR
 70
     5
102
VTR_0.000_0.000_1.000_1.000_DEFAULTLIGHTING
280
     1
102
VTR_0.000_0.000_1.000_1.000_DEFAULTLIGHTINGTYPE
 70
     1
102
VTR_0.000_0.000_1.000_1.000_BRIGHTNESS
141
0.0
102
VTR_0.000_0.000_1.000_1.000_CONTRAST
142
0.0
  0
MATERIAL
  5
45
102
{ACAD_REACTORS
330
43
102
}
102
{ACAD_XDICTIONARY
360
18D
102
}
330
43
100
AcDbMaterial
  1
BYBLOCK
  0
MATERIAL
  5
44
102
{ACAD_REACTORS
330
43
102
}
102
{ACAD_XDICTIONARY
360
18B
102
}
330
43
100
AcDbMaterial
  1
BYLAYER
  0
MATERIAL
  5
46
102
{ACAD_REACTORS
330
43
102
}
102
{ACAD_XDICTIONARY
360
18F
102
}
330
43
100
AcDbMaterial
  1
GLOBAL
  0
ACAD_PROXY_OBJECT
  5
6C
102
{ACAD_REACTORS
330
6B
102
}
330
6B
100
AcDbProxyObject
 90
      499
 91
      505
 93
      610
310
40901902A4063FBFFFFFE056BD1B81E855B9FC0AD7A3703D0AD73F4214DD185B99185C9900AD7A3703D0AC73F90141901A02B5E8DC0F42B1CFC02B5E8DC0F42B1CFE5764000000000000300FC0
340
14
340
0
340
11
340
0
 94
        0
1001
ACAD_MLEADERVER
1070
     2
  0
MLINESTYLE
  5
18
102
{ACAD_REACTORS
330
17
102
}
330
17
100
AcDbMlineStyle
  2
Standard
 70
     0
  3

 62
   256
 51
90.0
 52
90.0
 71
     2
 49
0.5
 62
   256
  6
BYLAYER
 49
-0.5
 62
   256
  6
BYLAYER
  0
ACAD_PROXY_OBJECT
  5
48
102
{ACAD_REACTORS
330
47
102
}
330
47
100
AcDbProxyObject
 90
      499
 91
      503
 93
       41
310
903313A31580
  0
ACAD_PROXY_OBJECT
  5
49
102
{ACAD_REACTORS
330
47
102
}
330
47
100
AcDbProxyObject
 90
      499
 91
      503
 93
      105
310
903313A324000000000000004000
  0
ACAD_PROXY_OBJECT
  5
4A
102
{ACAD_REACTORS
330
47
102
}
330
47
100
AcDbProxyObject
 90
      499
 91
      503
 93
      105
310
903313A344000000000000104000
  0
ACAD_PROXY_OBJECT
  5
4B
102
{ACAD_REACTORS
330
47
102
}
330
47
100
AcDbProxyObject
 90
      499
 91
      503
 93
      105
310
903313A354000000000000144000
  0
ACAD_PROXY_OBJECT
  5
4C
102
{ACAD_REACTORS
330
47
102
}
330
47
100
AcDbProxyObject
 90
      499
 91
      503
 93
      105
310
903313A384000000000000204000
  0
ACAD_PROXY_OBJECT
  5
4D
102
{ACAD_REACTORS
330
47
102
}
330
47
100
AcDbProxyObject
 90
      499
 91
      503
 93
      113
310
904313A31304000000000000244000
  0
ACAD_PROXY_OBJECT
  5
4E
102
{ACAD_REACTORS
330
47
102
}
330
47
100
AcDbProxyObject
 90
      499
 91
      503
 93
      113
310
904313A31364000000000000304000
  0
ACAD_PROXY_OBJECT
  5
4F
102
{ACAD_REACTORS
330
47
102
}
330
47
100
AcDbProxyObject
 90
      499
 91
      503
 93
      113
310
904313A32304000000000000344000
  0
ACAD_PROXY_OBJECT
  5
50
102
{ACAD_REACTORS
330
47
102
}
330
47
100
AcDbProxyObject
 90
      499
 91
      503
 93
      113
310
904313A333040000000000003E4000
  0
ACAD_PROXY_OBJECT
  5
51
102
{ACAD_REACTORS
330
47
102
}
330
47
100
AcDbProxyObject
 90
      499
 91
      503
 93
      113
310
904313A34304000000000000444000
  0
ACAD_PROXY_OBJECT
  5
52
102
{ACAD_REACTORS
330
47
102
}
330
47
100
AcDbProxyObject
 90
      499
 91
      503
 93
      113
310
904313A35304000000000000494000
  0
ACAD_PROXY_OBJECT
  5
53
102
{ACAD_REACTORS
330
47
102
}
330
47
100
AcDbProxyObject
 90
      499
 91
      503
 93
      121
310
905313A3130304000000000000594000
  0
ACAD_PROXY_OBJECT
  5
54
102
{ACAD_REACTORS
330
47
102
}
330
47
100
AcDbProxyObject
 90
      499
 91
      503
 93
      105
310
903323A310000000000000010100
  0
ACAD_PROXY_OBJECT
  5
55
102
{ACAD_REACTORS
330
47
102
}
330
47
100
AcDbProxyObject
 90
      499
 91
      503
 93
      105
310
903343A310000000000000410100
  0
ACAD_PROXY_OBJECT
  5
56
102
{ACAD_REACTORS
330
47
102
}
330
47
100
AcDbProxyObject
 90
      499
 91
      503
 93
      105
310
903383A310000000000000810100
  0
ACAD_PROXY_OBJECT
  5
57
102
{ACAD_REACTORS
330
47
102
}
330
47
100
AcDbProxyObject
 90
      499
 91
      503
 93
      113
310
90431303A310000000000000910100
  0
ACAD_PROXY_OBJECT
  5
58
102
{ACAD_REACTORS
330
47
102
}
330
47
100
AcDbProxyObject
 90
      499
 91
      503
 93
      121
310
9053130303A310000000000001650100
  0
ACAD_PROXY_OBJECT
  5
59
102
{ACAD_REACTORS
330
47
102
}
330
47
100
AcDbProxyObject
 90
      499
 91
      503
 93
      257
310
90E312F31323822203D2031272D3022000000000000200FC000000000000284000
  0
ACAD_PROXY_OBJECT
  5
5A
102
{ACAD_REACTORS
330
47
102
}
330
47
100
AcDbProxyObject
 90
      499
 91
      503
 93
      249
310
90D312F363422203D2031272D3022000000000000240FC000000000000284000
  0
ACAD_PROXY_OBJECT
  5
5B
102
{ACAD_REACTORS
330
47
102
}
330
47
100
AcDbProxyObject
 90
      499
 91
      503
 93
      249
310
90D312F333222203D2031272D3022000000000000280FC000000000000284000
  0
ACAD_PROXY_OBJECT
  5
5C
102
{ACAD_REACTORS
330
47
102
}
330
47
100
AcDbProxyObject
 90
      499
 91
      503
 93
      249
310
90D312F313622203D2031272D30220000000000002C0FC000000000000284000
  0
ACAD_PROXY_OBJECT
  5
5D
102
{ACAD_REACTORS
330
47
102
}
330
47
100
AcDbProxyObject
 90
      499
 91
      503
 93
      249
310
90D332F333222203D2031272D30220000000000002E0FC000000000000284000
  0
ACAD_PROXY_OBJECT
  5
5E
102
{ACAD_REACTORS
330
47
102
}
330
47
100
AcDbProxyObject
 90
      499
 91
      503
 93
      241
310
90C312F3822203D2031272D3022000000000000300FC000000000000284000
  0
ACAD_PROXY_OBJECT
  5
5F
102
{ACAD_REACTORS
330
47
102
}
330
47
100
AcDbProxyObject
 90
      499
 91
      503
 93
      249
310
90D332F313622203D2031272D3022000000000000320FC000000000000284000
  0
ACAD_PROXY_OBJECT
  5
60
102
{ACAD_REACTORS
330
47
102
}
330
47
100
AcDbProxyObject
 90
      499
 91
      503
 93
      241
310
90C312F3422203D2031272D3022000000000000340FC000000000000284000
  0
ACAD_PROXY_OBJECT
  5
61
102
{ACAD_REACTORS
330
47
102
}
330
47
100
AcDbProxyObject
 90
      499
 91
      503
 93
      241
310
90C332F3822203D2031272D3022000000000000360FC000000000000284000
  0
ACAD_PROXY_OBJECT
  5
62
102
{ACAD_REACTORS
330
47
102
}
330
47
100
AcDbProxyObject
 90
      499
 91
      503
 93
      241
310
90C312F3222203D2031272D3022000000000000380FC000000000000284000
  0
ACAD_PROXY_OBJECT
  5
63
102
{ACAD_REACTORS
330
47
102
}
330
47
100
AcDbProxyObject
 90
      499
 91
      503
 93
      241
310
90C332F3422203D2031272D30220000000000003A0FC000000000000284000
  0
ACAD_PROXY_OBJECT
  5
64
102
{ACAD_REACTORS
330
47
102
}
330
47
100
AcDbProxyObject
 90
      499
 91
      503
 93
      161
310
90A3122203D2031272D30224000000000000284000
  0
ACAD_PROXY_OBJECT
  5
65
102
{ACAD_REACTORS
330
47
102
}
330
47
100
AcDbProxyObject
 90
      499
 91
      503
 93
      257
310
90E312D312F3222203D2031272D30220000000000003E0FC000000000000284000
  0
ACAD_PROXY_OBJECT
  5
66
102
{ACAD_REACTORS
330
47
102
}
330
47
100
AcDbProxyObject
 90
      499
 91
      503
 93
      225
310
90A3322203D2031272D302200000000000002100000000000000284000
  0
ACAD_PROXY_OBJECT
  5
67
102
{ACAD_REACTORS
330
47
102
}
330
47
100
AcDbProxyObject
 90
      499
 91
      503
 93
      225
310
90A3622203D2031272D302200000000000006100000000000000284000
  0
ACAD_PROXY_OBJECT
  5
68
102
{ACAD_REACTORS
330
47
102
}
330
47
100
AcDbProxyObject
 90
      499
 91
      503
 93
      249
310
90D31272D3022203D2031272D30220000000000000A100000000000000284000
  0
ACAD_PROXY_OBJECT
  5
2F
102
{ACAD_REACTORS
330
2A
102
}
330
2A
100
AcDbProxyObject
 90
      499
 91
      501
 93
      436
310
42CC9915DA5C99599C985B595049028333333333333E33F0000000000000F90107901411070040501600405405064090741402480A0340
1001
ACAD
1000
AcDbSavedByObjectVersion
1070
     0
  0
ACAD_PROXY_OBJECT
  5
32
102
{ACAD_REACTORS
330
2A
102
}
330
2A
100
AcDbProxyObject
 90
      499
 91
      501
 93
      388
310
4150985CDA58D07406404333333333333E33F0000000000000F90107A41107004050150841D405064090741402480A0350
1001
ACAD
1000
AcDbSavedByObjectVersion
1070
     0
  0
ACAD_PROXY_OBJECT
  5
36
102
{ACAD_REACTORS
330
2A
102
}
330
2A
100
AcDbProxyObject
 90
      499
 91
      501
 93
      428
310
42109C9A59DA1D195B90C409028333333333333E33F0000000000000F9010790141107004050150841D405064090741402480A029950
1001
ACAD
1000
AcDbSavedByObjectVersion
1070
     0
  0
ACAD_PROXY_OBJECT
  5
3A
102
{ACAD_REACTORS
330
2A
102
}
330
2A
100
AcDbProxyObject
 90
      499
 91
      501
 93
      452
310
42D0DBDB1BDC90DA185B99D95104090240C333333333333E33F0000000000000F90108901411070040501508421405064090741402480A0350
1001
ACAD
1000
AcDbSavedByObjectVersion
1070
     0
  0
ACAD_PROXY_OBJECT
  5
34
102
{ACAD_REACTORS
330
2A
102
}
330
2A
100
AcDbProxyObject
 90
      499
 91
      501
 93
      500
310
4290DBDB98D95C1D1D585B10940D028333333333333E33F0000000000000F90107902409070040501000000000018199010841D405064090740C02480A0340
1001
ACAD
1000
AcDbSavedByObjectVersion
1070
     0
  0
ACAD_PROXY_OBJECT
  5
35
102
{ACAD_REACTORS
330
2A
102
}
330
2A
100
AcDbProxyObject
 90
      499
 91
      501
 93
      412
310
40D11A5B50B409028333333333333E33F0000000000000F9010790141107004050150841D405064090741402480A02677FFFFFD0
1001
ACAD
1000
AcDbSavedByObjectVersion
1070
     0
  0
ACAD_PROXY_OBJECT
  5
3D
102
{ACAD_REACTORS
330
2A
102
}
330
2A
100
AcDbProxyObject
 90
      499
 91
      501
 93
      452
310
43115919D950DBDB1BDC93D999916409028333333333333E33F0000000000000F9010790141107004050150841D405064090741402480A0350
1001
ACAD
1000
AcDbSavedByObjectVersion
1070
     0
  0
ACAD_PROXY_OBJECT
  5
39
102
{ACAD_REACTORS
330
2A
102
}
330
2A
100
AcDbProxyObject
 90
      499
 91
      501
 93
      444
310
42D19858D95C185D1D195C9B90F409028333333333333E33F0000000000000F9010790141107004050150841D405064090741402480A0350
1001
ACAD
1000
AcDbSavedByObjectVersion
1070
     0
  0
ACAD_PROXY_OBJECT
  5
2B
102
{ACAD_REACTORS
330
2A
102
}
330
2A
100
AcDbProxyObject
 90
      499
 91
      501
 93
      380
310
41119B185D240901404333333333333E33F0000000000000F9010740A907004050150841D405064090741402480A1B50
1001
ACAD
1000
AcDbSavedByObjectVersion
1070
     0
  0
ACAD_PROXY_OBJECT
  5
2C
102
{ACAD_REACTORS
330
2A
102
}
330
2A
100
AcDbProxyObject
 90
      499
 91
      501
 93
      468
310
43519B185D15DA5D1A115919D95CD0140901404333333333333E33F0000000000000F90107409019070040501600405405064090741402480A1B50
1001
ACAD
1000
AcDbSavedByObjectVersion
1070
     0
  0
ACAD_PROXY_OBJECT
  5
2D
102
{ACAD_REACTORS
330
2A
102
}
330
2A
100
AcDbProxyObject
 90
      499
 91
      501
 93
      404
310
41D1DBDD5C985D5910240902404333333333333E33F0000000000000F9010740A9070040501641D405064090741402480A1B50
1001
ACAD
1000
AcDbSavedByObjectVersion
1070
     0
  0
ACAD_PROXY_OBJECT
  5
2E
102
{ACAD_REACTORS
330
2A
102
}
330
2A
100
AcDbProxyObject
 90
      499
 91
      501
 93
      492
310
4411DBDD5C985D5915DA5D1A115919D95CD0340902404333333333333E33F0000000000000F90107409019070040501600405405064090741402480A1B50
1001
ACAD
1000
AcDbSavedByObjectVersion
1070
     0
  0
ACAD_PROXY_OBJECT
  5
31
102
{ACAD_REACTORS
330
2A
102
}
330
2A
100
AcDbProxyObject
 90
      499
 91
      501
 93
      476
310
41921A5919195B90640502408333333333333E33F0000000000000F901079024090700405020000000000001110200405405064090740C02480A0340
1001
ACAD
1000
AcDbSavedByObjectVersion
1070
     0
  0
ACAD_PROXY_OBJECT
  5
3B
102
{ACAD_REACTORS
330
2A
102
}
330
2A
100
AcDbProxyObject
 90
      499
 91
      501
 93
      428
310
42529A5D1D195C93D999914409028333333333333E33F0000000000000F9010790141107004050150A41D405064090741402480A0350
1001
ACAD
1000
AcDbSavedByObjectVersion
1070
     0
  0
ACAD_PROXY_OBJECT
  5
38
102
{ACAD_REACTORS
330
2A
102
}
330
2A
100
AcDbProxyObject
 90
      499
 91
      501
 93
      444
310
42D31A5B995C185D1D195C9B90E409028333333333333E33F0000000000000F9010790141107004050750841D405064090741402483A0350
1001
ACAD
1000
AcDbSavedByObjectVersion
1070
     0
  0
ACAD_PROXY_OBJECT
  5
3C
102
{ACAD_REACTORS
330
2A
102
}
330
2A
100
AcDbProxyObject
 90
      499
 91
      501
 93
      444
310
42D3DD995C9A185B99D3D999915409028333333333333E33F0000000000000F9010790141107004050150941D405064090741402480A0350
1001
ACAD
1000
AcDbSavedByObjectVersion
1070
     0
  0
ACAD_PROXY_OBJECT
  5
33
102
{ACAD_REACTORS
330
2A
102
}
330
2A
100
AcDbProxyObject
 90
      499
 91
      501
 93
      428
310
425499585B1A5CDD1A58D08409038333333333333E33F0000000000000F9010740A907004050150800405405064090740C02480A1B40
1001
ACAD
1000
AcDbSavedByObjectVersion
1070
     0
  0
ACAD_PROXY_OBJECT
  5
42
102
{ACAD_REACTORS
330
2A
102
}
330
2A
100
AcDbProxyObject
 90
      499
 91
      501
 93
      420
310
4194DA1859195911B40902404333333333333E33F0000000000000F9010740A41107004050150800405405064090840C02480A0B40
1001
ACAD
1000
AcDbSavedByObjectVersion
1070
     0
  0
ACAD_PROXY_OBJECT
  5
41
102
{ACAD_REACTORS
330
2A
102
}
330
2A
100
AcDbProxyObject
 90
      499
 91
      501
 93
      516
310
4454DA18591959081DDA5D1A08195919D95CD1A40902404333333333333E33F0000000000000F901074090142907004050250800405405064090740C02480A0B40
1001
ACAD
1000
AcDbSavedByObjectVersion
1070
     0
  0
ACAD_PROXY_OBJECT
  5
3E
102
{ACAD_REACTORS
330
2A
102
}
330
2A
100
AcDbProxyObject
 90
      499
 91
      501
 93
      532
310
4394DA1859195CC81BD98811DC985E5174090240C333333333333E33F0000000000000F901079024090741D01000000000000111010841D405064090740C02480A0340
1001
ACAD
1000
AcDbSavedByObjectVersion
1070
     0
  0
ACAD_PROXY_OBJECT
  5
3F
102
{ACAD_REACTORS
330
2A
102
}
330
2A
100
AcDbProxyObject
 90
      499
 91
      501
 93
      476
310
41D4DAD95D18DA1E51840502408333333333333E33F0000000000000F901079024090741D01000000000000111010B41D405064090741802480A0340
1001
ACAD
1000
AcDbSavedByObjectVersion
1070
     0
  0
ACAD_PROXY_OBJECT
  5
37
102
{ACAD_REACTORS
330
2A
102
}
330
2A
100
AcDbProxyObject
 90
      499
 91
      501
 93
      412
310
41D51A1A58DAD95B90D409028333333333333E33F0000000000000F9010790141107004050150C41D405064090741402480A0350
1001
ACAD
1000
AcDbSavedByObjectVersion
1070
     0
  0
ACAD_PROXY_OBJECT
  5
30
102
{ACAD_REACTORS
330
2A
102
}
330
2A
100
AcDbProxyObject
 90
      499
 91
      501
 93
      420
310
4255DA5C99599C985B595059028333333333333E33F0000000000000F90107901411070040501600405405064090740C02480A0340
1001
ACAD
1000
AcDbSavedByObjectVersion
1070
     0
  0
ACAD_PROXY_OBJECT
  5
40
102
{ACAD_REACTORS
330
2A
102
}
330
2A
100
AcDbProxyObject
 90
      499
 91
      501
 93
      404
310
41560B54985E51940902404000000000000E03F0000000000000F9010740501907004050150841D405064090740C02480A1B40
1001
ACAD
1000
AcDbSavedByObjectVersion
1070
     0
  0
XRECORD
  5
168
102
{ACAD_REACTORS
330
15E
102
}
330
15E
100
AcDbXrecord
340
0
  0
XRECORD
  5
167
102
{ACAD_REACTORS
330
15E
102
}
330
15E
100
AcDbXrecord
 90
        0
  0
XRECORD
  5
17E
102
{ACAD_REACTORS
330
15E
102
}
330
15E
100
AcDbXrecord
1000
DSTYLE
1002
{
1070
    73
 70
     0
1070
    74
 70
     0
1070
   340
340
11
1070
   140
 40
5.0
1002
}
  0
XRECORD
  5
169
102
{ACAD_REACTORS
330
15E
102
}
330
15E
100
AcDbXrecord
  1
{FA9C8978-2445-4E9B-B539-24E96D39E2CD}
  0
XRECORD
  5
161
102
{ACAD_REACTORS
330
15E
102
}
330
15E
100
AcDbXrecord
  1

  0
XRECORD
  5
166
102
{ACAD_REACTORS
330
15E
102
}
330
15E
100
AcDbXrecord
 90
        1
  0
XRECORD
  5
163
102
{ACAD_REACTORS
330
15E
102
}
330
15E
100
AcDbXrecord
340
1A
  0
XRECORD
  5
165
102
{ACAD_REACTORS
330
15E
102
}
330
15E
100
AcDbXrecord
 90
    10781
  0
XRECORD
  5
164
102
{ACAD_REACTORS
330
15E
102
}
330
15E
100
AcDbXrecord
340
19
  0
XRECORD
  5
16B
102
{ACAD_REACTORS
330
15E
102
}
330
15E
100
AcDbXrecord
 40
0.0
  0
XRECORD
  5
16E
102
{ACAD_REACTORS
330
15E
102
}
330
15E
100
AcDbXrecord
340
0
  0
XRECORD
  5
174
102
{ACAD_REACTORS
330
15E
102
}
330
15E
100
AcDbXrecord
 10
0.0
 20
0.0
 30
0.0
  0
XRECORD
  5
170
102
{ACAD_REACTORS
330
15E
102
}
330
15E
100
AcDbXrecord
 10
0.0
 20
0.0
 30
0.0
  0
XRECORD
  5
173
102
{ACAD_REACTORS
330
15E
102
}
330
15E
100
AcDbXrecord
 10
0.0
 20
0.0
 30
0.0
  0
XRECORD
  5
171
102
{ACAD_REACTORS
330
15E
102
}
330
15E
100
AcDbXrecord
 10
0.0
 20
0.0
 30
0.0
  0
XRECORD
  5
172
102
{ACAD_REACTORS
330
15E
102
}
330
15E
100
AcDbXrecord
 10
0.0
 20
0.0
 30
0.0
  0
XRECORD
  5
16F
102
{ACAD_REACTORS
330
15E
102
}
330
15E
100
AcDbXrecord
 10
0.0
 20
0.0
 30
0.0
  0
XRECORD
  5
16C
102
{ACAD_REACTORS
330
15E
102
}
330
15E
100
AcDbXrecord
340
0
  0
XRECORD
  5
16D
102
{ACAD_REACTORS
330
15E
102
}
330
15E
100
AcDbXrecord
 70
     0
  0
XRECORD
  5
162
102
{ACAD_REACTORS
330
15E
102
}
330
15E
100
AcDbXrecord
  1

  0
XRECORD
  5
15F
102
{ACAD_REACTORS
330
15E
102
}
330
15E
100
AcDbXrecord
 90
        1
  0
XRECORD
  5
160
102
{ACAD_REACTORS
330
15E
102
}
330
15E
100
AcDbXrecord
 90
       70
  0
XRECORD
  5
177
102
{ACAD_REACTORS
330
15E
102
}
330
15E
100
AcDbXrecord
340
0
  0
XRECORD
  5
17D
102
{ACAD_REACTORS
330
15E
102
}
330
15E
100
AcDbXrecord
 10
0.0
 20
0.0
 30
0.0
  0
XRECORD
  5
179
102
{ACAD_REACTORS
330
15E
102
}
330
15E
100
AcDbXrecord
 10
0.0
 20
0.0
 30
0.0
  0
XRECORD
  5
17C
102
{ACAD_REACTORS
330
15E
102
}
330
15E
100
AcDbXrecord
 10
0.0
 20
0.0
 30
0.0
  0
XRECORD
  5
17A
102
{ACAD_REACTORS
330
15E
102
}
330
15E
100
AcDbXrecord
 10
0.0
 20
0.0
 30
0.0
  0
XRECORD
  5
17B
102
{ACAD_REACTORS
330
15E
102
}
330
15E
100
AcDbXrecord
 10
0.0
 20
0.0
 30
0.0
  0
XRECORD
  5
178
102
{ACAD_REACTORS
330
15E
102
}
330
15E
100
AcDbXrecord
 10
0.0
 20
0.0
 30
0.0
  0
XRECORD
  5
175
102
{ACAD_REACTORS
330
15E
102
}
330
15E
100
AcDbXrecord
340
0
  0
XRECORD
  5
176
102
{ACAD_REACTORS
330
15E
102
}
330
15E
100
AcDbXrecord
 70
     0
  0
XRECORD
  5
16A
102
{ACAD_REACTORS
330
15E
102
}
330
15E
100
AcDbXrecord
  1
{FAEB1C32-E019-11D5-929B-00C0DF256EC4}
  0
DICTIONARYVAR
  5
189
102
{ACAD_REACTORS
330
17F
102
}
330
17F
100
DictionaryVariables
280
     0
  1
1:1
  0
DICTIONARYVAR
  5
181
102
{ACAD_REACTORS
330
17F
102
}
330
17F
100
DictionaryVariables
280
     0
  1
Standard
  0
DICTIONARYVAR
  5
180
102
{ACAD_REACTORS
330
17F
102
}
330
17F
100
DictionaryVariables
280
     0
  1
Standard
  0
DICTIONARYVAR
  5
184
102
{ACAD_REACTORS
330
17F
102
}
330
17F
100
DictionaryVariables
280
     0
  1
2
  0
DICTIONARYVAR
  5
185
102
{ACAD_REACTORS
330
17F
102
}
330
17F
100
DictionaryVariables
280
     0
  1
1
  0
DICTIONARYVAR
  5
18A
102
{ACAD_REACTORS
330
17F
102
}
330
17F
100
DictionaryVariables
280
     0
  1
1
  0
DICTIONARY
  5
18D
330
45
100
AcDbDictionary
280
     1
  3
ACAD_XREC_ROUNDTRIP
360
18E
  0
DICTIONARY
  5
18B
330
44
100
AcDbDictionary
280
     1
  3
ACAD_XREC_ROUNDTRIP
360
18C
  0
DICTIONARY
  5
18F
330
46
100
AcDbDictionary
280
     1
  3
ACAD_XREC_ROUNDTRIP
360
190
  0
XRECORD
  5
18E
102
{ACAD_REACTORS
330
18D
102
}
330
18D
100
AcDbXrecord
102
MATERIAL
148
0.0
149
0.0
149
0.0
 93
        0
 94
      127
282
     0
 72
     1
 77
     1
171
     1
175
     1
179
     1
273
     0
  0
XRECORD
  5
18C
102
{ACAD_REACTORS
330
18B
102
}
330
18B
100
AcDbXrecord
102
MATERIAL
148
0.0
149
0.0
149
0.0
 93
        0
 94
      127
282
     0
 72
     1
 77
     1
171
     1
175
     1
179
     1
273
     0
  0
XRECORD
  5
190
102
{ACAD_REACTORS
330
18F
102
}
330
18F
100
AcDbXrecord
102
MATERIAL
148
0.0
149
0.0
149
0.0
 93
        0
 94
      127
282
     0
 72
     1
 77
     1
171
     1
175
     1
179
     1
273
     0
  0
ENDSEC
  0
EOF
