  0
SECTION
  2
HEADER
  9
$ACADVER
  1
AC1014
  9
$ACADMAINTVER
 70
     9
  9
$DWGCODEPAGE
  3
UNDEFINED
  9
$INSBASE
 10
0.0
 20
0.0
 30
0.0
  9
$EXTMIN
 10
0.0
 20
1.0
 30
0.0
  9
$EXTMAX
 10
1.0
 20
0.0
 30
0.0
  9
$LIMMIN
 10
0.0
 20
0.0
  9
$LIMMAX
 10
12.0
 20
9.0
  9
$ORTHOMODE
 70
     0
  9
$REGENMODE
 70
     1
  9
$FILLMODE
 70
     1
  9
$QTEXTMODE
 70
     0
  9
$MIRRTEXT
 70
     1
  9
$DRAGMODE
 70
     2
  9
$LTSCALE
 40
96.0
  9
$OSMODE
 70
    37
  9
$ATTMODE
 70
     1
  9
$TEXTSIZE
 40
0.2
  9
$TRACEWID
 40
0.05
  9
$TEXTSTYLE
  7
STANDARD
  9
$CLAYER
  8
0
  9
$CELTYPE
  6
BYLAYER
  9
$CECOLOR
 62
   256
  9
$CELTSCALE
 40
1.0
  9
$DELOBJ
 70
     1
  9
$DISPSILH
 70
     0
  9
$DIMSCALE
 40
1.0
  9
$DIMASZ
 40
0.18
  9
$DIMEXO
 40
0.0625
  9
$DIMDLI
 40
0.38
  9
$DIMRND
 40
0.0
  9
$DIMDLE
 40
0.0
  9
$DIMEXE
 40
0.18
  9
$DIMTP
 40
0.0
  9
$DIMTM
 40
0.0
  9
$DIMTXT
 40
5.0
  9
$DIMCEN
 40
0.09
  9
$DIMTSZ
 40
0.0
  9
$DIMTOL
 70
     0
  9
$DIMLIM
 70
     0
  9
$DIMTIH
 70
     0
  9
$DIMTOH
 70
     0
  9
$DIMSE1
 70
     0
  9
$DIMSE2
 70
     0
  9
$DIMTAD
 70
     0
  9
$DIMZIN
 70
     0
  9
$DIMBLK
  1

  9
$DIMASO
 70
     1
  9
$DIMSHO
 70
     1
  9
$DIMPOST
  1

  9
$DIMAPOST
  1

  9
$DIMALT
 70
     0
  9
$DIMALTD
 70
     2
  9
$DIMALTF
 40
25.4
  9
$DIMLFAC
 40
1.0
  9
$DIMTOFL
 70
     0
  9
$DIMTVP
 40
0.0
  9
$DIMTIX
 70
     0
  9
$DIMSOXD
 70
     0
  9
$DIMSAH
 70
     0
  9
$DIMBLK1
  1

  9
$DIMBLK2
  1

  9
$DIMSTYLE
  2
STANDARD
  9
$DIMCLRD
 70
     0
  9
$DIMCLRE
 70
     0
  9
$DIMCLRT
 70
     0
  9
$DIMTFAC
 40
1.0
  9
$DIMGAP
 40
0.09
  9
$DIMJUST
 70
     0
  9
$DIMSD1
 70
     0
  9
$DIMSD2
 70
     0
  9
$DIMTOLJ
 70
     1
  9
$DIMTZIN
 70
     0
  9
$DIMALTZ
 70
     0
  9
$DIMALTTZ
 70
     0
  9
$DIMFIT
 70
     3
  9
$DIMUPT
 70
     0
  9
$DIMUNIT
 70
     2
  9
$DIMDEC
 70
     4
  9
$DIMTDEC
 70
     4
  9
$DIMALTU
 70
     2
  9
$DIMALTTD
 70
     2
  9
$DIMTXSTY
  7
STANDARD
  9
$DIMAUNIT
 70
     0
  9
$LUNITS
 70
     2
  9
$LUPREC
 70
     4
  9
$SKETCHINC
 40
0.1
  9
$FILLETRAD
 40
0.5
  9
$AUNITS
 70
     0
  9
$AUPREC
 70
     0
  9
$MENU
  1
.
  9
$ELEVATION
 40
0.0
  9
$PELEVATION
 40
0.0
  9
$THICKNESS
 40
0.0
  9
$LIMCHECK
 70
     0
  9
$CHAMFERA
 40
0.0
  9
$CHAMFERB
 40
0.0
  9
$CHAMFERC
 40
0.0
  9
$CHAMFERD
 40
0.0
  9
$SKPOLY
 70
     0
  9
$TDCREATE
 40
2458054.856334965
  9
$TDUPDATE
 40
2458054.856335151
  9
$TDINDWG
 40
0.0000000116
  9
$TDUSRTIMER
 40
0.0000000116
  9
$USRTIMER
 70
     1
  9
$ANGBASE
 50
0.0
  9
$ANGDIR
 70
     0
  9
$PDMODE
 70
     0
  9
$PDSIZE
 40
0.0
  9
$PLINEWID
 40
0.0
  9
$COORDS
 70
     1
  9
$SPLFRAME
 70
     0
  9
$SPLINETYPE
 70
     6
  9
$SPLINESEGS
 70
     8
  9
$ATTDIA
 70
     0
  9
$ATTREQ
 70
     1
  9
$HANDLING
 70
     1
  9
$HANDSEED
  5
15E
  9
$SURFTAB1
 70
     6
  9
$SURFTAB2
 70
     6
  9
$SURFTYPE
 70
     6
  9
$SURFU
 70
     6
  9
$SURFV
 70
     6
  9
$UCSNAME
  2

  9
$UCSORG
 10
0.0
 20
0.0
 30
0.0
  9
$UCSXDIR
 10
1.0
 20
0.0
 30
0.0
  9
$UCSYDIR
 10
0.0
 20
1.0
 30
0.0
  9
$PUCSNAME
  2

  9
$PUCSORG
 10
0.0
 20
0.0
 30
0.0
  9
$PUCSXDIR
 10
1.0
 20
0.0
 30
0.0
  9
$PUCSYDIR
 10
0.0
 20
1.0
 30
0.0
  9
$USERI1
 70
     0
  9
$USERI2
 70
     0
  9
$USERI3
 70
     0
  9
$USERI4
 70
     0
  9
$USERI5
 70
     0
  9
$USERR1
 40
0.0
  9
$USERR2
 40
0.0
  9
$USERR3
 40
0.0
  9
$USERR4
 40
0.0
  9
$USERR5
 40
0.0
  9
$WORLDVIEW
 70
     1
  9
$SHADEDGE
 70
     3
  9
$SHADEDIF
 70
    70
  9
$TILEMODE
 70
     1
  9
$MAXACTVP
 70
    64
  9
$PINSBASE
 10
0.0
 20
0.0
 30
0.0
  9
$PLIMCHECK
 70
     0
  9
$PEXTMIN
 10
1.000000000000000E+20
 20
1.000000000000000E+20
 30
1.000000000000000E+20
  9
$PEXTMAX
 10
-1.000000000000000E+20
 20
-1.000000000000000E+20
 30
-1.000000000000000E+20
  9
$PLIMMIN
 10
0.0
 20
0.0
  9
$PLIMMAX
 10
12.0
 20
9.0
  9
$UNITMODE
 70
     0
  9
$VISRETAIN
 70
     1
  9
$PLINEGEN
 70
     0
  9
$PSLTSCALE
 70
     1
  9
$TREEDEPTH
 70
  3020
  9
$PICKSTYLE
 70
     1
  9
$CMLSTYLE
  2
STANDARD
  9
$CMLJUST
 70
     0
  9
$CMLSCALE
 40
1.0
  9
$PROXYGRAPHICS
 70
     1
  9
$MEASUREMENT
 70
     0
  0
ENDSEC
  0
SECTION
  2
CLASSES
  0
CLASS
  1
ACDBDICTIONARYWDFLT
  2
AcDbDictionaryWithDefault
  3
ObjectDBX Classes
 90
        0
280
     0
281
     0
  0
CLASS
  1
VISUALSTYLE
  2
AcDbVisualStyle
  3
ObjectDBX Classes
 90
     4095
280
     0
281
     0
  0
CLASS
  1
MATERIAL
  2
AcDbMaterial
  3
ObjectDBX Classes
 90
     1153
280
     0
281
     0
  0
CLASS
  1
SCALE
  2
AcDbScale
  3
ObjectDBX Classes
 90
     1153
280
     0
281
     0
  0
CLASS
  1
TABLESTYLE
  2
AcDbTableStyle
  3
ObjectDBX Classes
 90
     4095
280
     0
281
     0
  0
CLASS
  1
MLEADERSTYLE
  2
AcDbMLeaderStyle
  3
ACDB_MLEADERSTYLE_CLASS
 90
     4095
280
     0
281
     0
  0
CLASS
  1
SUN
  2
AcDbSun
  3
SCENEOE
 90
     1153
280
     0
281
     0
  0
CLASS
  1
DICTIONARYVAR
  2
AcDbDictionaryVar
  3
ObjectDBX Classes
 90
        0
280
     0
281
     0
  0
CLASS
  1
XRECORD
  2
AcDbXrecord
  3
ObjectDBX Classes
 90
        0
280
     0
281
     0
  0
CLASS
  1
LWPOLYLINE
  2
AcDbPolyline
  3
ObjectDBX Classes
 90
        0
280
     0
281
     1
  0
CLASS
  1
HATCH
  2
AcDbHatch
  3
ObjectDBX Classes
 90
        0
280
     0
281
     1
  0
CLASS
  1
ACDBPLACEHOLDER
  2
AcDbPlaceHolder
  3
ObjectDBX Classes
 90
        0
280
     0
281
     0
  0
CLASS
  1
LAYOUT
  2
AcDbLayout
  3
ObjectDBX Classes
 90
        0
280
     0
281
     0
  0
ENDSEC
  0
SECTION
  2
TABLES
  0
TABLE
  2
VPORT
  5
8
102
{ACAD_XDICTIONARY
360
153
102
}
330
0
100
AcDbSymbolTable
 70
     1
  0
VPORT
  5
29
330
8
100
AcDbSymbolTableRecord
100
AcDbViewportTableRecord
  2
*ACTIVE
 70
     0
 10
0.0
 20
0.0
 11
1.0
 21
1.0
 12
10.42990654205607
 22
4.5
 13
0.0
 23
0.0
 14
0.5
 24
0.5
 15
0.5
 25
0.5
 16
0.0
 26
0.0
 36
1.0
 17
0.0
 27
0.0
 37
0.0
 40
9.0
 41
1.972972972850329
 42
50.0
 43
0.0
 44
0.0
 50
0.0
 51
0.0
 71
     0
 72
   100
 73
     1
 74
     3
 75
     0
 76
     0
 77
     0
 78
     0
  0
ENDTAB
  0
TABLE
  2
LTYPE
  5
5
330
0
100
AcDbSymbolTable
 70
     2
  0
LTYPE
  5
14
330
5
100
AcDbSymbolTableRecord
100
AcDbLinetypeTableRecord
  2
BYBLOCK
 70
     0
  3

 72
    65
 73
     0
 40
0.0
  0
LTYPE
  5
15
330
5
100
AcDbSymbolTableRecord
100
AcDbLinetypeTableRecord
  2
BYLAYER
 70
     0
  3

 72
    65
 73
     0
 40
0.0
  0
LTYPE
  5
16
330
5
100
AcDbSymbolTableRecord
100
AcDbLinetypeTableRecord
  2
CONTINUOUS
 70
     0
  3
Solid line
 72
    65
 73
     0
 40
0.0
  0
LTYPE
  5
128
330
5
100
AcDbSymbolTableRecord
100
AcDbLinetypeTableRecord
  2
ISO08W100
 70
     0
  3
ISO08W100 LINE
 72
    65
 73
     4
 40
0.96
 49
0.48
 74
     0
 49
-0.12
 74
     0
 49
0.24
 74
     0
 49
-0.12
 74
     0
  0
ENDTAB
  0
TABLE
  2
LAYER
  5
2
330
0
100
AcDbSymbolTable
 70
     5
  0
LAYER
  5
10
330
2
100
AcDbSymbolTableRecord
100
AcDbLayerTableRecord
  2
0
 70
     0
 62
     7
  6
CONTINUOUS
  0
LAYER
  5
6E
330
2
100
AcDbSymbolTableRecord
100
AcDbLayerTableRecord
  2
GEOMETRIC_SHAPES
 70
     0
 62
    16
  6
CONTINUOUS
  0
LAYER
  5
122
330
2
100
AcDbSymbolTableRecord
100
AcDbLayerTableRecord
  2
GEOMETRIC_SHAPES__LABELS
 70
     0
 62
   156
  6
CONTINUOUS
1001
CHIEFARC-LNWT
1070
    10
  0
ENDTAB
  0
TABLE
  2
STYLE
  5
3
330
0
100
AcDbSymbolTable
 70
     1
  0
STYLE
  5
11
330
3
100
AcDbSymbolTableRecord
100
AcDbTextStyleTableRecord
  2
STANDARD
 70
     0
 40
0.0
 41
1.0
 50
0.0
 71
     0
 42
0.2
  3
txt
  4

  0
ENDTAB
  0
TABLE
  2
VIEW
  5
6
330
0
100
AcDbSymbolTable
 70
     0
  0
ENDTAB
  0
TABLE
  2
UCS
  5
7
330
0
100
AcDbSymbolTable
 70
     0
  0
ENDTAB
  0
TABLE
  2
APPID
  5
9
330
0
100
AcDbSymbolTable
 70
     7
  0
APPID
  5
12
330
9
100
AcDbSymbolTableRecord
100
AcDbRegAppTableRecord
  2
ACAD
 70
     0
  0
APPID
  5
70
330
9
100
AcDbSymbolTableRecord
100
AcDbRegAppTableRecord
  2
CHIEFARC-LNWT
 70
     0
  0
APPID
  5
124
330
9
100
AcDbSymbolTableRecord
100
AcDbRegAppTableRecord
  2
CHIEFARC_RTFBINARY
 70
     0
  0
APPID
  5
125
330
9
100
AcDbSymbolTableRecord
100
AcDbRegAppTableRecord
  2
CHIEFARC_SIMPLE_TEXT_BINAR
 70
     0
  0
APPID
  5
126
330
9
100
AcDbSymbolTableRecord
100
AcDbRegAppTableRecord
  2
CHIEFARC-WIDTHEXPANDED
 70
     0
  0
APPID
  5
127
330
9
100
AcDbSymbolTableRecord
100
AcDbRegAppTableRecord
  2
CHIEFARC_AUTOWIDTH
 70
     0
  0
APPID
  5
15D
330
9
100
AcDbSymbolTableRecord
100
AcDbRegAppTableRecord
  2
ACAD_MLEADERVER
 70
     0
  0
ENDTAB
  0
TABLE
  2
DIMSTYLE
  5
A
330
0
100
AcDbSymbolTable
 70
     1
  0
DIMSTYLE
105
27
330
A
100
AcDbSymbolTableRecord
100
AcDbDimStyleTableRecord
  2
STANDARD
 70
     0
  3

  4

  5

  6

  7

 40
1.0
 41
0.18
 42
0.0625
 43
0.38
 44
0.18
 45
0.0
 46
0.0
 47
0.0
 48
0.0
140
0.18
141
0.09
142
0.0
143
25.4
144
1.0
145
0.0
146
1.0
147
0.09
 71
     0
 72
     0
 73
     1
 74
     1
 75
     0
 76
     0
 77
     0
 78
     0
170
     0
171
     2
172
     0
173
     0
174
     0
175
     0
176
     0
177
     0
178
     0
270
     2
271
     4
272
     4
273
     2
274
     2
340
11
275
     0
280
     0
281
     0
282
     0
283
     1
284
     0
285
     0
286
     0
287
     3
288
     0
  0
ENDTAB
  0
TABLE
  2
BLOCK_RECORD
  5
1
330
0
100
AcDbSymbolTable
 70
     2
  0
BLOCK_RECORD
  5
1F
330
1
100
AcDbSymbolTableRecord
100
AcDbBlockTableRecord
  2
*MODEL_SPACE
  0
BLOCK_RECORD
  5
1B
330
1
100
AcDbSymbolTableRecord
100
AcDbBlockTableRecord
  2
*PAPER_SPACE
  0
BLOCK_RECORD
  5
6F
330
1
100
AcDbSymbolTableRecord
100
AcDbBlockTableRecord
  2
WHEEL170-HI-RES-R1_2
  0
ENDTAB
  0
ENDSEC
  0
SECTION
  2
BLOCKS
  0
BLOCK
  5
20
330
1F
100
AcDbEntity
  8
0
100
AcDbBlockBegin
  2
*MODEL_SPACE
 70
     0
 10
0.0
 20
0.0
 30
0.0
  3
*MODEL_SPACE
  1

  0
ENDBLK
  5
21
330
1F
100
AcDbEntity
  8
0
100
AcDbBlockEnd
  0
BLOCK
  5
1C
330
1B
100
AcDbEntity
 67
     1
  8
0
100
AcDbBlockBegin
  2
*PAPER_SPACE
 70
     0
 10
0.0
 20
0.0
 30
0.0
  3
*PAPER_SPACE
  1

  0
ENDBLK
  5
1D
330
1B
100
AcDbEntity
 67
     1
  8
0
100
AcDbBlockEnd
  0
BLOCK
  5
11E
330
6F
100
AcDbEntity
  8
0
100
AcDbBlockBegin
  2
WHEEL170-HI-RES-R1_2
 70
     0
 10
0.0
 20
0.0
 30
0.0
  3
WHEEL170-HI-RES-R1_2
  1

  0
SOLID
  5
71
330
6F
100
AcDbEntity
  8
GEOMETRIC_SHAPES
 62
     7
100
AcDbTrace
 10
1.829979658126831
 20
2.765790164470673
 30
0.0
 11
1.829979658126831
 21
2.788567006587982
 31
0.0
 12
1.84297513961792
 22
2.765790164470673
 32
0.0
 13
1.84297513961792
 23
2.775152444839478
 33
0.0
1001
CHIEFARC-LNWT
1070
     0
  0
LWPOLYLINE
  5
72
330
6F
100
AcDbEntity
  8
GEOMETRIC_SHAPES
 62
    16
100
AcDbPolyline
 90
        4
 70
     1
 43
0.0
 10
1.829979658126831
 20
2.788567006587982
 10
1.84297513961792
 20
2.775152444839478
 10
1.84297513961792
 20
2.765790164470673
 10
1.829979658126831
 20
2.765790164470673
1001
CHIEFARC-LNWT
1070
     0
  0
SOLID
  5
73
330
6F
100
AcDbEntity
  8
0
  6
CONTINUOUS
 62
     7
100
AcDbTrace
 10
-1.770033121109009
 20
1.067022323608398
 30
0.0
 11
-1.770033121109009
 21
1.084489285945892
 31
0.0
 12
-1.770033121109009
 22
1.067022323608398
 32
0.0
 13
-1.74725615978241
 23
1.084489285945892
 33
0.0
1001
CHIEFARC-LNWT
1070
     0
  0
LWPOLYLINE
  5
74
330
6F
100
AcDbEntity
  8
0
  6
CONTINUOUS
 62
    16
100
AcDbPolyline
 90
        3
 70
     1
 43
0.0
 10
-1.770033121109009
 20
1.084489285945892
 10
-1.74725615978241
 20
1.084489285945892
 10
-1.770033121109009
 20
1.067022323608398
1001
CHIEFARC-LNWT
1070
     0
  0
SOLID
  5
75
330
6F
100
AcDbEntity
  8
0
  6
CONTINUOUS
 62
     7
100
AcDbTrace
 10
-1.805805325508118
 20
1.138567090034485
 30
0.0
 11
-1.805805325508118
 21
1.156034052371979
 31
0.0
 12
-1.805805325508118
 22
1.138567090034485
 32
0.0
 13
-1.783028483390808
 23
1.156034052371979
 33
0.0
1001
CHIEFARC-LNWT
1070
     0
  0
LWPOLYLINE
  5
76
330
6F
100
AcDbEntity
  8
0
  6
CONTINUOUS
 62
    16
100
AcDbPolyline
 90
        3
 70
     1
 43
0.0
 10
-1.805805325508118
 20
1.156034052371979
 10
-1.783028483390808
 20
1.156034052371979
 10
-1.805805325508118
 20
1.138567090034485
1001
CHIEFARC-LNWT
1070
     0
  0
SOLID
  5
77
330
6F
100
AcDbEntity
  8
0
  6
CONTINUOUS
 62
     7
100
AcDbTrace
 10
-1.42223072052002
 20
3.12351381778717
 30
0.0
 11
-1.412309527397156
 21
3.159286141395569
 31
0.0
 12
-1.42223072052002
 22
3.12351381778717
 32
0.0
 13
-1.412309527397156
 23
3.12351381778717
 33
0.0
1001
CHIEFARC-LNWT
1070
     0
  0
LWPOLYLINE
  5
78
330
6F
100
AcDbEntity
  8
0
  6
CONTINUOUS
 62
    16
100
AcDbPolyline
 90
        3
 70
     1
 43
0.0
 10
-1.412309527397156
 20
3.159286141395569
 10
-1.412309527397156
 20
3.12351381778717
 10
-1.42223072052002
 20
3.12351381778717
1001
CHIEFARC-LNWT
1070
     0
  0
SOLID
  5
79
330
6F
100
AcDbEntity
  8
0
  6
CONTINUOUS
 62
     7
100
AcDbTrace
 10
-1.734260678291321
 20
1.001626014709473
 30
0.0
 11
-1.734260678291321
 21
1.012944579124451
 31
0.0
 12
-1.734260678291321
 22
1.001626014709473
 32
0.0
 13
-1.711483716964722
 23
1.012944579124451
 33
0.0
1001
CHIEFARC-LNWT
1070
     0
  0
LWPOLYLINE
  5
7A
330
6F
100
AcDbEntity
  8
0
  6
CONTINUOUS
 62
    16
100
AcDbPolyline
 90
        3
 70
     1
 43
0.0
 10
-1.734260678291321
 20
1.012944579124451
 10
-1.711483716964722
 20
1.012944579124451
 10
-1.734260678291321
 20
1.001626014709473
1001
CHIEFARC-LNWT
1070
     0
  0
SOLID
  5
7B
330
6F
100
AcDbEntity
  8
0
  6
CONTINUOUS
 62
     7
100
AcDbTrace
 10
-1.984667062759399
 20
2.229204773902893
 30
0.0
 11
-1.984667062759399
 21
2.238287597894669
 31
0.0
 12
-1.984667062759399
 22
2.229204773902893
 32
0.0
 13
-1.961890339851379
 23
2.251981675624847
 33
0.0
1001
CHIEFARC-LNWT
1070
     0
  0
LWPOLYLINE
  5
7C
330
6F
100
AcDbEntity
  8
0
  6
CONTINUOUS
 62
    16
100
AcDbPolyline
 90
        3
 70
     1
 43
0.0
 10
-1.984667062759399
 20
2.238287597894669
 10
-1.961890339851379
 20
2.251981675624847
 10
-1.984667062759399
 20
2.229204773902893
1001
CHIEFARC-LNWT
1070
     0
  0
SOLID
  5
7D
330
6F
100
AcDbEntity
  8
0
  6
CONTINUOUS
 62
     7
100
AcDbTrace
 10
-1.524517297744751
 20
3.195058465003967
 30
0.0
 11
-1.519626498222351
 21
3.230830907821655
 31
0.0
 12
-1.524517297744751
 22
3.195058465003967
 32
0.0
 13
-1.519626498222351
 23
3.195058465003967
 33
0.0
1001
CHIEFARC-LNWT
1070
     0
  0
LWPOLYLINE
  5
7E
330
6F
100
AcDbEntity
  8
0
  6
CONTINUOUS
 62
    16
100
AcDbPolyline
 90
        3
 70
     1
 43
0.0
 10
-1.519626498222351
 20
3.230830907821655
 10
-1.519626498222351
 20
3.195058465003967
 10
-1.524517297744751
 20
3.195058465003967
1001
CHIEFARC-LNWT
1070
     0
  0
SOLID
  5
7F
330
6F
100
AcDbEntity
  8
0
  6
CONTINUOUS
 62
     7
100
AcDbTrace
 10
1.186077356338501
 20
3.588554501533508
 30
0.0
 11
1.1990727186203
 21
3.597916841506958
 31
0.0
 12
1.186077356338501
 22
3.588554501533508
 32
0.0
 13
1.1990727186203
 23
3.588554501533508
 33
0.0
1001
CHIEFARC-LNWT
1070
     0
  0
LWPOLYLINE
  5
80
330
6F
100
AcDbEntity
  8
0
  6
CONTINUOUS
 62
    16
100
AcDbPolyline
 90
        3
 70
     1
 43
0.0
 10
1.1990727186203
 20
3.597916841506958
 10
1.1990727186203
 20
3.588554501533508
 10
1.186077356338501
 20
3.588554501533508
1001
CHIEFARC-LNWT
1070
     0
  0
LWPOLYLINE
  5
81
330
6F
100
AcDbEntity
  8
0
  6
CONTINUOUS
 62
   178
100
AcDbPolyline
 90
        6
 70
     0
 43
0.0
 10
1.722662687301636
 20
0.9999491572380066
 10
1.721265316009521
 20
0.9771722555160522
 10
1.735658049583435
 20
1.001626014709473
 10
1.741946220397949
 20
1.012944579124451
 10
1.750050902366638
 20
1.027337372303009
 10
1.758435010910034
 20
1.048716902732849
1001
CHIEFARC-LNWT
1070
     0
  0
LWPOLYLINE
  5
82
330
6F
100
AcDbEntity
  8
0
  6
CONTINUOUS
 62
   178
100
AcDbPolyline
 90
        9
 70
     0
 43
0.0
 10
1.758435010910034
 20
2.931656539440155
 10
1.771430492401123
 20
2.92634654045105
 10
1.777439117431641
 20
2.914888203144073
 10
1.780513286590576
 20
2.908879578113556
 10
1.789456367492676
 20
2.891133069992065
 10
1.798399329185486
 20
2.873107135295868
 10
1.801194071769714
 20
2.86709851026535
 10
1.807202696800232
 20
2.854801774024963
 10
1.794207334518433
 20
2.860111713409424
1001
CHIEFARC-LNWT
1070
     0
  0
LWPOLYLINE
  5
83
330
6F
100
AcDbEntity
  8
0
  6
CONTINUOUS
 62
   178
100
AcDbPolyline
 90
       20
 70
     0
 43
0.0
 10
1.987322092056274
 20
1.765421718358994
 10
1.990955233573914
 20
1.799936413764953
 10
1.991514205932617
 20
1.80538612604141
 10
1.994308948516846
 20
1.835708856582642
 10
1.994867920875549
 20
1.844512224197383
 10
1.996824145317078
 20
1.871481299400334
 10
1.997383117675781
 20
1.882799886167049
 10
1.986064434051514
 20
1.899288691580296
 10
1.763465523719788
 20
1.899288691580296
 10
1.750609755516052
 20
1.907253623008728
 10
1.750609755516052
 20
2.08611524105072
 10
1.771430492401123
 20
2.094080172479153
 10
1.986064434051514
 20
2.094080172479153
 10
1.996824145317078
 20
2.121887564659119
 10
1.995985746383667
 20
2.131808832287788
 10
1.994308948516846
 20
2.157660007476807
 10
1.993470549583435
 20
2.1650660187006
 10
1.990955233573914
 20
2.193432450294495
 10
1.990675806999207
 20
2.19804373383522
 10
1.987042546272278
 20
2.229204773902893
1001
CHIEFARC-LNWT
1070
     0
  0
LWPOLYLINE
  5
84
330
6F
100
AcDbEntity
  8
0
  6
CONTINUOUS
 62
   178
100
AcDbPolyline
 90
        6
 70
     0
 43
0.0
 10
1.664113402366638
 20
3.107164740562439
 10
1.671798825263977
 20
3.095426917076111
 10
1.67682933807373
 20
3.087741494178772
 10
1.68577241897583
 20
3.073628067970276
 10
1.699746012687683
 20
3.051829218864441
 10
1.686890363693237
 20
3.038973569869995
1001
CHIEFARC-LNWT
1070
     0
  0
LWPOLYLINE
  5
85
330
6F
100
AcDbEntity
  8
0
  6
CONTINUOUS
 62
   178
100
AcDbPolyline
 90
       11
 70
     0
 43
0.0
 10
1.771430492401123
 20
2.92634654045105
 10
1.765142321586609
 20
2.93836385011673
 10
1.761788725852966
 20
2.944651961326599
 10
1.75256609916687
 20
2.961559951305389
 10
1.741946220397949
 20
2.980424284934998
 10
1.739710450172424
 20
2.984476625919342
 10
1.735658049583435
 20
2.991742849349976
 10
1.722662687301636
 20
2.980424284934998
 10
1.735658049583435
 20
2.980424284934998
 10
1.735658049583435
 20
2.991742849349976
 10
1.722662687301636
 20
3.003201246261597
1001
CHIEFARC-LNWT
1070
     0
  0
LWPOLYLINE
  5
86
330
6F
100
AcDbEntity
  8
0
  6
CONTINUOUS
 62
   178
100
AcDbPolyline
 90
        7
 70
     0
 43
0.0
 10
1.651118040084839
 20
3.110518455505371
 10
1.664113402366638
 20
3.107164740562439
 10
1.657545804977417
 20
3.116946220397949
 10
1.653074264526367
 20
3.12351381778717
 10
1.64301335811615
 20
3.138186097145081
 10
1.628201365470886
 20
3.159146428108215
 10
1.61534571647644
 20
3.14629077911377
1001
CHIEFARC-LNWT
1070
     0
  0
LWPOLYLINE
  5
87
330
6F
100
AcDbEntity
  8
0
  6
CONTINUOUS
 62
   178
100
AcDbPolyline
 90
        6
 70
     0
 43
0.0
 10
1.686890363693237
 20
3.051968932151794
 10
1.699746012687683
 20
3.051829218864441
 10
1.71344006061554
 20
3.029750943183899
 10
1.721265316009521
 20
3.016196608543396
 10
1.726575255393982
 20
3.007113814353943
 10
1.735658049583435
 20
2.991742849349976
1001
CHIEFARC-LNWT
1070
     0
  0
LWPOLYLINE
  5
88
330
6F
100
AcDbEntity
  8
0
  6
CONTINUOUS
 62
   178
100
AcDbPolyline
 90
       28
 70
     0
 43
0.0
 10
1.601931095123291
 20
0.798310399055481
 10
1.592568755149841
 20
0.7858738899230957
 10
1.574542760848999
 20
0.762537956237793
 10
1.556796193122864
 20
0.7403199672698973
 10
1.545757055282596
 20
0.7267656326293983
 10
1.521023869514464
 20
0.6972814798355081
 10
1.515574216842655
 20
0.6909934282302901
 10
1.485251545906067
 20
0.656478762626648
 10
1.462474584579468
 20
0.6682164669036865
 10
1.449479222297668
 20
0.6813516616821289
 10
1.444588422775269
 20
0.6861026287078857
 10
1.439837455749512
 20
0.6909934282302856
 10
1.426702260971069
 20
0.703988790512085
 10
1.41370689868927
 20
0.7171238660812378
 10
1.40881609916687
 20
0.7218749523162842
 10
1.404065132141113
 20
0.7267656326293945
 10
1.390929818153381
 20
0.739760994911194
 10
1.377934336662295
 20
0.7528961896896336
 10
1.373043537139894
 20
0.7576471567153917
 10
1.368292570114137
 20
0.7625379562377921
 10
1.355157375335694
 20
0.7755334377288815
 10
1.342162013053891
 20
0.7886686325073269
 10
1.337271213531493
 20
0.7934195995330824
 10
1.332520246505736
 20
0.7983103990554818
 10
1.319385051727294
 20
0.8113057613372807
 10
1.306389689445496
 20
0.8244409561157227
 10
1.277185082435608
 20
0.798310399055481
 10
1.293394327163696
 20
0.8210873603820801
1001
CHIEFARC-LNWT
1070
     0
  0
LWPOLYLINE
  5
89
330
6F
100
AcDbEntity
  8
0
  6
CONTINUOUS
 62
   178
100
AcDbPolyline
 90
        3
 70
     0
 43
0.0
 10
1.627362966537476
 20
0.8331046104431152
 10
1.601931095123291
 20
0.798310399055481
 10
1.61534571647644
 20
0.8210873603820801
1001
CHIEFARC-LNWT
1070
     0
  0
LWPOLYLINE
  5
8A
330
6F
100
AcDbEntity
  8
0
  6
CONTINUOUS
 62
   178
100
AcDbPolyline
 90
        4
 70
     0
 43
0.0
 10
1.973069071769714
 20
2.229204773902893
 10
1.973069071769714
 20
2.251981675624847
 10
1.986064434051514
 20
2.238287597894669
 10
1.987042546272278
 20
2.23018291592598
1001
CHIEFARC-LNWT
1070
     0
  0
LWPOLYLINE
  5
8B
330
6F
100
AcDbEntity
  8
0
  6
CONTINUOUS
 62
   178
100
AcDbPolyline
 90
        5
 70
     0
 43
0.0
 10
1.986064434051514
 20
2.238287597894669
 10
1.973069071769714
 20
2.229204773902893
 10
1.986064434051514
 20
2.229204773902893
 10
1.986064434051514
 20
2.238287597894669
 10
1.983129978179932
 20
2.262042641639709
1001
CHIEFARC-LNWT
1070
     0
  0
LWPOLYLINE
  5
8C
330
6F
100
AcDbEntity
  8
0
  6
CONTINUOUS
 62
   178
100
AcDbPolyline
 90
        7
 70
     0
 43
0.0
 10
1.973069071769714
 20
1.679624021053314
 10
1.9716717004776
 20
1.656847059726715
 10
1.968597650527954
 20
1.639380037784576
 10
1.965243935585022
 20
1.621074616909027
 10
1.959933996200562
 20
1.594944000244141
 10
1.957977771759033
 20
1.585302233695984
 10
1.950292348861694
 20
1.550508052110672
1001
CHIEFARC-LNWT
1070
     0
  0
LWPOLYLINE
  5
8D
330
6F
100
AcDbEntity
  8
0
  6
CONTINUOUS
 62
   178
100
AcDbPolyline
 90
        6
 70
     0
 43
0.0
 10
1.937296867370605
 20
1.549529910087585
 10
1.949873089790344
 20
1.54911071062088
 10
1.941488981246948
 20
1.513757646083831
 10
1.938694238662721
 20
1.502159565687184
 10
1.932266354560852
 20
1.477985262870789
 10
1.937296867370605
 20
1.500762224197388
1001
CHIEFARC-LNWT
1070
     0
  0
LWPOLYLINE
  5
8E
330
6F
100
AcDbEntity
  8
0
  6
CONTINUOUS
 62
   178
100
AcDbPolyline
 90
       14
 70
     0
 43
0.0
 10
1.982571125030518
 20
2.264977097511292
 10
1.978658437728882
 20
2.293343424797058
 10
1.977540612220764
 20
2.30074942111969
 10
1.973628044128418
 20
2.32408532500267
 10
1.9716717004776
 20
2.336521804332733
 10
1.968318104743958
 20
2.354547768831253
 10
1.965243935585022
 20
2.372294247150421
 10
1.96272873878479
 20
2.384730726480484
 10
1.957977771759033
 20
2.408066630363464
 10
1.956580400466919
 20
2.414354741573334
 10
1.950292348861694
 20
2.442860811948776
 10
1.937296867370605
 20
2.430843532085419
 10
1.950292348861694
 20
2.430843532085419
 10
1.950292348861694
 20
2.442860811948776
1001
CHIEFARC-LNWT
1070
     0
  0
LWPOLYLINE
  5
8F
330
6F
100
AcDbEntity
  8
0
  6
CONTINUOUS
 62
   178
100
AcDbPolyline
 90
        9
 70
     0
 43
0.0
 10
1.911585330963135
 20
2.586928427219391
 10
1.903760194778442
 20
2.61194109916687
 10
1.900127053260803
 20
2.622700750827789
 10
1.894817113876343
 20
2.638770341873169
 10
1.888109803199768
 20
2.658473014831543
 10
1.885594487190247
 20
2.665320038795471
 10
1.878747463226318
 20
2.684324085712433
 10
1.865752100944519
 20
2.681249916553497
 10
1.878747463226318
 20
2.681249916553497
1001
CHIEFARC-LNWT
1070
     0
  0
LWPOLYLINE
  5
90
330
6F
100
AcDbEntity
  8
0
  6
CONTINUOUS
 62
   178
100
AcDbPolyline
 90
       12
 70
     0
 43
0.0
 10
1.937296867370605
 20
2.443838953971863
 10
1.950152635574341
 20
2.443699210882187
 10
1.94316577911377
 20
2.472484707832336
 10
1.941488981246948
 20
2.479611217975616
 10
1.935899496078491
 20
2.500990808010101
 10
1.932266354560852
 20
2.51538360118866
 10
1.928353667259216
 20
2.529217481613159
 10
1.922205328941345
 20
2.551156044006349
 10
1.920528411865235
 20
2.557164669036863
 10
1.914519786834717
 20
2.577566146850586
 10
1.901524424552917
 20
2.573933005332947
 10
1.914519786834717
 20
2.573933005332947
1001
CHIEFARC-LNWT
1070
     0
  0
LWPOLYLINE
  5
91
330
6F
100
AcDbEntity
  8
0
  6
CONTINUOUS
 62
   178
100
AcDbPolyline
 90
        7
 70
     0
 43
0.0
 10
1.9716717004776
 20
1.656847059726715
 10
1.975863814353943
 20
1.68241873383522
 10
1.977540612220764
 20
1.692619442939758
 10
1.982012152671814
 20
1.724339425563812
 10
1.982571125030517
 20
1.728391766548152
 10
1.986064434051514
 20
1.755081266164783
 10
1.987042546272278
 20
1.764164090156555
1001
CHIEFARC-LNWT
1070
     0
  0
LWPOLYLINE
  5
92
330
6F
100
AcDbEntity
  8
0
  6
CONTINUOUS
 62
   178
100
AcDbPolyline
 90
       10
 70
     0
 43
0.0
 10
1.485251545906067
 20
3.3368901014328
 10
1.501600623130798
 20
3.318724513053894
 10
1.515574216842651
 20
3.302375435829163
 10
1.518089413642891
 20
3.299440979957572
 10
1.521023869514465
 20
3.296087384223938
 10
1.534578204154968
 20
3.280157566070557
 10
1.545757055282593
 20
3.266603231430054
 10
1.550787568092346
 20
3.260594606399536
 10
1.556796193122864
 20
3.253048896789551
 10
1.543800830841064
 20
3.253607869148254
1001
CHIEFARC-LNWT
1070
     0
  0
LWPOLYLINE
  5
93
330
6F
100
AcDbEntity
  8
0
  6
CONTINUOUS
 62
   178
100
AcDbPolyline
 90
        8
 70
     0
 43
0.0
 10
1.579573273658752
 20
3.217835426330566
 10
1.592568755149841
 20
3.207494974136353
 10
1.582368016242981
 20
3.220630168914795
 10
1.574542760848999
 20
3.230830907821655
 10
1.566717505455017
 20
3.240752100944519
 10
1.556796193122864
 20
3.230830907821655
 10
1.556796193122864
 20
3.253048896789551
 10
1.566717505455017
 20
3.240752100944519
1001
CHIEFARC-LNWT
1070
     0
  0
LWPOLYLINE
  5
94
330
6F
100
AcDbEntity
  8
0
  6
CONTINUOUS
 62
   178
100
AcDbPolyline
 90
        6
 70
     0
 43
0.0
 10
1.61534571647644
 20
3.159286141395569
 10
1.628201365470886
 20
3.159146428108215
 10
1.613109946250915
 20
3.179827332496644
 10
1.601931095123296
 20
3.19505846500396
 10
1.598018407821654
 20
3.200508117675783
 10
1.592568755149841
 20
3.207494974136353
1001
CHIEFARC-LNWT
1070
     0
  0
LWPOLYLINE
  5
95
330
6F
100
AcDbEntity
  8
0
  6
CONTINUOUS
 62
   178
100
AcDbPolyline
 90
        3
 70
     0
 43
0.0
 10
1.472256183624268
 20
3.325152397155762
 10
1.449479222297669
 20
3.30307412147522
 10
1.48455286026001
 20
3.337449073791504
1001
CHIEFARC-LNWT
1070
     0
  0
LWPOLYLINE
  5
96
330
6F
100
AcDbEntity
  8
0
  6
CONTINUOUS
 62
   178
100
AcDbPolyline
 90
       18
 70
     0
 43
0.0
 10
1.257622122764587
 20
0.6064532995223999
 10
1.257622122764587
 20
0.5836762189865112
 10
1.270617485046387
 20
0.5836762189865112
 10
1.270617485046387
 20
0.593317985534668
 10
1.257622122764587
 20
0.6064532995223999
 10
1.244486927986145
 20
0.6194487810134888
 10
1.239735960960388
 20
0.6243395805358887
 10
1.234845161437988
 20
0.6290905475616455
 10
1.221849679946899
 20
0.6194487810134888
 10
1.221849679946899
 20
0.6422257423400879
 10
1.208714485168457
 20
0.6552211046218872
 10
1.2039635181427
 20
0.6601119041442871
 10
1.1990727186203
 20
0.664862871170044
 10
1.1990727186203
 20
0.6552211046218872
 10
1.186077356338501
 20
0.6552211046218872
 10
1.1990727186203
 20
0.664862871170044
 10
1.186077356338501
 20
0.6779980659484863
 10
1.186077356338501
 20
0.6552211046218872
1001
CHIEFARC-LNWT
1070
     0
  0
LWPOLYLINE
  5
97
330
6F
100
AcDbEntity
  8
0
  6
CONTINUOUS
 62
   178
100
AcDbPolyline
 90
       15
 70
     0
 43
0.0
 10
1.293394327163696
 20
0.5706808567047119
 10
1.293394327163696
 20
0.5479038953781128
 10
1.306389689445496
 20
0.5479038953781128
 10
1.306389689445496
 20
0.5575456619262695
 10
1.311280488967896
 20
0.5527946949005127
 10
1.316031455993652
 20
0.5479038953781128
 10
1.329166650772095
 20
0.5349085330963135
 10
1.340904355049133
 20
0.5121315717697144
 10
1.306389689445496
 20
0.4818089008331303
 10
1.300101637840271
 20
0.4763592481613159
 10
1.293394327163696
 20
0.4763592481613159
 10
1.293394327163696
 20
0.499136209487915
 10
1.300101637840271
 20
0.4763592481613159
 10
1.270617485046387
 20
0.4516260623931886
 10
1.257063150405884
 20
0.4405869245529175
1001
CHIEFARC-LNWT
1070
     0
  0
LWPOLYLINE
  5
98
330
6F
100
AcDbEntity
  8
0
  6
CONTINUOUS
 62
   178
100
AcDbPolyline
 90
        4
 70
     0
 43
0.0
 10
1.221849679946899
 20
0.6422257423400879
 10
1.234845161437988
 20
0.6290905475616455
 10
1.234845161437988
 20
0.6194487810134888
 10
1.221849679946899
 20
0.6194487810134888
1001
CHIEFARC-LNWT
1070
     0
  0
LWPOLYLINE
  5
99
330
6F
100
AcDbEntity
  8
0
  6
CONTINUOUS
 62
   178
100
AcDbPolyline
 90
        7
 70
     0
 43
0.0
 10
1.293394327163696
 20
0.5479038953781128
 10
1.306389689445496
 20
0.5575456619262695
 10
1.293394327163696
 20
0.5706808567047119
 10
1.280259251594543
 20
0.5836762189865112
 10
1.275508165359497
 20
0.5885670185089111
 10
1.270617485046387
 20
0.593317985534668
 10
1.257622122764587
 20
0.5836762189865112
1001
CHIEFARC-LNWT
1070
     0
  0
LWPOLYLINE
  5
9A
330
6F
100
AcDbEntity
  8
0
  6
CONTINUOUS
 62
   178
100
AcDbPolyline
 90
        3
 70
     0
 43
0.0
 10
1.186077356338501
 20
0.6779980659484863
 10
1.172942161560059
 20
0.6909934282302856
 10
1.186077356338501
 20
0.7137702703475952
1001
CHIEFARC-LNWT
1070
     0
  0
LWPOLYLINE
  5
9B
330
6F
100
AcDbEntity
  8
0
  6
CONTINUOUS
 62
   178
100
AcDbPolyline
 90
        6
 70
     0
 43
0.0
 10
1.164278507232666
 20
0.3700201511383057
 10
1.199072718620301
 20
0.3954520225524904
 10
1.211509227752686
 20
0.4048143625259399
 10
1.234845161437986
 20
0.4228403568267805
 10
1.257063150405884
 20
0.4405869245529175
 10
1.257622122764587
 20
0.4633638858795166
1001
CHIEFARC-LNWT
1070
     0
  0
LWPOLYLINE
  5
9C
330
6F
100
AcDbEntity
  8
0
  6
CONTINUOUS
 62
   178
100
AcDbPolyline
 90
        3
 70
     0
 43
0.0
 10
1.172942161560059
 20
0.6909934282302856
 10
1.199072946488906
 20
0.7201982899156882
 10
1.277185082435608
 20
0.7983101070217202
1001
CHIEFARC-LNWT
1070
     0
  0
LWPOLYLINE
  5
9D
330
6F
100
AcDbEntity
  8
0
  6
CONTINUOUS
 62
   178
100
AcDbPolyline
 90
        5
 70
     0
 43
0.0
 10
1.114532709121704
 20
0.3560466766357422
 10
1.111178994178772
 20
0.3332697153091431
 10
1.127528071403503
 20
0.3443088531494141
 10
1.162881135940552
 20
0.3690420389175415
 10
1.163300395011902
 20
0.4048143625259399
1001
CHIEFARC-LNWT
1070
     0
  0
LWPOLYLINE
  5
9E
330
6F
100
AcDbEntity
  8
0
  6
CONTINUOUS
 62
   178
100
AcDbPolyline
 90
        8
 70
     0
 43
0.0
 10
0.9303607940673828
 20
0.2259526252746582
 10
0.9486662149429321
 20
0.2355943918228149
 10
0.9700457453727721
 20
0.247332215309143
 10
0.9844385385513296
 20
0.2554368972778315
 10
0.9957571029663086
 20
0.2617250680923462
 10
1.020210862159729
 20
0.2761178016662599
 10
1.055563926696777
 20
0.2974973917007446
 10
1.055983185768127
 20
0.3332697153091431
1001
CHIEFARC-LNWT
1070
     0
  0
LWPOLYLINE
  5
9F
330
6F
100
AcDbEntity
  8
0
  6
CONTINUOUS
 62
   178
100
AcDbPolyline
 90
        3
 70
     0
 43
0.0
 10
1.056681871414185
 20
0.2981960773468018
 10
1.091755747795105
 20
0.3205537796020509
 10
1.111178994178772
 20
0.3332697153091431
1001
CHIEFARC-LNWT
1070
     0
  0
LWPOLYLINE
  5
A0
330
6F
100
AcDbEntity
  8
0
  6
CONTINUOUS
 62
   178
100
AcDbPolyline
 90
        7
 70
     0
 43
0.0
 10
0.935670793056488
 20
0.2487295866012573
 10
0.9303607940673828
 20
0.2259526252746582
 10
0.9128938317298887
 20
0.216869831085205
 10
0.8943089246749877
 20
0.2073678970336914
 10
0.877121388912201
 20
0.1989837884902955
 10
0.8588160276412964
 20
0.1901804208755493
 10
0.8641259670257568
 20
0.2129572629928589
1001
CHIEFARC-LNWT
1070
     0
  0
LWPOLYLINE
  5
A1
330
6F
100
AcDbEntity
  8
0
  6
CONTINUOUS
 62
   178
100
AcDbPolyline
 90
       13
 70
     0
 43
0.0
 10
0.6852641701698303
 20
0.1186356544494629
 10
0.6852641701698303
 20
0.141412615776062
 10
0.6883383393287659
 20
0.1186356544494629
 10
0.6982595920562744
 20
0.1224085092544556
 10
0.703988790512085
 20
0.1243648529052734
 10
0.7340320348739625
 20
0.1361025571823121
 10
0.7629573345184337
 20
0.1475609540939335
 10
0.7698044180870053
 20
0.1503556966781615
 10
0.7791666984558094
 20
0.1544079780578609
 10
0.8055766820907594
 20
0.165726661682129
 10
0.826117873191834
 20
0.1749491691589358
 10
0.8413490653038023
 20
0.1819360256195067
 10
0.8588160276412964
 20
0.1901804208755493
1001
CHIEFARC-LNWT
1070
     0
  0
LWPOLYLINE
  5
A2
330
6F
100
AcDbEntity
  8
0
  6
CONTINUOUS
 62
   178
100
AcDbPolyline
 90
       14
 70
     0
 43
0.0
 10
1.306389689445496
 20
3.159286141395569
 10
1.293394327163696
 20
3.159286141395569
 10
1.291717529296875
 20
3.180386185646057
 10
1.270617485046387
 20
3.195058465003967
 10
1.270617485046387
 20
3.201626062393188
 10
1.255945205688477
 20
3.216158628463745
 10
1.241412758827209
 20
3.230830907821655
 10
1.238059043884277
 20
3.234044790267944
 10
1.234845161437988
 20
3.237398505210876
 10
1.220172882080078
 20
3.251930952072144
 10
1.221849679946899
 20
3.230830907821655
 10
1.234845161437988
 20
3.237398505210876
 10
1.234845161437988
 20
3.230830907821655
 10
1.221849679946899
 20
3.230830907821655
1001
CHIEFARC-LNWT
1070
     0
  0
LWPOLYLINE
  5
A3
330
6F
100
AcDbEntity
  8
0
  6
CONTINUOUS
 62
   178
100
AcDbPolyline
 90
        8
 70
     0
 43
0.0
 10
1.270617485046387
 20
3.195058465003967
 10
1.257622122764587
 20
3.195058465003967
 10
1.270617485046387
 20
3.201626062393188
 10
1.273831367492676
 20
3.198272347450256
 10
1.277185082435608
 20
3.195058465003967
 10
1.291717529296875
 20
3.180386185646057
 10
1.306389689445496
 20
3.16585373878479
 10
1.329166650772095
 20
3.182063102722168
1001
CHIEFARC-LNWT
1070
     0
  0
LWPOLYLINE
  5
A4
330
6F
100
AcDbEntity
  8
0
  6
CONTINUOUS
 62
   178
100
AcDbPolyline
 90
       11
 70
     0
 43
0.0
 10
1.257063150405884
 20
3.552781939506531
 10
1.234845161437988
 20
3.552781939506531
 10
1.244766354560852
 20
3.562703251838684
 10
1.234845161437988
 20
3.570528507232666
 10
1.224644422531128
 20
3.578353762626648
 10
1.211509227752686
 20
3.588554501533508
 10
1.204522371292114
 20
3.594004154205322
 10
1.1990727186203
 20
3.597916841506958
 10
1.183841586112976
 20
3.609095692634583
 10
1.163300395011902
 20
3.624187111854553
 10
1.142200350761414
 20
3.638999104499817
1001
CHIEFARC-LNWT
1070
     0
  0
LWPOLYLINE
  5
A5
330
6F
100
AcDbEntity
  8
0
  6
CONTINUOUS
 62
   178
100
AcDbPolyline
 90
       10
 70
     0
 43
0.0
 10
1.1990727186203
 20
3.266603231430054
 10
1.220172882080078
 20
3.251930952072144
 10
1.205640316009521
 20
3.266603231430054
 10
1.202286601066589
 20
3.269817113876343
 10
1.1990727186203
 20
3.273170828819275
 10
1.186077356338501
 20
3.266603231430054
 10
1.18440043926239
 20
3.287703275680542
 10
1.163300395011902
 20
3.302375435829163
 10
1.169867992401123
 20
3.302375435829163
 10
1.1990727186203
 20
3.337449073791504
1001
CHIEFARC-LNWT
1070
     0
  0
LWPOLYLINE
  5
A6
330
6F
100
AcDbEntity
  8
0
  6
CONTINUOUS
 62
   178
100
AcDbPolyline
 90
        3
 70
     0
 43
0.0
 10
1.257622122764587
 20
3.195058465003967
 10
1.255945205688477
 20
3.216158628463745
 10
1.234845161437988
 20
3.230830907821655
1001
CHIEFARC-LNWT
1070
     0
  0
LWPOLYLINE
  5
A7
330
6F
100
AcDbEntity
  8
0
  6
CONTINUOUS
 62
   178
100
AcDbPolyline
 90
        6
 70
     0
 43
0.0
 10
1.186077356338501
 20
3.325152397155762
 10
1.169867992401123
 20
3.302375435829163
 10
1.18440043926239
 20
3.287703275680542
 10
1.1990727186203
 20
3.273170828819275
 10
1.1990727186203
 20
3.266603231430054
 10
1.186077356338501
 20
3.266603231430054
1001
CHIEFARC-LNWT
1070
     0
  0
LWPOLYLINE
  5
A8
330
6F
100
AcDbEntity
  8
0
  6
CONTINUOUS
 62
   178
100
AcDbPolyline
 90
       10
 70
     0
 43
0.0
 10
1.340904355049133
 20
3.481237292289734
 10
1.322738766670227
 20
3.497586369514465
 10
1.306389689445496
 20
3.511559963226318
 10
1.303455233573903
 20
3.51407516002656
 10
1.300101637840271
 20
3.517009615898132
 10
1.28417181968689
 20
3.530563950538635
 10
1.270617485046387
 20
3.54174280166626
 10
1.264608860015869
 20
3.546773314476013
 10
1.257063150405884
 20
3.552781939506531
 10
1.244766354560852
 20
3.562703251838684
1001
CHIEFARC-LNWT
1070
     0
  0
LWPOLYLINE
  5
A9
330
6F
100
AcDbEntity
  8
0
  6
CONTINUOUS
 62
   178
100
AcDbPolyline
 90
        3
 70
     0
 43
0.0
 10
1.341463327407837
 20
3.195058465003967
 10
1.306389689445496
 20
3.16585373878479
 10
1.293394327163696
 20
3.159286141395569
1001
CHIEFARC-LNWT
1070
     0
  0
LWPOLYLINE
  5
AA
330
6F
100
AcDbEntity
  8
0
  6
CONTINUOUS
 62
   178
100
AcDbPolyline
 90
        3
 70
     0
 43
0.0
 10
1.341463327407837
 20
3.480538606643677
 10
1.307088375091553
 20
3.445464968681336
 10
1.329166650772095
 20
3.468241930007935
1001
CHIEFARC-LNWT
1070
     0
  0
LWPOLYLINE
  5
AB
330
6F
100
AcDbEntity
  8
0
  6
CONTINUOUS
 62
   178
100
AcDbPolyline
 90
        3
 70
     0
 43
0.0
 10
1.699885725975037
 20
0.9771722555160522
 10
1.699746012687683
 20
0.9413999319076538
 10
1.721265316009521
 20
0.9771722555160522
1001
CHIEFARC-LNWT
1070
     0
  0
LWPOLYLINE
  5
AC
330
6F
100
AcDbEntity
  8
0
  6
CONTINUOUS
 62
   178
100
AcDbPolyline
 90
        5
 70
     0
 43
0.0
 10
1.00721549987793
 20
3.718648433685303
 10
1.020210862159729
 20
3.717251062393188
 10
1.033765196800232
 20
3.709425806999207
 10
1.055843472480774
 20
3.69573175907135
 10
1.077642321586609
 20
3.681758165359497
1001
CHIEFARC-LNWT
1070
     0
  0
LWPOLYLINE
  5
AD
330
6F
100
AcDbEntity
  8
0
  6
CONTINUOUS
 62
   178
100
AcDbPolyline
 90
       11
 70
     0
 43
0.0
 10
1.033765196800232
 20
3.709425806999207
 10
1.055983185768127
 20
3.69573175907135
 10
1.077642321586609
 20
3.681758165359497
 10
1.091755747795105
 20
3.672815084457397
 10
1.099441170692444
 20
3.667784571647644
 10
1.111178994178772
 20
3.660099148750305
 10
1.120960474014282
 20
3.653531551361084
 10
1.127528071403503
 20
3.649060010910034
 10
1.142200350761414
 20
3.638999104499817
 10
1.163160681724548
 20
3.624187111854553
 10
1.150305032730103
 20
3.611331462860107
1001
CHIEFARC-LNWT
1070
     0
  0
LWPOLYLINE
  5
AE
330
6F
100
AcDbEntity
  8
0
  6
CONTINUOUS
 62
   178
100
AcDbPolyline
 90
       27
 70
     0
 43
0.0
 10
0.6982595920562744
 20
3.870960354804993
 10
0.7215955257415773
 20
3.8622967004776
 10
0.7340320348739641
 20
3.857266306877136
 10
0.7473069429397522
 20
3.852235794067385
 10
0.7698044180870042
 20
3.843013167381288
 10
0.7724593877792368
 20
3.841615915298461
 10
0.7791666984558119
 20
3.838960886001586
 10
0.7976117730140809
 20
3.830995917320246
 10
0.8055766820907649
 20
3.827642202377317
 10
0.822484731674205
 20
3.820096492767329
 10
0.8413490653038028
 20
3.811432838439941
 10
0.8470782041549653
 20
3.808917641639711
 10
0.8588160276412964
 20
3.803188443183899
 10
0.8711127638816833
 20
3.797179818153381
 10
0.8771213889122009
 20
3.794385075569153
 10
0.8951473236083985
 20
3.785442113876343
 10
0.9128938317298817
 20
3.776499032974247
 10
0.9189024567604174
 20
3.773424863815302
 10
0.9303607940673828
 20
3.76741623878479
 10
0.9423781037330627
 20
3.761128067970276
 10
0.9486662149429321
 20
3.757774472236633
 10
0.9655742049217225
 20
3.748551845550537
 10
0.9844385385513361
 20
3.737931966781613
 10
0.9884908795356828
 20
3.735696196556087
 10
0.9957571029663118
 20
3.7316437959671
 10
1.011128067970296
 20
3.722561001777637
 10
1.020210862159729
 20
3.717251062393188
1001
CHIEFARC-LNWT
1070
     0
  0
LWPOLYLINE
  5
AF
330
6F
100
AcDbEntity
  8
0
  6
CONTINUOUS
 62
   178
100
AcDbPolyline
 90
        3
 70
     0
 43
0.0
 10
1.150305032730103
 20
3.624326825141907
 10
1.163160681724548
 20
3.624187111854553
 10
1.183841586112976
 20
3.609095692634583
1001
CHIEFARC-LNWT
1070
     0
  0
LWPOLYLINE
  5
B0
330
6F
100
AcDbEntity
  8
0
  6
CONTINUOUS
 62
   178
100
AcDbPolyline
 90
        3
 70
     0
 43
0.0
 10
1.042987823486328
 20
3.695871472358704
 10
1.055843472480774
 20
3.69573175907135
 10
1.042987823486328
 20
3.682876110076904
1001
CHIEFARC-LNWT
1070
     0
  0
LWPOLYLINE
  5
B1
330
6F
100
AcDbEntity
  8
0
  6
CONTINUOUS
 62
   178
100
AcDbPolyline
 90
        8
 70
     0
 43
0.0
 10
0.4706300795078278
 20
0.0828633308410645
 10
0.4478532075881958
 20
0.0472304821014404
 10
0.4836254715919497
 20
0.0558941364288331
 10
0.4952235519886018
 20
0.0586888790130616
 10
0.5193978548049926
 20
0.0651167631149292
 10
0.5444106459617621
 20
0.0721036195755007
 10
0.5551702976226816
 20
0.0751777887344363
 10
0.581580400466919
 20
0.0828633308410645
1001
CHIEFARC-LNWT
1070
     0
  0
LWPOLYLINE
  5
B2
330
6F
100
AcDbEntity
  8
0
  6
CONTINUOUS
 62
   178
100
AcDbPolyline
 90
        9
 70
     0
 43
0.0
 10
0.5779472589492798
 20
0.0828633308410645
 10
0.5779472589492798
 20
0.1056402921676636
 10
0.581580400466919
 20
0.0828633308410645
 10
0.5909426808357239
 20
0.0857977867126465
 10
0.5952745079994203
 20
0.0871951580047608
 10
0.6267150044441226
 20
0.0972560644149781
 10
0.6483740210533137
 20
0.1045223474502562
 10
0.6624872684478762
 20
0.1092733144760133
 10
0.6883383393287659
 20
0.1186356544494629
1001
CHIEFARC-LNWT
1070
     0
  0
LWPOLYLINE
  5
B3
330
6F
100
AcDbEntity
  8
0
  6
CONTINUOUS
 62
   178
100
AcDbPolyline
 90
       13
 70
     0
 43
0.0
 10
0.5888466238975525
 20
3.908409476280212
 10
0.5779472589492798
 20
3.897510170936584
 10
0.5779472589492798
 20
3.910505533218384
 10
0.5888466238975525
 20
3.908409476280212
 10
0.581580400466919
 20
3.910505533218384
 10
0.5611789226531982
 20
3.916514158248901
 10
0.5551702976226806
 20
3.918191075325012
 10
0.5332317352295047
 20
3.92433941364288
 10
0.5193978548049926
 20
3.928252100944519
 10
0.5050050616264374
 20
3.931885242462157
 10
0.4836254715919465
 20
3.937474727630616
 10
0.4764989614486466
 20
3.939151525497442
 10
0.4478532075881958
 20
3.946138381958008
1001
CHIEFARC-LNWT
1070
     0
  0
LWPOLYLINE
  5
B4
330
6F
100
AcDbEntity
  8
0
  6
CONTINUOUS
 62
   178
100
AcDbPolyline
 90
       11
 70
     0
 43
0.0
 10
0.6956046223640442
 20
3.87207818031311
 10
0.6852641701698303
 20
3.861737847328186
 10
0.6852641701698303
 20
3.874733209609985
 10
0.6956046223640442
 20
3.87207818031311
 10
0.6883383393287659
 20
3.874733209609985
 10
0.6693342924118042
 20
3.881580233573914
 10
0.662487268447876
 20
3.884095549583435
 10
0.6427845954895021
 20
3.89080286026001
 10
0.6267150044441173
 20
3.896112799644472
 10
0.6159553527832068
 20
3.899745941162108
 10
0.5909426808357239
 20
3.907571077346802
1001
CHIEFARC-LNWT
1070
     0
  0
LWPOLYLINE
  5
B5
330
6F
100
AcDbEntity
  8
0
  6
CONTINUOUS
 62
   178
100
AcDbPolyline
 90
       12
 70
     0
 43
0.0
 10
0.2332190275192261
 20
0.0103405714035034
 10
0.2423018515110016
 20
0.0113186836242676
 10
0.2689913511276245
 20
0.0148119926452637
 10
0.2730436921119692
 20
0.0153709650039673
 10
0.3047636747360229
 20
0.0198425054550171
 10
0.3149643838405609
 20
0.0215193033218384
 10
0.3405360579490662
 20
0.0257114171981812
 10
0.3580030798912049
 20
0.0287854671478272
 10
0.3763085007667542
 20
0.0321391820907593
 10
0.4024391174316406
 20
0.0374491214752197
 10
0.4120808839797974
 20
0.039405345916748
 10
0.4468750655651093
 20
0.0470907688140869
1001
CHIEFARC-LNWT
1070
     0
  0
LWPOLYLINE
  5
B6
330
6F
100
AcDbEntity
  8
0
  6
CONTINUOUS
 62
   178
100
AcDbPolyline
 90
        8
 70
     0
 43
0.0
 10
0.4468750655651093
 20
3.946278095245361
 10
0.4183689951896662
 20
3.952566146850586
 10
0.4120808839797914
 20
3.953963518142702
 10
0.388744980096908
 20
3.958714485168439
 10
0.3763085007667609
 20
3.961229681968688
 10
0.3585620224475993
 20
3.964303851127622
 10
0.3405360579490636
 20
3.967657446861268
 10
0.3275406360626221
 20
3.969054818153381
1001
CHIEFARC-LNWT
1070
     0
  0
LWPOLYLINE
  5
B7
330
6F
100
AcDbEntity
  8
0
  6
CONTINUOUS
 62
   178
100
AcDbPolyline
 90
        5
 70
     0
 43
0.0
 10
0.3405360579490662
 20
3.967657446861267
 10
0.3280995786190033
 20
3.969613790512085
 10
0.3047636747360229
 20
3.973526358604431
 10
0.2973576784133911
 20
3.974644184112549
 10
0.2689913511276245
 20
3.978556871414185
1001
CHIEFARC-LNWT
1070
     0
  0
LWPOLYLINE
  5
B8
330
6F
100
AcDbEntity
  8
0
  6
CONTINUOUS
 62
   178
100
AcDbPolyline
 90
        5
 70
     0
 43
0.0
 10
0.4477134644985199
 20
3.946138381958008
 10
0.4348577857017517
 20
3.946278095245361
 10
0.4348577857017517
 20
3.933282613754272
 10
0.4477134644985199
 20
3.946138381958008
 10
0.4764989614486694
 20
3.939151525497437
1001
CHIEFARC-LNWT
1070
     0
  0
LWPOLYLINE
  5
B9
330
6F
100
AcDbEntity
  8
0
  6
CONTINUOUS
 62
   178
100
AcDbPolyline
 90
       14
 70
     0
 43
0.0
 10
0.0901294946670532
 20
0.246773362159729
 10
0.1129064038395882
 20
0.2617250680923462
 10
0.0919460579752922
 20
0.227769136428833
 10
0.0901294946670532
 20
0.246773362159729
 10
-0.088732123374939
 20
0.246773362159729
 10
-0.0905486866831779
 20
0.2259526252746582
 10
-0.0905486866831779
 20
0.0113186836242676
 10
-0.1245044469833374
 20
0.0005589723587036
 10
-0.1344257146120071
 20
0.0013973712921143
 10
-0.1602768898010254
 20
0.0030741691589355
 10
-0.1676829010248184
 20
0.0039125680923462
 10
-0.1960493326187134
 20
0.0064278841018677
 10
-0.2006606161594391
 20
0.0067073106765747
 10
-0.2318216562271118
 20
0.0103405714035034
1001
CHIEFARC-LNWT
1070
     0
  0
LWPOLYLINE
  5
BA
330
6F
100
AcDbEntity
  8
0
  6
CONTINUOUS
 62
   178
100
AcDbPolyline
 90
        5
 70
     0
 43
0.0
 10
0.2559959292411804
 20
0.0340954065322876
 10
0.2423018515110016
 20
0.0113186836242676
 10
0.2689912264833441
 20
0.0470906017526627
 10
0.2332190275192261
 20
0.0113186836242676
 10
0.2423018515110016
 20
0.0113186836242676
1001
CHIEFARC-LNWT
1070
     0
  0
LWPOLYLINE
  5
BB
330
6F
100
AcDbEntity
  8
0
  6
CONTINUOUS
 62
   178
100
AcDbPolyline
 90
        9
 70
     0
 43
0.0
 10
0.2319613993167877
 20
0.0100610256195068
 10
0.1974467039108277
 20
0.0064278841018677
 10
0.1919969916343689
 20
0.0058689117431641
 10
0.1616742610931396
 20
0.0030741691589355
 10
0.1528708934783936
 20
0.0025151968002319
 10
0.1259018182754517
 20
0.0005589723587036
 10
0.1145832315087318
 20
0.0
 10
0.0919460579752922
 20
0.0113186836242676
 10
0.0919460579752922
 20
0.227769136428833
1001
CHIEFARC-LNWT
1070
     0
  0
LWPOLYLINE
  5
BC
330
6F
100
AcDbEntity
  8
0
  6
CONTINUOUS
 62
   178
100
AcDbPolyline
 90
       11
 70
     0
 43
0.0
 10
0.2332190275192261
 20
3.983028292655945
 10
0.2020579874515533
 20
3.986661553382874
 10
0.1974467039108276
 20
3.986940979957581
 10
0.1690802723169327
 20
3.989456295967102
 10
0.1616742610931396
 20
3.990294694900513
 10
0.1358230859041214
 20
3.991971492767334
 10
0.1259018182754517
 20
3.992809891700745
 10
0.1045222654938698
 20
3.982050180435181
 10
0.1045222654938698
 20
3.76741623878479
 10
0.0901294946670532
 20
3.746595501899719
 10
0.1129064038395882
 20
3.754420757293701
1001
CHIEFARC-LNWT
1070
     0
  0
LWPOLYLINE
  5
BD
330
6F
100
AcDbEntity
  8
0
  6
CONTINUOUS
 62
   178
100
AcDbPolyline
 90
        3
 70
     0
 43
0.0
 10
0.2341971695423126
 20
3.983028292655945
 10
0.2423018515110016
 20
3.982050180435181
 10
0.2660568952560425
 20
3.979115724563599
1001
CHIEFARC-LNWT
1070
     0
  0
LWPOLYLINE
  5
BE
330
6F
100
AcDbEntity
  8
0
  6
CONTINUOUS
 62
   178
100
AcDbPolyline
 90
       11
 70
     0
 43
0.0
 10
0.0901294946670532
 20
3.746595501899719
 10
-0.088732123374939
 20
3.746595501899719
 10
-0.1031248942017555
 20
3.753023386001587
 10
-0.1031248942017555
 20
3.982050180435181
 10
-0.1131858602166176
 20
3.993368864059448
 10
-0.1245044469833374
 20
3.992809891700745
 10
-0.1514735221862792
 20
3.990853667259216
 10
-0.1602768898010255
 20
3.990294694900513
 10
-0.1905996203422537
 20
3.987499952316284
 10
-0.1960493326187493
 20
3.986940979957577
 10
-0.2305640280246735
 20
3.983307838439941
1001
CHIEFARC-LNWT
1070
     0
  0
LWPOLYLINE
  5
BF
330
6F
100
AcDbEntity
  8
0
  6
CONTINUOUS
 62
   178
100
AcDbPolyline
 90
        6
 70
     0
 43
0.0
 10
-0.2646595239639282
 20
0.0142531394958496
 10
-0.2409044802188873
 20
0.0113186836242676
 10
-0.2318216562271118
 20
0.0470907688140869
 10
-0.2318216562271118
 20
0.0113186836242676
 10
-0.2409044802188873
 20
0.0113186836242676
 10
-0.2327997982501984
 20
0.0103405714035034
1001
CHIEFARC-LNWT
1070
     0
  0
LWPOLYLINE
  5
C0
330
6F
100
AcDbEntity
  8
0
  6
CONTINUOUS
 62
   178
100
AcDbPolyline
 90
       11
 70
     0
 43
0.0
 10
-0.445477694272995
 20
0.0470907688140869
 10
-0.416971623897552
 20
0.0408027172088622
 10
-0.4106835126876831
 20
0.039405345916748
 10
-0.3873476088047031
 20
0.0346543788909913
 10
-0.3749111294746399
 20
0.0321391820907593
 10
-0.3571646511554716
 20
0.0290650129318237
 10
-0.3391386866569519
 20
0.0257114171981812
 10
-0.326702207326889
 20
0.0237550735473633
 10
-0.3033663034439087
 20
0.0198425054550171
 10
-0.2959603071212769
 20
0.0187246799468994
 10
-0.2675939798355103
 20
0.0148119926452637
1001
CHIEFARC-LNWT
1070
     0
  0
LWPOLYLINE
  5
C1
330
6F
100
AcDbEntity
  8
0
  6
CONTINUOUS
 62
   178
100
AcDbPolyline
 90
       12
 70
     0
 43
0.0
 10
-0.2318216562271118
 20
3.983028292655945
 10
-0.2409044802188873
 20
3.982050180435181
 10
-0.2675939798355102
 20
3.978556871414185
 10
-0.2716463208198572
 20
3.977997899055481
 10
-0.3033663034439126
 20
3.973526358604431
 10
-0.3135670125484467
 20
3.97184956073761
 10
-0.3391386866569519
 20
3.967657446861267
 10
-0.3566057085990907
 20
3.964583396911621
 10
-0.3749111294746389
 20
3.961229681968689
 10
-0.4010417461395264
 20
3.955919742584229
 10
-0.4106835126876831
 20
3.9539635181427
 10
-0.445477694272995
 20
3.946278095245361
1001
CHIEFARC-LNWT
1070
     0
  0
LWPOLYLINE
  5
C2
330
6F
100
AcDbEntity
  8
0
  6
CONTINUOUS
 62
   178
100
AcDbPolyline
 90
       11
 70
     0
 43
0.0
 10
-0.4236789345741272
 20
0.0828633308410645
 10
-0.4464558362960815
 20
0.0472304821014404
 10
-0.4751015901565552
 20
0.0542173385620117
 10
-0.4822281002998352
 20
0.055894136428833
 10
-0.5036076903343201
 20
0.06148362159729
 10
-0.5180004835128784
 20
0.0651167631149292
 10
-0.5318343639373778
 20
0.0690294504165649
 10
-0.5537729263305641
 20
0.0751777887344354
 10
-0.5597815513610839
 20
0.0768547058105468
 10
-0.5801830291748038
 20
0.0828633308410642
 10
-0.5874492526054382
 20
0.0849593877792358
1001
CHIEFARC-LNWT
1070
     0
  0
LWPOLYLINE
  5
C3
330
6F
100
AcDbEntity
  8
0
  6
CONTINUOUS
 62
   178
100
AcDbPolyline
 90
        6
 70
     0
 43
0.0
 10
-0.4952235221862793
 20
3.933282613754272
 10
-0.5180004835128784
 20
3.928252100944519
 10
-0.4938261806964874
 20
3.934679985046387
 10
-0.4822281002998353
 20
3.937474727630615
 10
-0.4468750357627869
 20
3.945858836174011
 10
-0.4594512283802032
 20
3.933282613754272
1001
CHIEFARC-LNWT
1070
     0
  0
LWPOLYLINE
  5
C4
330
6F
100
AcDbEntity
  8
0
  6
CONTINUOUS
 62
   178
100
AcDbPolyline
 90
        7
 70
     0
 43
0.0
 10
-0.5180004835128784
 20
3.928252100944519
 10
-0.5430132746696474
 20
3.921265244483948
 10
-0.5537729263305544
 20
3.918191075325016
 10
-0.5801830291748019
 20
3.910505533218385
 10
-0.5895453095436077
 20
3.907571077346802
 10
-0.5938771367072422
 20
3.906173706054708
 10
-0.6253176331520081
 20
3.89611279964447
1001
CHIEFARC-LNWT
1070
     0
  0
LWPOLYLINE
  5
C5
330
6F
100
AcDbEntity
  8
0
  6
CONTINUOUS
 62
   178
100
AcDbPolyline
 90
       50
 70
     0
 43
0.0
 10
-0.6968622207641602
 20
0.1224085092544556
 10
-0.720198154449463
 20
0.1310721635818482
 10
-0.7326346635818477
 20
0.1361025571823118
 10
-0.745909571647644
 20
0.1411330699920654
 10
-0.7684070467948914
 20
0.1503556966781616
 10
-0.7710620164871216
 20
0.1517529487609863
 10
-0.7777693271636963
 20
0.1544079780578613
 10
-0.7684070467948914
 20
0.1544079780578613
 10
-0.7684070467948914
 20
0.1901804208755493
 10
-0.7777693271636963
 20
0.1544079780578613
 10
-0.7962144017219545
 20
0.1623729467391968
 10
-0.8041793107986454
 20
0.165726661682129
 10
-0.8210873603820793
 20
0.1732723712921139
 10
-0.8399516940116885
 20
0.1819360256195069
 10
-0.8456808328628537
 20
0.1844512224197386
 10
-0.8574186563491821
 20
0.1901804208755493
 10
-0.8399516940116882
 20
0.1901804208755493
 10
-0.8399516940116882
 20
0.2259526252746582
 10
-0.8574186563491821
 20
0.1901804208755493
 10
-0.8697153925895691
 20
0.1961890459060669
 10
-0.8757240176200867
 20
0.1989837884902954
 10
-0.8937499523162843
 20
0.2079267501831055
 10
-0.9114964604377747
 20
0.2168698310852051
 10
-0.9175050854682922
 20
0.2199440002441406
 10
-0.9289634227752686
 20
0.2259526252746582
 10
-0.9114964604377747
 20
0.2259526252746582
 10
-0.9114964604377747
 20
0.2617250680923462
 10
-0.9289634227752686
 20
0.2259526252746582
 10
-0.9409807324409485
 20
0.2322407960891724
 10
-0.9472688436508179
 20
0.2355943918228149
 10
-0.9641768336296083
 20
0.2448170185089112
 10
-0.9830411672592169
 20
0.2554368972778324
 10
-0.9870935082435652
 20
0.2576726675033594
 10
-0.9943597316741943
 20
0.2617250680923462
 10
-0.9830411672592163
 20
0.2617250680923462
 10
-0.9830411672592163
 20
0.2974973917007446
 10
-0.9943597316741943
 20
0.2617250680923462
 10
-1.009730696678162
 20
0.2708078622817994
 10
-1.018813490867617
 20
0.2761178016662613
 10
-1.032367825508118
 20
0.283943057060242
 10
-1.054585814476013
 20
0.2976371049880983
 10
-1.076244950294498
 20
0.311610698699953
 10
-1.090358376502991
 20
0.3205537796020509
 10
-1.09804379940033
 20
0.3255842924118042
 10
-1.109781622886658
 20
0.3332697153091431
 10
-1.119563102722168
 20
0.3398373126983643
 10
-1.126130700111389
 20
0.3443088531494141
 10
-1.140802979469299
 20
0.3543697595596313
 10
-1.161483764648438
 20
0.3690420389175415
 10
-1.126130700111389
 20
0.4048143625259399
1001
CHIEFARC-LNWT
1070
     0
  0
LWPOLYLINE
  5
C6
330
6F
100
AcDbEntity
  8
0
  6
CONTINUOUS
 62
   178
100
AcDbPolyline
 90
        8
 70
     0
 43
0.0
 10
-0.6942072510719299
 20
0.1212906837463379
 10
-0.6869409680366516
 20
0.1186356544494629
 10
-0.6679369211196899
 20
0.1117886304855347
 10
-0.6610898971557617
 20
0.1092733144760132
 10
-0.6413872241973878
 20
0.1025660037994385
 10
-0.6253176331520087
 20
0.0972560644149782
 10
-0.614557981491089
 20
0.0936229228973389
 10
-0.5895453095436096
 20
0.0857977867126465
1001
CHIEFARC-LNWT
1070
     0
  0
LWPOLYLINE
  5
C7
330
6F
100
AcDbEntity
  8
0
  6
CONTINUOUS
 62
   178
100
AcDbPolyline
 90
       25
 70
     0
 43
0.0
 10
-0.9960365891456604
 20
3.718648433685303
 10
-1.018813490867615
 20
3.717251062393188
 10
-0.9943597316741943
 20
3.731643795967102
 10
-0.9830411672592164
 20
3.737931966781616
 10
-0.9686483740806626
 20
3.746036648750303
 10
-0.947268843650813
 20
3.757774472236636
 10
-0.9289634227752824
 20
3.767416238784783
 10
-0.9114964604377871
 20
3.776499032974237
 10
-0.8929115533828796
 20
3.786000967025754
 10
-0.8757240176200679
 20
3.794385075569162
 10
-0.8574186563491663
 20
3.803188443183906
 10
-0.8399516940116923
 20
3.81143283843994
 10
-0.8247205018997303
 20
3.818419694900508
 10
-0.8041793107986499
 20
3.827642202377317
 10
-0.7777693271637259
 20
3.838960886001574
 10
-0.7684070467948894
 20
3.843013167381288
 10
-0.7615599632263244
 20
3.845807909965513
 10
-0.7326346635818767
 20
3.857266306877125
 10
-0.7025914192199717
 20
3.869004011154174
 10
-0.6968622207641628
 20
3.870960354804992
 10
-0.6869409680366585
 20
3.874733209609983
 10
-0.661089897155755
 20
3.884095549583437
 10
-0.6469766497611474
 20
3.88884651660921
 10
-0.6253176331520086
 20
3.89611279964447
 10
-0.6025407314300537
 20
3.897510170936584
1001
CHIEFARC-LNWT
1070
     0
  0
LWPOLYLINE
  5
C8
330
6F
100
AcDbEntity
  8
0
  6
CONTINUOUS
 62
   178
100
AcDbPolyline
 90
       21
 70
     0
 43
0.0
 10
-1.339506983757019
 20
0.5121315717697144
 10
-1.321341395378113
 20
0.4957824945449829
 10
-1.304992318153382
 20
0.4818089008331301
 10
-1.302057862281801
 20
0.4792937040328995
 10
-1.298704266548157
 20
0.4763592481613159
 10
-1.282774448394775
 20
0.462804913520813
 10
-1.269220113754272
 20
0.4516260623931885
 10
-1.263211488723755
 20
0.4465955495834351
 10
-1.25566577911377
 20
0.4405869245529175
 10
-1.243368983268738
 20
0.4306656122207642
 10
-1.233447790145874
 20
0.4228403568267822
 10
-1.223247051239014
 20
0.4150151014328003
 10
-1.210111856460571
 20
0.4048143625259399
 10
-1.197675347328186
 20
0.4405869245529175
 10
-1.197675347328186
 20
0.4048143625259399
 10
-1.210111856460571
 20
0.4048143625259399
 10
-1.203125
 20
0.399364709854126
 10
-1.197675347328186
 20
0.3954520225524902
 10
-1.182444214820862
 20
0.3842731714248656
 10
-1.161483764648438
 20
0.3690420389175415
 10
-1.139126062393188
 20
0.4048143625259399
1001
CHIEFARC-LNWT
1070
     0
  0
LWPOLYLINE
  5
C9
330
6F
100
AcDbEntity
  8
0
  6
CONTINUOUS
 62
   178
100
AcDbPolyline
 90
        3
 70
     0
 43
0.0
 10
-1.018813490867615
 20
0.3332697153091431
 10
-1.054585814476013
 20
0.2976371049880981
 10
-1.031808853149414
 20
0.3332697153091431
1001
CHIEFARC-LNWT
1070
     0
  0
LWPOLYLINE
  5
CA
330
6F
100
AcDbEntity
  8
0
  6
CONTINUOUS
 62
   178
100
AcDbPolyline
 90
        5
 70
     0
 43
0.0
 10
-1.446824193000793
 20
2.980424284934998
 10
-1.444029569625854
 20
2.984476625919342
 10
-1.421671867370605
 20
3.016196608543396
 10
-1.412309527397156
 20
3.029750943183899
 10
-1.389532446861267
 20
3.038973569869995
1001
CHIEFARC-LNWT
1070
     0
  0
LWPOLYLINE
  5
CB
330
6F
100
AcDbEntity
  8
0
  6
CONTINUOUS
 62
   178
100
AcDbPolyline
 90
        8
 70
     0
 43
0.0
 10
-1.412309527397156
 20
3.029750943183899
 10
-1.396798729896546
 20
3.051968932151794
 10
-1.376536965370178
 20
3.080894351005554
 10
-1.353760004043579
 20
3.074746012687683
 10
-1.376536965370178
 20
3.074746012687683
 10
-1.376536965370178
 20
3.080894351005554
 10
-1.371646165847778
 20
3.087741494178772
 10
-1.374440908432007
 20
3.089837551116943
1001
CHIEFARC-LNWT
1070
     0
  0
LWPOLYLINE
  5
CC
330
6F
100
AcDbEntity
  8
0
  6
CONTINUOUS
 62
   178
100
AcDbPolyline
 90
        6
 70
     0
 43
0.0
 10
-1.05528450012207
 20
3.695172786712646
 10
-1.090358376502991
 20
3.672815084457397
 10
-1.109781622886651
 20
3.66009914875031
 10
-1.126130700111385
 20
3.649060010910037
 10
-1.161903023719788
 20
3.624187111854553
 10
-1.139126062393188
 20
3.611331462860107
1001
CHIEFARC-LNWT
1070
     0
  0
LWPOLYLINE
  5
CD
330
6F
100
AcDbEntity
  8
0
  6
CONTINUOUS
 62
   178
100
AcDbPolyline
 90
        3
 70
     0
 43
0.0
 10
-1.031808853149414
 20
3.682876110076904
 10
-1.054585814476013
 20
3.69573175907135
 10
-1.018813490867615
 20
3.717251062393188
1001
CHIEFARC-LNWT
1070
     0
  0
LWPOLYLINE
  5
CE
330
6F
100
AcDbEntity
  8
0
  6
CONTINUOUS
 62
   178
100
AcDbPolyline
 90
        3
 70
     0
 43
0.0
 10
-1.376536965370178
 20
3.447002053260803
 10
-1.354039549827576
 20
3.467962384223938
 10
-1.34076464176178
 20
3.479979634284973
1001
CHIEFARC-LNWT
1070
     0
  0
LWPOLYLINE
  5
CF
330
6F
100
AcDbEntity
  8
0
  6
CONTINUOUS
 62
   178
100
AcDbPolyline
 90
        8
 70
     0
 43
0.0
 10
-1.339506983757019
 20
3.481237292289734
 10
-1.304992318153382
 20
3.511559963226318
 10
-1.298704266548155
 20
3.517009615898134
 10
-1.269220113754269
 20
3.541742801666262
 10
-1.255665779113766
 20
3.552781939506533
 10
-1.233447790145881
 20
3.570528507232661
 10
-1.210111856460571
 20
3.588554501533509
 10
-1.197675347328186
 20
3.597916841506958
1001
CHIEFARC-LNWT
1070
     0
  0
LWPOLYLINE
  5
D0
330
6F
100
AcDbEntity
  8
0
  6
CONTINUOUS
 62
   178
100
AcDbPolyline
 90
        3
 70
     0
 43
0.0
 10
-1.174898386001587
 20
3.611331462860107
 10
-1.197675347328186
 20
3.597916841506958
 10
-1.162881135940552
 20
3.623348712921143
1001
CHIEFARC-LNWT
1070
     0
  0
LWPOLYLINE
  5
D1
330
6F
100
AcDbEntity
  8
0
  6
CONTINUOUS
 62
   178
100
AcDbPolyline
 90
       13
 70
     0
 43
0.0
 10
-1.519626498222351
 20
3.191565036773682
 10
-1.500482678413391
 20
3.178429961204529
 10
-1.483854174613953
 20
3.166692137718201
 10
-1.479522347450256
 20
3.163617968559265
 10
-1.473374009132385
 20
3.159286141395569
 10
-1.458562016487133
 20
3.148805975914009
 10
-1.448081851005562
 20
3.141539692878729
 10
-1.437322258949286
 20
3.134273409843449
 10
-1.422230720520012
 20
3.123513817787165
 10
-1.416361808776855
 20
3.119461536407471
 10
-1.412309527397156
 20
3.116666793823242
 10
-1.395401358604431
 20
3.104649543762207
 10
-1.376536965370178
 20
3.091514348983765
1001
CHIEFARC-LNWT
1070
     0
  0
LWPOLYLINE
  5
D2
330
6F
100
AcDbEntity
  8
0
  6
CONTINUOUS
 62
   178
100
AcDbPolyline
 90
        5
 70
     0
 43
0.0
 10
-1.378074049949646
 20
3.445464968681335
 10
-1.412309527397156
 20
3.412068128585815
 10
-1.414685010910026
 20
3.409692645072946
 10
-1.448081851005554
 20
3.375457167625427
 10
-1.425304889678955
 20
3.396697163581848
1001
CHIEFARC-LNWT
1070
     0
  0
LWPOLYLINE
  5
D3
330
6F
100
AcDbEntity
  8
0
  6
CONTINUOUS
 62
   178
100
AcDbPolyline
 90
       27
 70
     0
 43
0.0
 10
-1.304992318153381
 20
0.815497875213623
 10
-1.290320158004761
 20
0.8129826784133911
 10
-1.275787711143494
 20
0.798310399055481
 10
-1.246443152427673
 20
0.798310399055481
 10
-1.269220113754272
 20
0.7917428016662598
 10
-1.272433996200562
 20
0.7950965166091919
 10
-1.275787711143494
 20
0.798310399055481
 10
-1.269220113754272
 20
0.8340827226638794
 10
-1.269220113754272
 20
0.7917428016662598
 10
-1.254547834396362
 20
0.7772102355957029
 10
-1.240015387535095
 20
0.762537956237793
 10
-1.210670828819275
 20
0.762537956237793
 10
-1.233447790145874
 20
0.7559703588485718
 10
-1.233447790145874
 20
0.798310399055481
 10
-1.240015387535095
 20
0.762537956237793
 10
-1.236661672592163
 20
0.7593240737915039
 10
-1.233447790145874
 20
0.7559703588485718
 10
-1.218775510787964
 20
0.7414379119873046
 10
-1.204242944717407
 20
0.7267656326293945
 10
-1.174898386001587
 20
0.7267656326293945
 10
-1.197675347328186
 20
0.7201980352401733
 10
-1.197675347328186
 20
0.762537956237793
 10
-1.204242944717407
 20
0.7267656326293945
 10
-1.200889229774475
 20
0.7235517501831055
 10
-1.197675347328186
 20
0.7201980352401733
 10
-1.183003067970276
 20
0.7056655883789062
 10
-1.180487871170044
 20
0.6909934282302856
1001
CHIEFARC-LNWT
1070
     0
  0
LWPOLYLINE
  5
D4
330
6F
100
AcDbEntity
  8
0
  6
CONTINUOUS
 62
   178
100
AcDbPolyline
 90
        3
 70
     0
 43
0.0
 10
-1.180489009477981
 20
0.6909934282302856
 10
-1.323577572764276
 20
0.5479030292985297
 10
-1.340065956115723
 20
0.5128302574157715
1001
CHIEFARC-LNWT
1070
     0
  0
LWPOLYLINE
  5
D5
330
6F
100
AcDbEntity
  8
0
  6
CONTINUOUS
 62
   178
100
AcDbPolyline
 90
        3
 70
     0
 43
0.0
 10
-1.304992318153381
 20
0.815496736905672
 10
-1.44808271708511
 20
0.6724081736194039
 10
-1.483155488967896
 20
0.6559197902679443
1001
CHIEFARC-LNWT
1070
     0
  0
LWPOLYLINE
  5
D6
330
6F
100
AcDbEntity
  8
0
  6
CONTINUOUS
 62
   178
100
AcDbPolyline
 90
       26
 70
     0
 43
0.0
 10
-1.483854174613953
 20
0.656478762626648
 10
-1.500203251838684
 20
0.6746443510055542
 10
-1.514176845550537
 20
0.6909934282302854
 10
-1.516692042350767
 20
0.6939278841018659
 10
-1.519626498222351
 20
0.6972814798355103
 10
-1.533180832862854
 20
0.7132112979888916
 10
-1.544359683990479
 20
0.7267656326293945
 10
-1.549390196800232
 20
0.7327742576599121
 10
-1.55539882183075
 20
0.7403199672698973
 10
-1.565320134162899
 20
0.7526167631149243
 10
-1.573145389556882
 20
0.7625379562377893
 10
-1.58097064495086
 20
0.7727386951446452
 10
-1.591171383857745
 20
0.7858738899231181
 10
-1.59662103652954
 20
0.7928607463836662
 10
-1.600533723831172
 20
0.7983103990554742
 10
-1.611712574958793
 20
0.8135415315627935
 10
-1.626943707466124
 20
0.8345019817352276
 10
-1.641615986824036
 20
0.8551827669143676
 10
-1.651676893234242
 20
0.8698550462722624
 10
-1.656148433685298
 20
0.8764226436614916
 10
-1.662716031074528
 20
0.886204123497016
 10
-1.670401453971863
 20
0.8979419469833374
 10
-1.675431966781616
 20
0.9056273698806763
 10
-1.684375047683716
 20
0.9197407960891724
 10
-1.698488354682922
 20
0.9418191909790039
 10
-1.675711393356323
 20
0.9771722555160522
1001
CHIEFARC-LNWT
1070
     0
  0
LWPOLYLINE
  5
D7
330
6F
100
AcDbEntity
  8
0
  6
CONTINUOUS
 62
   178
100
AcDbPolyline
 90
        3
 70
     0
 43
0.0
 10
-1.591171383857727
 20
0.8698550462722778
 10
-1.626943707466125
 20
0.8345019817352295
 10
-1.604166746139526
 20
0.8698550462722778
1001
CHIEFARC-LNWT
1070
     0
  0
LWPOLYLINE
  5
D8
330
6F
100
AcDbEntity
  8
0
  6
CONTINUOUS
 62
   178
100
AcDbPolyline
 90
       11
 70
     0
 43
0.0
 10
-1.765701293945312
 20
1.911585427820683
 10
-1.984667062759399
 20
1.911585427820683
 10
-1.997383117675781
 20
1.907253623008728
 10
-1.996824145317078
 20
1.895096622407436
 10
-1.995426774024963
 20
1.87148129940033
 10
-1.994588375091553
 20
1.86156003177166
 10
-1.992911577224731
 20
1.835708856582642
 10
-1.992073178291321
 20
1.828302845358849
 10
-1.989557862281799
 20
1.799936413764954
 10
-1.989278435707092
 20
1.795325130224228
 10
-1.985645174980164
 20
1.764164090156555
1001
CHIEFARC-LNWT
1070
     0
  0
LWPOLYLINE
  5
D9
330
6F
100
AcDbEntity
  8
0
  6
CONTINUOUS
 62
   178
100
AcDbPolyline
 90
       13
 70
     0
 43
0.0
 10
-1.98592472076416
 20
2.227947145700455
 10
-1.989557862281799
 20
2.193432450294495
 10
-1.990116834640503
 20
2.187982738018036
 10
-1.992911577224731
 20
2.157660007476807
 10
-1.993470549583435
 20
2.148856639862061
 10
-1.995426774024963
 20
2.121887564659119
 10
-1.995985746383667
 20
2.110568977892399
 10
-1.997383117675781
 20
2.08611524105072
 10
-1.988998889923096
 20
2.081783436238766
 10
-1.770033121109009
 20
2.081783436238766
 10
-1.749212384223938
 20
2.071163527667522
 10
-1.749212384223938
 20
1.943025946617126
 10
-1.770033121109009
 20
1.911585427820683
1001
CHIEFARC-LNWT
1070
     0
  0
LWPOLYLINE
  5
DA
330
6F
100
AcDbEntity
  8
0
  6
CONTINUOUS
 62
   178
100
AcDbPolyline
 90
        9
 70
     0
 43
0.0
 10
1.750050902366638
 20
1.027337372303009
 10
1.761788725852966
 20
1.048716902732849
 10
1.771430492401123
 20
1.067022323608398
 10
1.78051328659057
 20
1.084489285945879
 10
1.790015220642089
 20
1.103074193000792
 10
1.798399329185487
 20
1.120261728763583
 10
1.807202696800229
 20
1.138567090034478
 10
1.815447092056273
 20
1.156034052371976
 10
1.822433948516846
 20
1.171265244483948
1001
CHIEFARC-LNWT
1070
     0
  0
LWPOLYLINE
  5
DB
330
6F
100
AcDbEntity
  8
0
  6
CONTINUOUS
 62
   178
100
AcDbPolyline
 90
       33
 70
     0
 43
0.0
 10
-1.662716031074524
 20
0.9771722555160522
 10
-1.698488354682922
 20
0.9418191909790039
 10
-1.712042689323425
 20
0.9636179208755493
 10
-1.719867944717407
 20
0.9771722555160522
 10
-1.725177884101868
 20
0.9862550497055054
 10
-1.734260678291321
 20
1.001626014709473
 10
-1.73831307888031
 20
1.008892238140106
 10
-1.740548849105835
 20
1.012944579124451
 10
-1.751168727874756
 20
1.031808912754059
 10
-1.760391354560852
 20
1.048716902732849
 10
-1.763744950294495
 20
1.055005013942719
 10
-1.770033121109009
 20
1.067022323608398
 10
-1.776041746139526
 20
1.078480660915375
 10
-1.779115915298462
 20
1.084489285945892
 10
-1.788058996200562
 20
1.102235794067383
 10
-1.797001957893373
 20
1.120261728763584
 10
-1.799796700477598
 20
1.126270353794094
 10
-1.805805325508118
 20
1.138567090034485
 10
-1.811534523963928
 20
1.150304913520813
 10
-1.81404972076416
 20
1.156034052371979
 10
-1.822713375091553
 20
1.174898386001587
 10
-1.830259084701538
 20
1.191806435585022
 10
-1.83361279964447
 20
1.199771344661713
 10
-1.841577768325806
 20
1.218216419219971
 10
-1.818800806999207
 20
1.227578699588776
 10
-1.841577768325806
 20
1.227578699588776
 10
-1.841577768325806
 20
1.218216419219971
 10
-1.844232797622681
 20
1.224923729896545
 10
-1.845630049705505
 20
1.227578699588776
 10
-1.854852676391602
 20
1.250076174736023
 10
-1.859883189201355
 20
1.263351082801819
 10
-1.864913582801819
 20
1.275787591934204
 10
-1.873577237129211
 20
1.299123525619507
1001
CHIEFARC-LNWT
1070
     0
  0
LWPOLYLINE
  5
DC
330
6F
100
AcDbEntity
  8
0
  6
CONTINUOUS
 62
   178
100
AcDbPolyline
 90
        3
 70
     0
 43
0.0
 10
1.686890363693237
 20
0.9284044504165649
 10
1.67682933807373
 20
0.9056273698806763
 10
1.699187040328979
 20
0.9407012462615967
1001
CHIEFARC-LNWT
1070
     0
  0
LWPOLYLINE
  5
DD
330
6F
100
AcDbEntity
  8
0
  6
CONTINUOUS
 62
   178
100
AcDbPolyline
 90
        5
 70
     0
 43
0.0
 10
1.67682933807373
 20
0.9056273698806763
 10
1.664113402366638
 20
0.8862041234970092
 10
1.65307426452637
 20
0.8698550462722816
 10
1.628201365470886
 20
0.8340827226638794
 10
1.62834107875824
 20
0.8698550462722778
1001
CHIEFARC-LNWT
1070
     0
  0
LWPOLYLINE
  5
DE
330
6F
100
AcDbEntity
  8
0
  6
CONTINUOUS
 62
   178
100
AcDbPolyline
 90
        3
 70
     0
 43
0.0
 10
-1.997383117675781
 20
2.08611524105072
 10
-1.734260678291321
 20
2.08611524105072
 10
-1.749212384223938
 20
2.071163527667522
1001
CHIEFARC-LNWT
1070
     0
  0
LWPOLYLINE
  5
DF
330
6F
100
AcDbEntity
  8
0
  6
CONTINUOUS
 62
   178
100
AcDbPolyline
 90
        6
 70
     0
 43
0.0
 10
-1.483854174613953
 20
2.927464425563812
 10
-1.471976637840271
 20
2.944651961326599
 10
-1.448081851005554
 20
2.978607714176178
 10
-1.448081851005554
 20
2.967428863048553
 10
-1.425304889678955
 20
2.967428863048553
 10
-1.448081851005554
 20
2.978607714176178
1001
CHIEFARC-LNWT
1070
     0
  0
LWPOLYLINE
  5
E0
330
6F
100
AcDbEntity
  8
0
  6
CONTINUOUS
 62
   178
100
AcDbPolyline
 90
       13
 70
     0
 43
0.0
 10
1.874974608421326
 20
2.694245338439941
 10
1.866310954093933
 20
2.717581272125244
 10
1.861280560493469
 20
2.730017781257629
 10
1.856250047683716
 20
2.743292689323425
 10
1.84702742099762
 20
2.765790164470673
 10
1.845630168914795
 20
2.768445134162903
 10
1.84297513961792
 20
2.775152444839478
 10
1.835010170936584
 20
2.793597519397736
 10
1.831656455993652
 20
2.801562428474426
 10
1.824110746383667
 20
2.818470478057861
 10
1.815447092056274
 20
2.837334811687469
 10
1.812931895256042
 20
2.843063950538635
 10
1.807202696800232
 20
2.854801774024963
1001
CHIEFARC-LNWT
1070
     0
  0
LWPOLYLINE
  5
E1
330
6F
100
AcDbEntity
  8
0
  6
CONTINUOUS
 62
   178
100
AcDbPolyline
 90
        5
 70
     0
 43
0.0
 10
-1.461077213287354
 20
2.931656539440155
 10
-1.483854174613953
 20
2.927464425563812
 10
-1.506631135940552
 20
2.921875
 10
-1.519626498222351
 20
2.9308180809021
 10
-1.53262186050415
 20
2.931656539440155
1001
CHIEFARC-LNWT
1070
     0
  0
LWPOLYLINE
  5
E2
330
6F
100
AcDbEntity
  8
0
  6
CONTINUOUS
 62
   178
100
AcDbPolyline
 90
        7
 70
     0
 43
0.0
 10
-1.519626498222351
 20
2.9308180809021
 10
-1.527870893478394
 20
2.936407566070557
 10
-1.539608716964722
 20
2.944651961326599
 10
-1.548831224441533
 20
2.951219558715824
 10
-1.555398821830752
 20
2.955691099166871
 10
-1.569791674613957
 20
2.966031491756442
 10
-1.59047269821167
 20
2.980424284934998
1001
CHIEFARC-LNWT
1070
     0
  0
LWPOLYLINE
  5
E3
330
6F
100
AcDbEntity
  8
0
  6
CONTINUOUS
 62
   178
100
AcDbPolyline
 90
        9
 70
     0
 43
0.0
 10
-1.53262186050415
 20
3.253607869148254
 10
-1.55539882183075
 20
3.253048896789551
 10
-1.544359683990479
 20
3.266603231430054
 10
-1.519626498222351
 20
3.296087384223938
 10
-1.496849536895752
 20
3.289380073547363
 10
-1.519626498222351
 20
3.289380073547363
 10
-1.519626498222351
 20
3.296087384223938
 10
-1.514176845550537
 20
3.302375435829163
 10
-1.483854174613953
 20
3.3368901014328
1001
CHIEFARC-LNWT
1070
     0
  0
LWPOLYLINE
  5
E4
330
6F
100
AcDbEntity
  8
0
  6
CONTINUOUS
 62
   178
100
AcDbPolyline
 90
        3
 70
     0
 43
0.0
 10
-1.482596516609192
 20
3.338147759437561
 10
-1.470579266548157
 20
3.351422667503357
 10
-1.449618935585022
 20
3.373920083045959
1001
CHIEFARC-LNWT
1070
     0
  0
LWPOLYLINE
  5
E5
330
6F
100
AcDbEntity
  8
0
  6
CONTINUOUS
 62
   178
100
AcDbPolyline
 90
        7
 70
     0
 43
0.0
 10
-1.521722555160522
 20
3.192962408065796
 10
-1.524517297744751
 20
3.195058465003967
 10
-1.542682886123657
 20
3.20777440071106
 10
-1.555398821830768
 20
3.216717600822462
 10
-1.563643336296081
 20
3.222586512565612
 10
-1.573145389556885
 20
3.230830907821655
 10
-1.55539882183075
 20
3.253048896789551
1001
CHIEFARC-LNWT
1070
     0
  0
LWPOLYLINE
  5
E6
330
6F
100
AcDbEntity
  8
0
  6
CONTINUOUS
 62
   178
100
AcDbPolyline
 90
        8
 70
     0
 43
0.0
 10
1.829979658126831
 20
1.191806435585022
 10
1.822433948516846
 20
1.171265244483948
 10
1.831656455993652
 20
1.191806435585022
 10
1.84297513961793
 20
1.218216419219993
 10
1.84702742099762
 20
1.227578699588777
 10
1.849822163581851
 20
1.234425783157357
 10
1.861280560493469
 20
1.263351082801818
 10
1.865752100944519
 20
1.286128044128418
1001
CHIEFARC-LNWT
1070
     0
  0
LWPOLYLINE
  5
E7
330
6F
100
AcDbEntity
  8
0
  6
CONTINUOUS
 62
   178
100
AcDbPolyline
 90
       16
 70
     0
 43
0.0
 10
-1.74725615978241
 20
2.931656539440155
 10
-1.770033121109009
 20
2.92634654045105
 10
-1.760391354560852
 20
2.944651961326599
 10
-1.748653531074524
 20
2.966031491756439
 10
-1.740548849105835
 20
2.980424284934998
 10
-1.734260678291321
 20
2.991742849349976
 10
-1.719867944717407
 20
3.016196608543396
 10
-1.698488354682922
 20
3.051549673080444
 10
-1.675152540206909
 20
3.039532423019409
 10
-1.662716031074524
 20
3.030868887901306
 10
-1.653912663459778
 20
3.024999976158142
 10
-1.641615986824036
 20
3.016196608543396
 10
-1.632952332496643
 20
3.010187983512878
 10
-1.626943707466113
 20
3.005995869636527
 10
-1.611992001533525
 20
2.995375990867627
 10
-1.591171383857727
 20
2.980843484401703
1001
CHIEFARC-LNWT
1070
     0
  0
LWPOLYLINE
  5
E8
330
6F
100
AcDbEntity
  8
0
  6
CONTINUOUS
 62
   178
100
AcDbPolyline
 90
        8
 70
     0
 43
0.0
 10
-1.874695062637329
 20
1.301778495311737
 10
-1.877350091934204
 20
1.309044778347015
 10
-1.884197115898132
 20
1.328048825263977
 10
-1.886712431907654
 20
1.334895849227905
 10
-1.893419742584229
 20
1.354598522186279
 10
-1.898729681968689
 20
1.370668113231659
 10
-1.902362823486328
 20
1.381427764892578
 10
-1.910187959671021
 20
1.406440436840057
1001
CHIEFARC-LNWT
1070
     0
  0
LWPOLYLINE
  5
E9
330
6F
100
AcDbEntity
  8
0
  6
CONTINUOUS
 62
   178
100
AcDbPolyline
 90
       10
 70
     0
 43
0.0
 10
-1.818800806999207
 20
2.788567006587982
 10
-1.841577768325806
 20
2.775152444839478
 10
-1.830259084701538
 20
2.801562428474426
 10
-1.821036577224731
 20
2.8221036195755
 10
-1.81404972076416
 20
2.837334811687469
 10
-1.805805325508118
 20
2.854801774024963
 10
-1.797001957893372
 20
2.873107135295868
 10
-1.788617849349976
 20
2.890294671058655
 10
-1.779115915298462
 20
2.908879578113556
 10
-1.770033121109009
 20
2.92634654045105
1001
CHIEFARC-LNWT
1070
     0
  0
LWPOLYLINE
  5
EA
330
6F
100
AcDbEntity
  8
0
  6
CONTINUOUS
 62
   178
100
AcDbPolyline
 90
       22
 70
     0
 43
0.0
 10
-1.911026358604431
 20
1.408536493778229
 10
-1.913122415542603
 20
1.415802717208862
 10
-1.91913104057312
 20
1.436204195022583
 10
-1.920807957649231
 20
1.442212820053101
 10
-1.926956295967102
 20
1.464151382446289
 10
-1.930868983268739
 20
1.477985262870792
 10
-1.93450212478638
 20
1.492378056049358
 10
-1.940091609954833
 20
1.513757646083828
 10
-1.941768407821654
 20
1.520884156227106
 10
-1.948755264282227
 20
1.549529910087585
 10
-1.926117897033691
 20
1.585302233695984
 10
-1.94889497756958
 20
1.550508052110672
 10
-1.955183029174805
 20
1.579014122486115
 10
-1.95658040046692
 20
1.585302233695989
 10
-1.961331367492672
 20
1.608638137578946
 10
-1.963846564292908
 20
1.621074616909027
 10
-1.966920733451843
 20
1.638821095228195
 10
-1.970274329185486
 20
1.656847059726715
 10
-1.972230672836304
 20
1.669283539056778
 10
-1.97614324092865
 20
1.692619442939758
 10
-1.977261066436768
 20
1.70002543926239
 10
-1.981173753738403
 20
1.728391766548157
1001
CHIEFARC-LNWT
1070
     0
  0
LWPOLYLINE
  5
EB
330
6F
100
AcDbEntity
  8
0
  6
CONTINUOUS
 62
   178
100
AcDbPolyline
 90
       13
 70
     0
 43
0.0
 10
1.861280560493469
 20
1.263351082801819
 10
1.873018264770508
 20
1.293394327163696
 10
1.874974608421326
 20
1.299123525619507
 10
1.878747463226318
 20
1.309044778347015
 10
1.888109803199768
 20
1.334895849227905
 10
1.892860770225525
 20
1.349009096622467
 10
1.900127053260805
 20
1.370668113231664
 10
1.910187959671029
 20
1.402108609676386
 10
1.911585330963133
 20
1.406440436840053
 10
1.914519786834718
 20
1.415802717208867
 10
1.922205328941351
 20
1.442212820053123
 10
1.925279498100284
 20
1.45297247171403
 10
1.932266354560852
 20
1.477985262870789
1001
CHIEFARC-LNWT
1070
     0
  0
LWPOLYLINE
  5
EC
330
6F
100
AcDbEntity
  8
0
  6
CONTINUOUS
 62
   178
100
AcDbPolyline
 90
       15
 70
     0
 43
0.0
 10
-1.94889497756958
 20
2.442860811948776
 10
-1.926117897033691
 20
2.430843532085419
 10
-1.94889497756958
 20
2.430843532085419
 10
-1.94889497756958
 20
2.442860811948776
 10
-1.956580400466919
 20
2.408066630363464
 10
-1.958536624908447
 20
2.398424863815308
 10
-1.963846564292908
 20
2.372294247150421
 10
-1.96720027923584
 20
2.353988826274872
 10
-1.970274329185486
 20
2.336521804332733
 10
-1.974466443061829
 20
2.310950130224228
 10
-1.97614324092865
 20
2.30074942111969
 10
-1.9806147813797
 20
2.269029438495636
 10
-1.981173753738403
 20
2.264977097511292
 10
-1.984667062759399
 20
2.238287597894669
 10
-1.985645174980164
 20
2.229204773902893
1001
CHIEFARC-LNWT
1070
     0
  0
LWPOLYLINE
  5
ED
330
6F
100
AcDbEntity
  8
0
  6
CONTINUOUS
 62
   178
100
AcDbPolyline
 90
       16
 70
     0
 43
0.0
 10
-1.877350091934204
 20
2.681249916553497
 10
-1.854573130607605
 20
2.681249916553497
 10
-1.877350091934204
 20
2.684324085712433
 10
-1.886712431907654
 20
2.658473014831543
 10
-1.891463398933411
 20
2.644359767436981
 10
-1.898729681968687
 20
2.622700750827794
 10
-1.908790588378907
 20
2.591260254383084
 10
-1.910187959671022
 20
2.586928427219387
 10
-1.913122415542601
 20
2.577566146850589
 10
-1.920807957649235
 20
2.551156044006333
 10
-1.923882126808169
 20
2.540396392345419
 10
-1.930868983268739
 20
2.515383601188655
 10
-1.937296867370605
 20
2.49120929837227
 10
-1.940091609954854
 20
2.479611217975536
 10
-1.948755264282227
 20
2.443838953971863
 10
-1.913122415542603
 20
2.479611217975616
1001
CHIEFARC-LNWT
1070
     0
  0
LWPOLYLINE
  5
EE
330
6F
100
AcDbEntity
  8
0
  6
CONTINUOUS
 62
   178
100
AcDbPolyline
 90
        3
 70
     0
 43
0.0
 10
-1.913122415542603
 20
2.577566146850586
 10
-1.890345454216003
 20
2.573933005332947
 10
-1.913122415542603
 20
2.573933005332947
1001
CHIEFARC-LNWT
1070
     0
  0
LWPOLYLINE
  5
EF
330
6F
100
AcDbEntity
  8
0
  6
CONTINUOUS
 62
   178
100
AcDbPolyline
 90
        7
 70
     0
 43
0.0
 10
-1.877350091934204
 20
2.684324085712433
 10
-1.873577237129211
 20
2.694245338439941
 10
-1.871620893478394
 20
2.699974536895752
 10
-1.859883189201355
 20
2.730017781257629
 10
-1.848424792289734
 20
2.7589430809021
 10
-1.845630049705505
 20
2.765790164470673
 10
-1.841577768325806
 20
2.775152444839478
1001
CHIEFARC-LNWT
1070
     0
  0
LWPOLYLINE
  5
F0
330
6F
100
AcDbEntity
  8
0
  6
CONTINUOUS
 62
   178
100
AcDbPolyline
 90
        7
 70
     0
 43
0.0
 10
-1.985645174980164
 20
1.763185948133469
 10
-1.984667062759399
 20
1.75508126616478
 10
-1.961890339851379
 20
1.764164090156555
 10
-1.984667062759399
 20
1.764164090156555
 10
-1.984667062759399
 20
1.75508126616478
 10
-1.981732606887817
 20
1.731326222419739
 10
-1.961890339851379
 20
1.764164090156555
1001
CHIEFARC-LNWT
1070
     0
  0
LINE
  5
F1
330
6F
100
AcDbEntity
  8
0
  6
CONTINUOUS
 62
   178
100
AcDbLine
 10
1.900127053260803
 20
1.370668113231659
 30
0.0
 11
1.901524424552917
 21
1.393445014953613
 31
0.0
1001
CHIEFARC-LNWT
1070
     0
  0
LINE
  5
F2
330
6F
100
AcDbEntity
  8
0
  6
CONTINUOUS
 62
   178
100
AcDbLine
 10
1.84297513961792
 20
2.775152444839478
 30
0.0
 11
1.829979658126831
 21
2.765790164470673
 31
0.0
1001
CHIEFARC-LNWT
1070
     0
  0
LINE
  5
F3
330
6F
100
AcDbEntity
  8
0
  6
CONTINUOUS
 62
   178
100
AcDbLine
 10
1.794207334518433
 20
1.12026172876358
 30
0.0
 11
1.79001522064209
 21
1.103074193000793
 31
0.0
1001
CHIEFARC-LNWT
1070
     0
  0
LINE
  5
F4
330
6F
100
AcDbEntity
  8
0
  6
CONTINUOUS
 62
   178
100
AcDbLine
 10
1.758435010910034
 20
2.108892150223255
 30
0.0
 11
1.750609755516052
 21
2.08611524105072
 31
0.0
1001
CHIEFARC-LNWT
1070
     0
  0
LINE
  5
F5
330
6F
100
AcDbEntity
  8
0
  6
CONTINUOUS
 62
   178
100
AcDbLine
 10
1.574542760848999
 20
0.762537956237793
 30
0.0
 11
1.579573273658752
 21
0.7853149175643921
 31
0.0
1001
CHIEFARC-LNWT
1070
     0
  0
LINE
  5
F6
330
6F
100
AcDbEntity
  8
0
  6
CONTINUOUS
 62
   178
100
AcDbLine
 10
1.876092433929443
 20
2.691590368747711
 30
0.0
 11
1.878747463226318
 21
2.684324085712433
 31
0.0
1001
CHIEFARC-LNWT
1070
     0
  0
LINE
  5
F7
330
6F
100
AcDbEntity
  8
0
  6
CONTINUOUS
 62
   178
100
AcDbLine
 10
1.914519786834717
 20
2.577566146850586
 30
0.0
 11
1.912423729896545
 21
2.584832370281219
 31
0.0
1001
CHIEFARC-LNWT
1070
     0
  0
LINE
  5
F8
330
6F
100
AcDbEntity
  8
0
  6
CONTINUOUS
 62
   178
100
AcDbLine
 10
1.436483860015869
 20
3.289380073547363
 30
0.0
 11
1.41370689868927
 21
3.267301917076111
 31
0.0
1001
CHIEFARC-LNWT
1070
     0
  0
LINE
  5
F9
330
6F
100
AcDbEntity
  8
0
  6
CONTINUOUS
 62
   178
100
AcDbLine
 10
1.48455286026001
 20
3.338147392314141
 30
0.0
 11
1.306389689445496
 21
3.159985432583625
 31
0.0
1001
CHIEFARC-LNWT
1070
     0
  0
LINE
  5
FA
330
6F
100
AcDbEntity
  8
0
  6
CONTINUOUS
 62
   178
100
AcDbLine
 10
1.426702260971069
 20
3.279598593711853
 30
0.0
 11
1.431515800598731
 21
3.284564435868717
 31
0.0
1001
CHIEFARC-LNWT
1070
     0
  0
LINE
  5
FB
330
6F
100
AcDbEntity
  8
0
  6
CONTINUOUS
 62
   178
100
AcDbLine
 10
1.211509227752686
 20
0.4048143625259399
 30
0.0
 11
1.221849679946899
 21
0.4275914430618286
 31
0.0
1001
CHIEFARC-LNWT
1070
     0
  0
LINE
  5
FC
330
6F
100
AcDbEntity
  8
0
  6
CONTINUOUS
 62
   178
100
AcDbLine
 10
1.205640316009521
 20
0.7267656326293945
 30
0.0
 11
1.221849679946899
 21
0.7495425939559937
 31
0.0
1001
CHIEFARC-LNWT
1070
     0
  0
LINE
  5
FD
330
6F
100
AcDbEntity
  8
0
  6
CONTINUOUS
 62
   178
100
AcDbLine
 10
1.241412758827209
 20
0.762537956237793
 30
0.0
 11
1.257622122764587
 21
0.7853149175643921
 31
0.0
1001
CHIEFARC-LNWT
1070
     0
  0
LINE
  5
FE
330
6F
100
AcDbEntity
  8
0
  6
CONTINUOUS
 62
   178
100
AcDbLine
 10
1.00721549987793
 20
0.2845020294189453
 30
0.0
 11
0.9957571029663086
 21
0.2617250680923462
 31
0.0
1001
CHIEFARC-LNWT
1070
     0
  0
LINE
  5
FF
330
6F
100
AcDbEntity
  8
0
  6
CONTINUOUS
 62
   178
100
AcDbLine
 10
0.7925812602043152
 20
0.1771849393844604
 30
0.0
 11
0.7791666984558105
 21
0.1544079780578613
 31
0.0
1001
CHIEFARC-LNWT
1070
     0
  0
LINE
  5
100
330
6F
100
AcDbEntity
  8
0
  6
CONTINUOUS
 62
   178
100
AcDbLine
 10
1.199771404266357
 20
3.338147759437561
 30
0.0
 11
1.221849679946899
 21
3.36092472076416
 31
0.0
1001
CHIEFARC-LNWT
1070
     0
  0
LINE
  5
101
330
6F
100
AcDbEntity
  8
0
  6
CONTINUOUS
 62
   178
100
AcDbLine
 10
1.235543847084045
 20
3.373920083045959
 30
0.0
 11
1.257622122764587
 21
3.396697163581848
 31
0.0
1001
CHIEFARC-LNWT
1070
     0
  0
LINE
  5
102
330
6F
100
AcDbEntity
  8
0
  6
CONTINUOUS
 62
   178
100
AcDbLine
 10
1.271316170692444
 20
3.409692645072937
 30
0.0
 11
1.293394327163696
 21
3.432469606399536
 31
0.0
1001
CHIEFARC-LNWT
1070
     0
  0
LINE
  5
103
330
6F
100
AcDbEntity
  8
0
  6
CONTINUOUS
 62
   178
100
AcDbLine
 10
1.364938974380493
 20
3.217835426330566
 30
0.0
 11
1.342162013053894
 21
3.195757150650024
 31
0.0
1001
CHIEFARC-LNWT
1070
     0
  0
LINE
  5
104
330
6F
100
AcDbEntity
  8
0
  6
CONTINUOUS
 62
   178
100
AcDbLine
 10
1.400711417198181
 20
3.253607869148254
 30
0.0
 11
1.377934336662292
 21
3.231529593467712
 31
0.0
1001
CHIEFARC-LNWT
1070
     0
  0
LINE
  5
105
330
6F
100
AcDbEntity
  8
0
  6
CONTINUOUS
 62
   178
100
AcDbLine
 10
1.234845161437988
 20
3.570528507232666
 30
0.0
 11
1.221849679946899
 21
3.575559020042419
 31
0.0
1001
CHIEFARC-LNWT
1070
     0
  0
LINE
  5
106
330
6F
100
AcDbEntity
  8
0
  6
CONTINUOUS
 62
   178
100
AcDbLine
 10
1.163999686199929
 20
3.302375435829163
 30
0.0
 11
1.342161645930503
 21
3.480538606643677
 31
0.0
1001
CHIEFARC-LNWT
1070
     0
  0
LINE
  5
107
330
6F
100
AcDbEntity
  8
0
  6
CONTINUOUS
 62
   178
100
AcDbLine
 10
1.212068200111389
 20
3.35114312171936
 30
0.0
 11
1.217033207597922
 21
3.355955827087357
 31
0.0
1001
CHIEFARC-LNWT
1070
     0
  0
LINE
  5
108
330
6F
100
AcDbEntity
  8
0
  6
CONTINUOUS
 62
   178
100
AcDbLine
 10
1.283612847328186
 20
3.422688007354736
 30
0.0
 11
1.288578689485064
 21
3.427501546982427
 31
0.0
1001
CHIEFARC-LNWT
1070
     0
  0
LINE
  5
109
330
6F
100
AcDbEntity
  8
0
  6
CONTINUOUS
 62
   178
100
AcDbLine
 10
1.355157375335693
 20
3.208053946495056
 30
0.0
 11
1.359970080703704
 21
3.21301895398156
 31
0.0
1001
CHIEFARC-LNWT
1070
     0
  0
LINE
  5
10A
330
6F
100
AcDbEntity
  8
0
  6
CONTINUOUS
 62
   178
100
AcDbLine
 10
0.7210365533828735
 20
3.861737847328186
 30
0.0
 11
0.7340320348739624
 21
3.857266306877136
 31
0.0
1001
CHIEFARC-LNWT
1070
     0
  0
LINE
  5
10B
330
6F
100
AcDbEntity
  8
0
  6
CONTINUOUS
 62
   178
100
AcDbLine
 10
0.6267150044441223
 20
3.89611279964447
 30
0.0
 11
0.6137195825576782
 21
3.897510170936584
 31
0.0
1001
CHIEFARC-LNWT
1070
     0
  0
LINE
  5
10C
330
6F
100
AcDbEntity
  8
0
  6
CONTINUOUS
 62
   178
100
AcDbLine
 10
-0.3391386866569519
 20
3.967657446861267
 30
0.0
 11
-0.3163617253303528
 21
3.969054818153381
 31
0.0
1001
CHIEFARC-LNWT
1070
     0
  0
LINE
  5
10D
330
6F
100
AcDbEntity
  8
0
  6
CONTINUOUS
 62
   178
100
AcDbLine
 10
-0.4464558362960815
 20
3.946138381958008
 30
0.0
 11
-0.4822281002998352
 21
3.937474727630615
 31
0.0
1001
CHIEFARC-LNWT
1070
     0
  0
LINE
  5
10E
330
6F
100
AcDbEntity
  8
0
  6
CONTINUOUS
 62
   178
100
AcDbLine
 10
-0.709857702255249
 20
3.861737847328186
 30
0.0
 11
-0.7326346635818481
 21
3.857266306877136
 31
0.0
1001
CHIEFARC-LNWT
1070
     0
  0
LINE
  5
10F
330
6F
100
AcDbEntity
  8
0
  6
CONTINUOUS
 62
   178
100
AcDbLine
 10
-1.090358376502991
 20
3.672815084457397
 30
0.0
 11
-1.067581295967102
 21
3.682876110076904
 31
0.0
1001
CHIEFARC-LNWT
1070
     0
  0
LINE
  5
110
330
6F
100
AcDbEntity
  8
0
  6
CONTINUOUS
 62
   178
100
AcDbLine
 10
-1.210670828819275
 20
3.575559020042419
 30
0.0
 11
-1.233447790145874
 21
3.570528507232666
 31
0.0
1001
CHIEFARC-LNWT
1070
     0
  0
LINE
  5
111
330
6F
100
AcDbEntity
  8
0
  6
CONTINUOUS
 62
   178
100
AcDbLine
 10
-1.304992318153381
 20
0.5664887428283691
 30
0.0
 11
-1.282215476036072
 21
0.5706808567047119
 31
0.0
1001
CHIEFARC-LNWT
1070
     0
  0
LINE
  5
112
330
6F
100
AcDbEntity
  8
0
  6
CONTINUOUS
 62
   178
100
AcDbLine
 10
-1.269220113754272
 20
0.6022611856460571
 30
0.0
 11
-1.246443152427673
 21
0.6064532995223999
 31
0.0
1001
CHIEFARC-LNWT
1070
     0
  0
LINE
  5
113
330
6F
100
AcDbEntity
  8
0
  6
CONTINUOUS
 62
   178
100
AcDbLine
 10
-1.353760004043579
 20
0.7853149175643921
 30
0.0
 11
-1.357952117919922
 21
0.762537956237793
 31
0.0
1001
CHIEFARC-LNWT
1070
     0
  0
LINE
  5
114
330
6F
100
AcDbEntity
  8
0
  6
CONTINUOUS
 62
   178
100
AcDbLine
 10
-1.39372456073761
 20
0.7267656326293945
 30
0.0
 11
-1.389532446861267
 21
0.7495425939559937
 31
0.0
1001
CHIEFARC-LNWT
1070
     0
  0
LINE
  5
115
330
6F
100
AcDbEntity
  8
0
  6
CONTINUOUS
 62
   178
100
AcDbLine
 10
-1.322179794311523
 20
0.798310399055481
 30
0.0
 11
-1.317987680435181
 21
0.8210873603820801
 31
0.0
1001
CHIEFARC-LNWT
1070
     0
  0
LINE
  5
116
330
6F
100
AcDbEntity
  8
0
  6
CONTINUOUS
 62
   178
100
AcDbLine
 10
-1.210670828819275
 20
0.6422257423400879
 30
0.0
 11
-1.233447790145874
 21
0.6380336284637451
 31
0.0
1001
CHIEFARC-LNWT
1070
     0
  0
LINE
  5
117
330
6F
100
AcDbEntity
  8
0
  6
CONTINUOUS
 62
   178
100
AcDbLine
 10
-1.174898386001587
 20
0.6779980659484863
 30
0.0
 11
-1.197675347328186
 21
0.6738059520721436
 31
0.0
1001
CHIEFARC-LNWT
1070
     0
  0
LINE
  5
118
330
6F
100
AcDbEntity
  8
0
  6
CONTINUOUS
 62
   178
100
AcDbLine
 10
-1.425304889678955
 20
0.7137702703475952
 30
0.0
 11
-1.429497003555298
 21
0.6909934282302856
 31
0.0
1001
CHIEFARC-LNWT
1070
     0
  0
LINE
  5
119
330
6F
100
AcDbEntity
  8
0
  6
CONTINUOUS
 62
   178
100
AcDbLine
 10
-1.412309527397156
 20
3.412068128585815
 30
0.0
 11
-1.389532446861267
 21
3.432469606399536
 31
0.0
1001
CHIEFARC-LNWT
1070
     0
  0
LINE
  5
11A
330
6F
100
AcDbEntity
  8
0
  6
CONTINUOUS
 62
   178
100
AcDbLine
 10
-1.805805325508118
 20
2.854801774024963
 30
0.0
 11
-1.783028483390808
 21
2.860111713409424
 31
0.0
1001
CHIEFARC-LNWT
1070
     0
  0
LINE
  5
11B
330
6F
100
AcDbEntity
  8
0
  6
CONTINUOUS
 62
   178
100
AcDbLine
 10
-1.734260678291321
 20
2.991742849349976
 30
0.0
 11
-1.711483716964722
 21
3.003201246261597
 31
0.0
1001
CHIEFARC-LNWT
1070
     0
  0
LINE
  5
11C
330
6F
100
AcDbEntity
  8
0
  6
CONTINUOUS
 62
   178
100
AcDbLine
 10
-1.675711393356323
 20
3.038973569869995
 30
0.0
 11
-1.662716031074524
 21
3.030868887901306
 31
0.0
1001
CHIEFARC-LNWT
1070
     0
  0
LINE
  5
11D
330
6F
100
AcDbEntity
  8
0
  6
CONTINUOUS
 62
   178
100
AcDbLine
 10
-1.913122415542603
 20
1.585302233695984
 30
0.0
 11
-1.948755264282227
 21
1.549529910087585
 31
0.0
1001
CHIEFARC-LNWT
1070
     0
  0
ENDBLK
  5
11F
330
6F
100
AcDbEntity
  8
0
100
AcDbBlockEnd
  0
ENDSEC
  0
SECTION
  2
ENTITIES
  0
INSERT
  5
120
330
1F
100
AcDbEntity
  8
GEOMETRIC_SHAPES
  6
CONTINUOUS
100
AcDbBlockReference
  2
WHEEL170-HI-RES-R1_2
 10
334.0
 20
84.00663113594054
 30
0.0
 50
360.0
1001
CHIEFARC-LNWT
1070
     0
  0
MTEXT
  5
123
330
1F
100
AcDbEntity
  8
GEOMETRIC_SHAPES__LABELS
100
AcDbMText
 10
316.93
 20
78.24432584269661
 30
0.0
 40
3.0
 41
35.16
 71
     7
 72
     1
  1
\fChief Blueprint|b0|i0|c0|p0;wheel170-hi-res-r1
1001
CHIEFARC_RTFBINARY
1000

1001
CHIEFARC_SIMPLE_TEXT_BINAR
1000

1001
CHIEFARC-WIDTHEXPANDED
1070
     1
1001
CHIEFARC_AUTOWIDTH
1070
     1
  0
ENDSEC
  0
SECTION
  2
OBJECTS
  0
DICTIONARY
  5
C
330
0
100
AcDbDictionary
  3
ACAD_GROUP
350
D
  3
ACAD_LAYOUT
350
1A
  3
ACAD_MATERIAL
350
43
  3
ACAD_MLEADERSTYLE
350
6B
  3
ACAD_MLINESTYLE
350
17
  3
ACAD_PLOTSETTINGS
350
19
  3
ACAD_SCALELIST
350
47
  3
ACAD_VISUALSTYLE
350
2A
  3
ACDBHEADERROUNDTRIPXREC
350
12A
  3
ACDBVARIABLEDICTIONARY
350
14B
  3
DWGPROPS
350
152
  0
DICTIONARY
  5
153
330
8
100
AcDbDictionary
280
     1
  3
ACAD_XREC_ROUNDTRIP
360
154
  0
DICTIONARY
  5
D
102
{ACAD_REACTORS
330
C
102
}
330
C
100
AcDbDictionary
  0
DICTIONARY
  5
1A
102
{ACAD_REACTORS
330
C
102
}
330
C
100
AcDbDictionary
  0
DICTIONARY
  5
43
102
{ACAD_REACTORS
330
C
102
}
330
C
100
AcDbDictionary
  3
BYBLOCK
350
45
  3
BYLAYER
350
44
  3
GLOBAL
350
46
  0
DICTIONARY
  5
6B
102
{ACAD_REACTORS
330
C
102
}
330
C
100
AcDbDictionary
  3
STANDARD
350
6C
  0
DICTIONARY
  5
17
102
{ACAD_REACTORS
330
C
102
}
330
C
100
AcDbDictionary
  3
STANDARD
350
18
  0
DICTIONARY
  5
19
102
{ACAD_REACTORS
330
C
102
}
330
C
100
AcDbDictionary
  0
DICTIONARY
  5
47
102
{ACAD_REACTORS
330
C
102
}
330
C
100
AcDbDictionary
  3
A0
350
48
  3
A1
350
49
  3
A2
350
4A
  3
A3
350
4B
  3
A4
350
4C
  3
A5
350
4D
  3
A6
350
4E
  3
A7
350
4F
  3
A8
350
50
  3
A9
350
51
  3
B0
350
52
  3
B1
350
53
  3
B2
350
54
  3
B3
350
55
  3
B4
350
56
  3
B5
350
57
  3
B6
350
58
  3
B7
350
59
  3
B8
350
5A
  3
B9
350
5B
  3
C0
350
5C
  3
C1
350
5D
  3
C2
350
5E
  3
C3
350
5F
  3
C4
350
60
  3
C5
350
61
  3
C6
350
62
  3
C7
350
63
  3
C8
350
64
  3
C9
350
65
  3
D0
350
66
  3
D1
350
67
  3
D2
350
68
  0
DICTIONARY
  5
2A
102
{ACAD_REACTORS
330
C
102
}
330
C
100
AcDbDictionary
  3
2DWIREFRAME
350
2F
  3
BASIC
350
32
  3
BRIGHTEN
350
36
  3
COLORCHANGE
350
3A
  3
CONCEPTUAL
350
34
  3
DIM
350
35
  3
EDGECOLOROFF
350
3D
  3
FACEPATTERN
350
39
  3
FLAT
350
2B
  3
FLATWITHEDGES
350
2C
  3
GOURAUD
350
2D
  3
GOURAUDWITHEDGES
350
2E
  3
HIDDEN
350
31
  3
JITTEROFF
350
3B
  3
LINEPATTERN
350
38
  3
OVERHANGOFF
350
3C
  3
REALISTIC
350
33
  3
SHADED
350
42
  3
SHADED_WITH_EDGES
350
41
  3
SHADES_OF_GRAY
350
3E
  3
SKETCHY
350
3F
  3
THICKEN
350
37
  3
WIREFRAME
350
30
  3
X-RAY
350
40
  0
DICTIONARY
  5
12A
102
{ACAD_REACTORS
330
C
102
}
330
C
100
AcDbDictionary
  3
CEPSNID
350
134
  3
CEPSNTYPE
350
133
  3
DIMSTYLEDATA
350
14A
  3
FINGERPRINTGUID
350
135
  3
HYPERLINKBASE
350
12D
  3
INSUNITS
350
132
  3
LAYOUTDICT
350
12F
  3
LWETCUNION
350
131
  3
PLOTSETDICT
350
130
  3
PSVPSCALE
350
137
  3
PUCSBASE
350
13A
  3
PUCSORGBACK
350
140
  3
PUCSORGBOTTOM
350
13C
  3
PUCSORGFRONT
350
13F
  3
PUCSORGLEFT
350
13D
  3
PUCSORGRIGHT
350
13E
  3
PUCSORGTOP
350
13B
  3
PUCSORTHOREF
350
138
  3
PUCSORTHOVIEW
350
139
  3
STYLESHEET
350
12E
  3
TSTACKALIGN
350
12B
  3
TSTACKSIZE
350
12C
  3
UCSBASE
350
143
  3
UCSORGBACK
350
149
  3
UCSORGBOTTOM
350
145
  3
UCSORGFRONT
350
148
  3
UCSORGLEFT
350
146
  3
UCSORGRIGHT
350
147
  3
UCSORGTOP
350
144
  3
UCSORTHOREF
350
141
  3
UCSORTHOVIEW
350
142
  3
VERSIONGUID
350
136
  0
DICTIONARY
  5
14B
102
{ACAD_REACTORS
330
C
102
}
330
C
100
AcDbDictionary
  3
CANNOSCALE
350
155
  3
CMLEADERSTYLE
350
14D
  3
CTABLESTYLE
350
14C
  3
DIMASSOC
350
150
  3
HIDETEXT
350
151
  3
MSLTSCALE
350
156
  0
XRECORD
  5
152
102
{ACAD_REACTORS
330
C
102
}
330
C
100
AcDbXrecord
  1
DWGPROPS COOKIE
  2

  3

  4

  6
Chief Architect Premier X9; Version 19.2.0.39; Chief Architect, Inc.; 2017
  7

  8

  9

300
=
301
=
302
=
303
=
304
=
305
=
306
=
307
=
308
=
309
=
 40
0.0
 41
2458055.064668299
 42
2458055.064668484
  1

 90
        0
  0
XRECORD
  5
154
102
{ACAD_REACTORS
330
153
102
}
330
153
100
AcDbXrecord
102
VTR_0.000_0.000_1.000_1.000_VISUALSTYLE
340
2F
102
VTR_0.000_0.000_1.000_1.000_GRIDDISPLAY
 70
     3
102
VTR_0.000_0.000_1.000_1.000_GRIDMAJOR
 70
     5
102
VTR_0.000_0.000_1.000_1.000_DEFAULTLIGHTING
280
     1
102
VTR_0.000_0.000_1.000_1.000_DEFAULTLIGHTINGTYPE
 70
     1
102
VTR_0.000_0.000_1.000_1.000_BRIGHTNESS
141
0.0
102
VTR_0.000_0.000_1.000_1.000_CONTRAST
142
0.0
  0
MATERIAL
  5
45
102
{ACAD_REACTORS
330
43
102
}
102
{ACAD_XDICTIONARY
360
159
102
}
330
43
100
AcDbMaterial
  1
BYBLOCK
  0
MATERIAL
  5
44
102
{ACAD_REACTORS
330
43
102
}
102
{ACAD_XDICTIONARY
360
157
102
}
330
43
100
AcDbMaterial
  1
BYLAYER
  0
MATERIAL
  5
46
102
{ACAD_REACTORS
330
43
102
}
102
{ACAD_XDICTIONARY
360
15B
102
}
330
43
100
AcDbMaterial
  1
GLOBAL
  0
ACAD_PROXY_OBJECT
  5
6C
102
{ACAD_REACTORS
330
6B
102
}
330
6B
100
AcDbProxyObject
 90
      499
 91
      505
 93
      610
310
40901902A4063FBFFFFFE056BD1B81E855B9FC0AD7A3703D0AD73F4214DD185B99185C9900AD7A3703D0AC73F90141901A02B5E8DC0F42B1CFC02B5E8DC0F42B1CFE5764000000000000300FC0
340
14
340
0
340
11
340
0
 94
        0
1001
ACAD_MLEADERVER
1070
     2
  0
MLINESTYLE
  5
18
102
{ACAD_REACTORS
330
17
102
}
330
17
100
AcDbMlineStyle
  2
Standard
 70
     0
  3

 62
   256
 51
90.0
 52
90.0
 71
     2
 49
0.5
 62
   256
  6
BYLAYER
 49
-0.5
 62
   256
  6
BYLAYER
  0
ACAD_PROXY_OBJECT
  5
48
102
{ACAD_REACTORS
330
47
102
}
330
47
100
AcDbProxyObject
 90
      499
 91
      503
 93
       41
310
903313A31580
  0
ACAD_PROXY_OBJECT
  5
49
102
{ACAD_REACTORS
330
47
102
}
330
47
100
AcDbProxyObject
 90
      499
 91
      503
 93
      105
310
903313A324000000000000004000
  0
ACAD_PROXY_OBJECT
  5
4A
102
{ACAD_REACTORS
330
47
102
}
330
47
100
AcDbProxyObject
 90
      499
 91
      503
 93
      105
310
903313A344000000000000104000
  0
ACAD_PROXY_OBJECT
  5
4B
102
{ACAD_REACTORS
330
47
102
}
330
47
100
AcDbProxyObject
 90
      499
 91
      503
 93
      105
310
903313A354000000000000144000
  0
ACAD_PROXY_OBJECT
  5
4C
102
{ACAD_REACTORS
330
47
102
}
330
47
100
AcDbProxyObject
 90
      499
 91
      503
 93
      105
310
903313A384000000000000204000
  0
ACAD_PROXY_OBJECT
  5
4D
102
{ACAD_REACTORS
330
47
102
}
330
47
100
AcDbProxyObject
 90
      499
 91
      503
 93
      113
310
904313A31304000000000000244000
  0
ACAD_PROXY_OBJECT
  5
4E
102
{ACAD_REACTORS
330
47
102
}
330
47
100
AcDbProxyObject
 90
      499
 91
      503
 93
      113
310
904313A31364000000000000304000
  0
ACAD_PROXY_OBJECT
  5
4F
102
{ACAD_REACTORS
330
47
102
}
330
47
100
AcDbProxyObject
 90
      499
 91
      503
 93
      113
310
904313A32304000000000000344000
  0
ACAD_PROXY_OBJECT
  5
50
102
{ACAD_REACTORS
330
47
102
}
330
47
100
AcDbProxyObject
 90
      499
 91
      503
 93
      113
310
904313A333040000000000003E4000
  0
ACAD_PROXY_OBJECT
  5
51
102
{ACAD_REACTORS
330
47
102
}
330
47
100
AcDbProxyObject
 90
      499
 91
      503
 93
      113
310
904313A34304000000000000444000
  0
ACAD_PROXY_OBJECT
  5
52
102
{ACAD_REACTORS
330
47
102
}
330
47
100
AcDbProxyObject
 90
      499
 91
      503
 93
      113
310
904313A35304000000000000494000
  0
ACAD_PROXY_OBJECT
  5
53
102
{ACAD_REACTORS
330
47
102
}
330
47
100
AcDbProxyObject
 90
      499
 91
      503
 93
      121
310
905313A3130304000000000000594000
  0
ACAD_PROXY_OBJECT
  5
54
102
{ACAD_REACTORS
330
47
102
}
330
47
100
AcDbProxyObject
 90
      499
 91
      503
 93
      105
310
903323A310000000000000010100
  0
ACAD_PROXY_OBJECT
  5
55
102
{ACAD_REACTORS
330
47
102
}
330
47
100
AcDbProxyObject
 90
      499
 91
      503
 93
      105
310
903343A310000000000000410100
  0
ACAD_PROXY_OBJECT
  5
56
102
{ACAD_REACTORS
330
47
102
}
330
47
100
AcDbProxyObject
 90
      499
 91
      503
 93
      105
310
903383A310000000000000810100
  0
ACAD_PROXY_OBJECT
  5
57
102
{ACAD_REACTORS
330
47
102
}
330
47
100
AcDbProxyObject
 90
      499
 91
      503
 93
      113
310
90431303A310000000000000910100
  0
ACAD_PROXY_OBJECT
  5
58
102
{ACAD_REACTORS
330
47
102
}
330
47
100
AcDbProxyObject
 90
      499
 91
      503
 93
      121
310
9053130303A310000000000001650100
  0
ACAD_PROXY_OBJECT
  5
59
102
{ACAD_REACTORS
330
47
102
}
330
47
100
AcDbProxyObject
 90
      499
 91
      503
 93
      257
310
90E312F31323822203D2031272D3022000000000000200FC000000000000284000
  0
ACAD_PROXY_OBJECT
  5
5A
102
{ACAD_REACTORS
330
47
102
}
330
47
100
AcDbProxyObject
 90
      499
 91
      503
 93
      249
310
90D312F363422203D2031272D3022000000000000240FC000000000000284000
  0
ACAD_PROXY_OBJECT
  5
5B
102
{ACAD_REACTORS
330
47
102
}
330
47
100
AcDbProxyObject
 90
      499
 91
      503
 93
      249
310
90D312F333222203D2031272D3022000000000000280FC000000000000284000
  0
ACAD_PROXY_OBJECT
  5
5C
102
{ACAD_REACTORS
330
47
102
}
330
47
100
AcDbProxyObject
 90
      499
 91
      503
 93
      249
310
90D312F313622203D2031272D30220000000000002C0FC000000000000284000
  0
ACAD_PROXY_OBJECT
  5
5D
102
{ACAD_REACTORS
330
47
102
}
330
47
100
AcDbProxyObject
 90
      499
 91
      503
 93
      249
310
90D332F333222203D2031272D30220000000000002E0FC000000000000284000
  0
ACAD_PROXY_OBJECT
  5
5E
102
{ACAD_REACTORS
330
47
102
}
330
47
100
AcDbProxyObject
 90
      499
 91
      503
 93
      241
310
90C312F3822203D2031272D3022000000000000300FC000000000000284000
  0
ACAD_PROXY_OBJECT
  5
5F
102
{ACAD_REACTORS
330
47
102
}
330
47
100
AcDbProxyObject
 90
      499
 91
      503
 93
      249
310
90D332F313622203D2031272D3022000000000000320FC000000000000284000
  0
ACAD_PROXY_OBJECT
  5
60
102
{ACAD_REACTORS
330
47
102
}
330
47
100
AcDbProxyObject
 90
      499
 91
      503
 93
      241
310
90C312F3422203D2031272D3022000000000000340FC000000000000284000
  0
ACAD_PROXY_OBJECT
  5
61
102
{ACAD_REACTORS
330
47
102
}
330
47
100
AcDbProxyObject
 90
      499
 91
      503
 93
      241
310
90C332F3822203D2031272D3022000000000000360FC000000000000284000
  0
ACAD_PROXY_OBJECT
  5
62
102
{ACAD_REACTORS
330
47
102
}
330
47
100
AcDbProxyObject
 90
      499
 91
      503
 93
      241
310
90C312F3222203D2031272D3022000000000000380FC000000000000284000
  0
ACAD_PROXY_OBJECT
  5
63
102
{ACAD_REACTORS
330
47
102
}
330
47
100
AcDbProxyObject
 90
      499
 91
      503
 93
      241
310
90C332F3422203D2031272D30220000000000003A0FC000000000000284000
  0
ACAD_PROXY_OBJECT
  5
64
102
{ACAD_REACTORS
330
47
102
}
330
47
100
AcDbProxyObject
 90
      499
 91
      503
 93
      161
310
90A3122203D2031272D30224000000000000284000
  0
ACAD_PROXY_OBJECT
  5
65
102
{ACAD_REACTORS
330
47
102
}
330
47
100
AcDbProxyObject
 90
      499
 91
      503
 93
      257
310
90E312D312F3222203D2031272D30220000000000003E0FC000000000000284000
  0
ACAD_PROXY_OBJECT
  5
66
102
{ACAD_REACTORS
330
47
102
}
330
47
100
AcDbProxyObject
 90
      499
 91
      503
 93
      225
310
90A3322203D2031272D302200000000000002100000000000000284000
  0
ACAD_PROXY_OBJECT
  5
67
102
{ACAD_REACTORS
330
47
102
}
330
47
100
AcDbProxyObject
 90
      499
 91
      503
 93
      225
310
90A3622203D2031272D302200000000000006100000000000000284000
  0
ACAD_PROXY_OBJECT
  5
68
102
{ACAD_REACTORS
330
47
102
}
330
47
100
AcDbProxyObject
 90
      499
 91
      503
 93
      249
310
90D31272D3022203D2031272D30220000000000000A100000000000000284000
  0
ACAD_PROXY_OBJECT
  5
2F
102
{ACAD_REACTORS
330
2A
102
}
330
2A
100
AcDbProxyObject
 90
      499
 91
      501
 93
      436
310
42CC9915DA5C99599C985B595049028333333333333E33F0000000000000F90107901411070040501600405405064090741402480A0340
1001
ACAD
1000
AcDbSavedByObjectVersion
1070
     0
  0
ACAD_PROXY_OBJECT
  5
32
102
{ACAD_REACTORS
330
2A
102
}
330
2A
100
AcDbProxyObject
 90
      499
 91
      501
 93
      388
310
4150985CDA58D07406404333333333333E33F0000000000000F90107A41107004050150841D405064090741402480A0350
1001
ACAD
1000
AcDbSavedByObjectVersion
1070
     0
  0
ACAD_PROXY_OBJECT
  5
36
102
{ACAD_REACTORS
330
2A
102
}
330
2A
100
AcDbProxyObject
 90
      499
 91
      501
 93
      428
310
42109C9A59DA1D195B90C409028333333333333E33F0000000000000F9010790141107004050150841D405064090741402480A029950
1001
ACAD
1000
AcDbSavedByObjectVersion
1070
     0
  0
ACAD_PROXY_OBJECT
  5
3A
102
{ACAD_REACTORS
330
2A
102
}
330
2A
100
AcDbProxyObject
 90
      499
 91
      501
 93
      452
310
42D0DBDB1BDC90DA185B99D95104090240C333333333333E33F0000000000000F90108901411070040501508421405064090741402480A0350
1001
ACAD
1000
AcDbSavedByObjectVersion
1070
     0
  0
ACAD_PROXY_OBJECT
  5
34
102
{ACAD_REACTORS
330
2A
102
}
330
2A
100
AcDbProxyObject
 90
      499
 91
      501
 93
      500
310
4290DBDB98D95C1D1D585B10940D028333333333333E33F0000000000000F90107902409070040501000000000018199010841D405064090740C02480A0340
1001
ACAD
1000
AcDbSavedByObjectVersion
1070
     0
  0
ACAD_PROXY_OBJECT
  5
35
102
{ACAD_REACTORS
330
2A
102
}
330
2A
100
AcDbProxyObject
 90
      499
 91
      501
 93
      412
310
40D11A5B50B409028333333333333E33F0000000000000F9010790141107004050150841D405064090741402480A02677FFFFFD0
1001
ACAD
1000
AcDbSavedByObjectVersion
1070
     0
  0
ACAD_PROXY_OBJECT
  5
3D
102
{ACAD_REACTORS
330
2A
102
}
330
2A
100
AcDbProxyObject
 90
      499
 91
      501
 93
      452
310
43115919D950DBDB1BDC93D999916409028333333333333E33F0000000000000F9010790141107004050150841D405064090741402480A0350
1001
ACAD
1000
AcDbSavedByObjectVersion
1070
     0
  0
ACAD_PROXY_OBJECT
  5
39
102
{ACAD_REACTORS
330
2A
102
}
330
2A
100
AcDbProxyObject
 90
      499
 91
      501
 93
      444
310
42D19858D95C185D1D195C9B90F409028333333333333E33F0000000000000F9010790141107004050150841D405064090741402480A0350
1001
ACAD
1000
AcDbSavedByObjectVersion
1070
     0
  0
ACAD_PROXY_OBJECT
  5
2B
102
{ACAD_REACTORS
330
2A
102
}
330
2A
100
AcDbProxyObject
 90
      499
 91
      501
 93
      380
310
41119B185D240901404333333333333E33F0000000000000F9010740A907004050150841D405064090741402480A1B50
1001
ACAD
1000
AcDbSavedByObjectVersion
1070
     0
  0
ACAD_PROXY_OBJECT
  5
2C
102
{ACAD_REACTORS
330
2A
102
}
330
2A
100
AcDbProxyObject
 90
      499
 91
      501
 93
      468
310
43519B185D15DA5D1A115919D95CD0140901404333333333333E33F0000000000000F90107409019070040501600405405064090741402480A1B50
1001
ACAD
1000
AcDbSavedByObjectVersion
1070
     0
  0
ACAD_PROXY_OBJECT
  5
2D
102
{ACAD_REACTORS
330
2A
102
}
330
2A
100
AcDbProxyObject
 90
      499
 91
      501
 93
      404
310
41D1DBDD5C985D5910240902404333333333333E33F0000000000000F9010740A9070040501641D405064090741402480A1B50
1001
ACAD
1000
AcDbSavedByObjectVersion
1070
     0
  0
ACAD_PROXY_OBJECT
  5
2E
102
{ACAD_REACTORS
330
2A
102
}
330
2A
100
AcDbProxyObject
 90
      499
 91
      501
 93
      492
310
4411DBDD5C985D5915DA5D1A115919D95CD0340902404333333333333E33F0000000000000F90107409019070040501600405405064090741402480A1B50
1001
ACAD
1000
AcDbSavedByObjectVersion
1070
     0
  0
ACAD_PROXY_OBJECT
  5
31
102
{ACAD_REACTORS
330
2A
102
}
330
2A
100
AcDbProxyObject
 90
      499
 91
      501
 93
      476
310
41921A5919195B90640502408333333333333E33F0000000000000F901079024090700405020000000000001110200405405064090740C02480A0340
1001
ACAD
1000
AcDbSavedByObjectVersion
1070
     0
  0
ACAD_PROXY_OBJECT
  5
3B
102
{ACAD_REACTORS
330
2A
102
}
330
2A
100
AcDbProxyObject
 90
      499
 91
      501
 93
      428
310
42529A5D1D195C93D999914409028333333333333E33F0000000000000F9010790141107004050150A41D405064090741402480A0350
1001
ACAD
1000
AcDbSavedByObjectVersion
1070
     0
  0
ACAD_PROXY_OBJECT
  5
38
102
{ACAD_REACTORS
330
2A
102
}
330
2A
100
AcDbProxyObject
 90
      499
 91
      501
 93
      444
310
42D31A5B995C185D1D195C9B90E409028333333333333E33F0000000000000F9010790141107004050750841D405064090741402483A0350
1001
ACAD
1000
AcDbSavedByObjectVersion
1070
     0
  0
ACAD_PROXY_OBJECT
  5
3C
102
{ACAD_REACTORS
330
2A
102
}
330
2A
100
AcDbProxyObject
 90
      499
 91
      501
 93
      444
310
42D3DD995C9A185B99D3D999915409028333333333333E33F0000000000000F9010790141107004050150941D405064090741402480A0350
1001
ACAD
1000
AcDbSavedByObjectVersion
1070
     0
  0
ACAD_PROXY_OBJECT
  5
33
102
{ACAD_REACTORS
330
2A
102
}
330
2A
100
AcDbProxyObject
 90
      499
 91
      501
 93
      428
310
425499585B1A5CDD1A58D08409038333333333333E33F0000000000000F9010740A907004050150800405405064090740C02480A1B40
1001
ACAD
1000
AcDbSavedByObjectVersion
1070
     0
  0
ACAD_PROXY_OBJECT
  5
42
102
{ACAD_REACTORS
330
2A
102
}
330
2A
100
AcDbProxyObject
 90
      499
 91
      501
 93
      420
310
4194DA1859195911B40902404333333333333E33F0000000000000F9010740A41107004050150800405405064090840C02480A0B40
1001
ACAD
1000
AcDbSavedByObjectVersion
1070
     0
  0
ACAD_PROXY_OBJECT
  5
41
102
{ACAD_REACTORS
330
2A
102
}
330
2A
100
AcDbProxyObject
 90
      499
 91
      501
 93
      516
310
4454DA18591959081DDA5D1A08195919D95CD1A40902404333333333333E33F0000000000000F901074090142907004050250800405405064090740C02480A0B40
1001
ACAD
1000
AcDbSavedByObjectVersion
1070
     0
  0
ACAD_PROXY_OBJECT
  5
3E
102
{ACAD_REACTORS
330
2A
102
}
330
2A
100
AcDbProxyObject
 90
      499
 91
      501
 93
      532
310
4394DA1859195CC81BD98811DC985E5174090240C333333333333E33F0000000000000F901079024090741D01000000000000111010841D405064090740C02480A0340
1001
ACAD
1000
AcDbSavedByObjectVersion
1070
     0
  0
ACAD_PROXY_OBJECT
  5
3F
102
{ACAD_REACTORS
330
2A
102
}
330
2A
100
AcDbProxyObject
 90
      499
 91
      501
 93
      476
310
41D4DAD95D18DA1E51840502408333333333333E33F0000000000000F901079024090741D01000000000000111010B41D405064090741802480A0340
1001
ACAD
1000
AcDbSavedByObjectVersion
1070
     0
  0
ACAD_PROXY_OBJECT
  5
37
102
{ACAD_REACTORS
330
2A
102
}
330
2A
100
AcDbProxyObject
 90
      499
 91
      501
 93
      412
310
41D51A1A58DAD95B90D409028333333333333E33F0000000000000F9010790141107004050150C41D405064090741402480A0350
1001
ACAD
1000
AcDbSavedByObjectVersion
1070
     0
  0
ACAD_PROXY_OBJECT
  5
30
102
{ACAD_REACTORS
330
2A
102
}
330
2A
100
AcDbProxyObject
 90
      499
 91
      501
 93
      420
310
4255DA5C99599C985B595059028333333333333E33F0000000000000F90107901411070040501600405405064090740C02480A0340
1001
ACAD
1000
AcDbSavedByObjectVersion
1070
     0
  0
ACAD_PROXY_OBJECT
  5
40
102
{ACAD_REACTORS
330
2A
102
}
330
2A
100
AcDbProxyObject
 90
      499
 91
      501
 93
      404
310
41560B54985E51940902404000000000000E03F0000000000000F9010740501907004050150841D405064090740C02480A1B40
1001
ACAD
1000
AcDbSavedByObjectVersion
1070
     0
  0
XRECORD
  5
134
102
{ACAD_REACTORS
330
12A
102
}
330
12A
100
AcDbXrecord
340
0
  0
XRECORD
  5
133
102
{ACAD_REACTORS
330
12A
102
}
330
12A
100
AcDbXrecord
 90
        0
  0
XRECORD
  5
14A
102
{ACAD_REACTORS
330
12A
102
}
330
12A
100
AcDbXrecord
1000
DSTYLE
1002
{
1070
    73
 70
     0
1070
    74
 70
     0
1070
   340
340
11
1070
   140
 40
5.0
1002
}
  0
XRECORD
  5
135
102
{ACAD_REACTORS
330
12A
102
}
330
12A
100
AcDbXrecord
  1
{16378FA1-922F-4028-AEAA-F7288C5CD352}
  0
XRECORD
  5
12D
102
{ACAD_REACTORS
330
12A
102
}
330
12A
100
AcDbXrecord
  1

  0
XRECORD
  5
132
102
{ACAD_REACTORS
330
12A
102
}
330
12A
100
AcDbXrecord
 90
        1
  0
XRECORD
  5
12F
102
{ACAD_REACTORS
330
12A
102
}
330
12A
100
AcDbXrecord
340
1A
  0
XRECORD
  5
131
102
{ACAD_REACTORS
330
12A
102
}
330
12A
100
AcDbXrecord
 90
    10781
  0
XRECORD
  5
130
102
{ACAD_REACTORS
330
12A
102
}
330
12A
100
AcDbXrecord
340
19
  0
XRECORD
  5
137
102
{ACAD_REACTORS
330
12A
102
}
330
12A
100
AcDbXrecord
 40
0.0
  0
XRECORD
  5
13A
102
{ACAD_REACTORS
330
12A
102
}
330
12A
100
AcDbXrecord
340
0
  0
XRECORD
  5
140
102
{ACAD_REACTORS
330
12A
102
}
330
12A
100
AcDbXrecord
 10
0.0
 20
0.0
 30
0.0
  0
XRECORD
  5
13C
102
{ACAD_REACTORS
330
12A
102
}
330
12A
100
AcDbXrecord
 10
0.0
 20
0.0
 30
0.0
  0
XRECORD
  5
13F
102
{ACAD_REACTORS
330
12A
102
}
330
12A
100
AcDbXrecord
 10
0.0
 20
0.0
 30
0.0
  0
XRECORD
  5
13D
102
{ACAD_REACTORS
330
12A
102
}
330
12A
100
AcDbXrecord
 10
0.0
 20
0.0
 30
0.0
  0
XRECORD
  5
13E
102
{ACAD_REACTORS
330
12A
102
}
330
12A
100
AcDbXrecord
 10
0.0
 20
0.0
 30
0.0
  0
XRECORD
  5
13B
102
{ACAD_REACTORS
330
12A
102
}
330
12A
100
AcDbXrecord
 10
0.0
 20
0.0
 30
0.0
  0
XRECORD
  5
138
102
{ACAD_REACTORS
330
12A
102
}
330
12A
100
AcDbXrecord
340
0
  0
XRECORD
  5
139
102
{ACAD_REACTORS
330
12A
102
}
330
12A
100
AcDbXrecord
 70
     0
  0
XRECORD
  5
12E
102
{ACAD_REACTORS
330
12A
102
}
330
12A
100
AcDbXrecord
  1

  0
XRECORD
  5
12B
102
{ACAD_REACTORS
330
12A
102
}
330
12A
100
AcDbXrecord
 90
        1
  0
XRECORD
  5
12C
102
{ACAD_REACTORS
330
12A
102
}
330
12A
100
AcDbXrecord
 90
       70
  0
XRECORD
  5
143
102
{ACAD_REACTORS
330
12A
102
}
330
12A
100
AcDbXrecord
340
0
  0
XRECORD
  5
149
102
{ACAD_REACTORS
330
12A
102
}
330
12A
100
AcDbXrecord
 10
0.0
 20
0.0
 30
0.0
  0
XRECORD
  5
145
102
{ACAD_REACTORS
330
12A
102
}
330
12A
100
AcDbXrecord
 10
0.0
 20
0.0
 30
0.0
  0
XRECORD
  5
148
102
{ACAD_REACTORS
330
12A
102
}
330
12A
100
AcDbXrecord
 10
0.0
 20
0.0
 30
0.0
  0
XRECORD
  5
146
102
{ACAD_REACTORS
330
12A
102
}
330
12A
100
AcDbXrecord
 10
0.0
 20
0.0
 30
0.0
  0
XRECORD
  5
147
102
{ACAD_REACTORS
330
12A
102
}
330
12A
100
AcDbXrecord
 10
0.0
 20
0.0
 30
0.0
  0
XRECORD
  5
144
102
{ACAD_REACTORS
330
12A
102
}
330
12A
100
AcDbXrecord
 10
0.0
 20
0.0
 30
0.0
  0
XRECORD
  5
141
102
{ACAD_REACTORS
330
12A
102
}
330
12A
100
AcDbXrecord
340
0
  0
XRECORD
  5
142
102
{ACAD_REACTORS
330
12A
102
}
330
12A
100
AcDbXrecord
 70
     0
  0
XRECORD
  5
136
102
{ACAD_REACTORS
330
12A
102
}
330
12A
100
AcDbXrecord
  1
{FAEB1C32-E019-11D5-929B-00C0DF256EC4}
  0
DICTIONARYVAR
  5
155
102
{ACAD_REACTORS
330
14B
102
}
330
14B
100
DictionaryVariables
280
     0
  1
1:1
  0
DICTIONARYVAR
  5
14D
102
{ACAD_REACTORS
330
14B
102
}
330
14B
100
DictionaryVariables
280
     0
  1
Standard
  0
DICTIONARYVAR
  5
14C
102
{ACAD_REACTORS
330
14B
102
}
330
14B
100
DictionaryVariables
280
     0
  1
Standard
  0
DICTIONARYVAR
  5
150
102
{ACAD_REACTORS
330
14B
102
}
330
14B
100
DictionaryVariables
280
     0
  1
2
  0
DICTIONARYVAR
  5
151
102
{ACAD_REACTORS
330
14B
102
}
330
14B
100
DictionaryVariables
280
     0
  1
1
  0
DICTIONARYVAR
  5
156
102
{ACAD_REACTORS
330
14B
102
}
330
14B
100
DictionaryVariables
280
     0
  1
1
  0
DICTIONARY
  5
159
330
45
100
AcDbDictionary
280
     1
  3
ACAD_XREC_ROUNDTRIP
360
15A
  0
DICTIONARY
  5
157
330
44
100
AcDbDictionary
280
     1
  3
ACAD_XREC_ROUNDTRIP
360
158
  0
DICTIONARY
  5
15B
330
46
100
AcDbDictionary
280
     1
  3
ACAD_XREC_ROUNDTRIP
360
15C
  0
XRECORD
  5
15A
102
{ACAD_REACTORS
330
159
102
}
330
159
100
AcDbXrecord
102
MATERIAL
148
0.0
149
0.0
149
0.0
 93
        0
 94
      127
282
     0
 72
     1
 77
     1
171
     1
175
     1
179
     1
273
     0
  0
XRECORD
  5
158
102
{ACAD_REACTORS
330
157
102
}
330
157
100
AcDbXrecord
102
MATERIAL
148
0.0
149
0.0
149
0.0
 93
        0
 94
      127
282
     0
 72
     1
 77
     1
171
     1
175
     1
179
     1
273
     0
  0
XRECORD
  5
15C
102
{ACAD_REACTORS
330
15B
102
}
330
15B
100
AcDbXrecord
102
MATERIAL
148
0.0
149
0.0
149
0.0
 93
        0
 94
      127
282
     0
 72
     1
 77
     1
171
     1
175
     1
179
     1
273
     0
  0
ENDSEC
  0
EOF
