  0
SECTION
  2
HEADER
  9
$ACADVER
  1
AC1014
  9
$ACADMAINTVER
 70
     9
  9
$DWGCODEPAGE
  3
UNDEFINED
  9
$INSBASE
 10
0.0
 20
0.0
 30
0.0
  9
$EXTMIN
 10
1.000000000000000E+20
 20
1.000000000000000E+20
 30
1.000000000000000E+20
  9
$EXTMAX
 10
-1.000000000000000E+20
 20
-1.000000000000000E+20
 30
-1.000000000000000E+20
  9
$LIMMIN
 10
0.0
 20
0.0
  9
$LIMMAX
 10
12.0
 20
9.0
  9
$ORTHOMODE
 70
     0
  9
$REGENMODE
 70
     1
  9
$FILLMODE
 70
     1
  9
$QTEXTMODE
 70
     0
  9
$MIRRTEXT
 70
     1
  9
$DRAGMODE
 70
     2
  9
$LTSCALE
 40
1.0
  9
$OSMODE
 70
    37
  9
$ATTMODE
 70
     1
  9
$TEXTSIZE
 40
0.2
  9
$TRACEWID
 40
0.05
  9
$TEXTSTYLE
  7
STANDARD
  9
$CLAYER
  8
0
  9
$CELTYPE
  6
BYLAYER
  9
$CECOLOR
 62
   256
  9
$CELTSCALE
 40
1.0
  9
$DELOBJ
 70
     1
  9
$DISPSILH
 70
     0
  9
$DIMSCALE
 40
1.0
  9
$DIMASZ
 40
0.18
  9
$DIMEXO
 40
0.0625
  9
$DIMDLI
 40
0.38
  9
$DIMRND
 40
0.0
  9
$DIMDLE
 40
0.0
  9
$DIMEXE
 40
0.18
  9
$DIMTP
 40
0.0
  9
$DIMTM
 40
0.0
  9
$DIMTXT
 40
0.18
  9
$DIMCEN
 40
0.09
  9
$DIMTSZ
 40
0.0
  9
$DIMTOL
 70
     0
  9
$DIMLIM
 70
     0
  9
$DIMTIH
 70
     1
  9
$DIMTOH
 70
     1
  9
$DIMSE1
 70
     0
  9
$DIMSE2
 70
     0
  9
$DIMTAD
 70
     0
  9
$DIMZIN
 70
     0
  9
$DIMBLK
  1

  9
$DIMASO
 70
     1
  9
$DIMSHO
 70
     1
  9
$DIMPOST
  1

  9
$DIMAPOST
  1

  9
$DIMALT
 70
     0
  9
$DIMALTD
 70
     2
  9
$DIMALTF
 40
25.4
  9
$DIMLFAC
 40
1.0
  9
$DIMTOFL
 70
     0
  9
$DIMTVP
 40
0.0
  9
$DIMTIX
 70
     0
  9
$DIMSOXD
 70
     0
  9
$DIMSAH
 70
     0
  9
$DIMBLK1
  1

  9
$DIMBLK2
  1

  9
$DIMSTYLE
  2
STANDARD
  9
$DIMCLRD
 70
     0
  9
$DIMCLRE
 70
     0
  9
$DIMCLRT
 70
     0
  9
$DIMTFAC
 40
1.0
  9
$DIMGAP
 40
0.09
  9
$DIMJUST
 70
     0
  9
$DIMSD1
 70
     0
  9
$DIMSD2
 70
     0
  9
$DIMTOLJ
 70
     1
  9
$DIMTZIN
 70
     0
  9
$DIMALTZ
 70
     0
  9
$DIMALTTZ
 70
     0
  9
$DIMFIT
 70
     3
  9
$DIMUPT
 70
     0
  9
$DIMUNIT
 70
     2
  9
$DIMDEC
 70
     4
  9
$DIMTDEC
 70
     4
  9
$DIMALTU
 70
     2
  9
$DIMALTTD
 70
     2
  9
$DIMTXSTY
  7
STANDARD
  9
$DIMAUNIT
 70
     0
  9
$LUNITS
 70
     2
  9
$LUPREC
 70
     4
  9
$SKETCHINC
 40
0.1
  9
$FILLETRAD
 40
0.5
  9
$AUNITS
 70
     0
  9
$AUPREC
 70
     0
  9
$MENU
  1
.
  9
$ELEVATION
 40
0.0
  9
$PELEVATION
 40
0.0
  9
$THICKNESS
 40
0.0
  9
$LIMCHECK
 70
     0
  9
$CHAMFERA
 40
0.5
  9
$CHAMFERB
 40
0.5
  9
$CHAMFERC
 40
1.0
  9
$CHAMFERD
 40
0.0
  9
$SKPOLY
 70
     0
  9
$TDCREATE
 40
2457928.335983797
  9
$TDUPDATE
 40
2457928.335995371
  9
$TDINDWG
 40
0.0000000116
  9
$TDUSRTIMER
 40
0.0000000116
  9
$USRTIMER
 70
     1
  9
$ANGBASE
 50
0.0
  9
$ANGDIR
 70
     0
  9
$PDMODE
 70
     0
  9
$PDSIZE
 40
0.0
  9
$PLINEWID
 40
0.0
  9
$COORDS
 70
     1
  9
$SPLFRAME
 70
     0
  9
$SPLINETYPE
 70
     6
  9
$SPLINESEGS
 70
     8
  9
$ATTDIA
 70
     0
  9
$ATTREQ
 70
     1
  9
$HANDLING
 70
     1
  9
$HANDSEED
  5
92
  9
$SURFTAB1
 70
     6
  9
$SURFTAB2
 70
     6
  9
$SURFTYPE
 70
     6
  9
$SURFU
 70
     6
  9
$SURFV
 70
     6
  9
$UCSNAME
  2

  9
$UCSORG
 10
0.0
 20
0.0
 30
0.0
  9
$UCSXDIR
 10
1.0
 20
0.0
 30
0.0
  9
$UCSYDIR
 10
0.0
 20
1.0
 30
0.0
  9
$PUCSNAME
  2

  9
$PUCSORG
 10
0.0
 20
0.0
 30
0.0
  9
$PUCSXDIR
 10
1.0
 20
0.0
 30
0.0
  9
$PUCSYDIR
 10
0.0
 20
1.0
 30
0.0
  9
$USERI1
 70
     0
  9
$USERI2
 70
     0
  9
$USERI3
 70
     0
  9
$USERI4
 70
     0
  9
$USERI5
 70
     0
  9
$USERR1
 40
0.0
  9
$USERR2
 40
0.0
  9
$USERR3
 40
0.0
  9
$USERR4
 40
0.0
  9
$USERR5
 40
0.0
  9
$WORLDVIEW
 70
     1
  9
$SHADEDGE
 70
     3
  9
$SHADEDIF
 70
    70
  9
$TILEMODE
 70
     1
  9
$MAXACTVP
 70
    64
  9
$PINSBASE
 10
0.0
 20
0.0
 30
0.0
  9
$PLIMCHECK
 70
     0
  9
$PEXTMIN
 10
1.000000000000000E+20
 20
1.000000000000000E+20
 30
1.000000000000000E+20
  9
$PEXTMAX
 10
-1.000000000000000E+20
 20
-1.000000000000000E+20
 30
-1.000000000000000E+20
  9
$PLIMMIN
 10
0.0
 20
0.0
  9
$PLIMMAX
 10
12.0
 20
9.0
  9
$UNITMODE
 70
     0
  9
$VISRETAIN
 70
     1
  9
$PLINEGEN
 70
     0
  9
$PSLTSCALE
 70
     1
  9
$TREEDEPTH
 70
  3020
  9
$PICKSTYLE
 70
     1
  9
$CMLSTYLE
  2
STANDARD
  9
$CMLJUST
 70
     0
  9
$CMLSCALE
 40
1.0
  9
$PROXYGRAPHICS
 70
     1
  9
$MEASUREMENT
 70
     0
  0
ENDSEC
  0
SECTION
  2
CLASSES
  0
CLASS
  1
ACDBDICTIONARYWDFLT
  2
AcDbDictionaryWithDefault
  3
ObjectDBX Classes
 90
        0
280
     0
281
     0
  0
CLASS
  1
VISUALSTYLE
  2
AcDbVisualStyle
  3
ObjectDBX Classes
 90
     4095
280
     0
281
     0
  0
CLASS
  1
MATERIAL
  2
AcDbMaterial
  3
ObjectDBX Classes
 90
     1153
280
     0
281
     0
  0
CLASS
  1
SUN
  2
AcDbSun
  3
SCENEOE
 90
     1024
280
     0
281
     0
  0
CLASS
  1
IMAGEDEF
  2
AcDbRasterImageDef
  3
ISM
 90
        0
280
     0
281
     0
  0
CLASS
  1
RASTERVARIABLES
  2
AcDbRasterVariables
  3
ISM
 90
        0
280
     0
281
     0
  0
CLASS
  1
IMAGE
  2
AcDbRasterImage
  3
ISM
 90
      127
280
     0
281
     1
  0
CLASS
  1
IMAGEDEF_REACTOR
  2
AcDbRasterImageDefReactor
  3
ISM
 90
        1
280
     0
281
     0
  0
CLASS
  1
DICTIONARYVAR
  2
AcDbDictionaryVar
  3
ObjectDBX Classes
 90
        0
280
     0
281
     0
  0
CLASS
  1
XRECORD
  2
AcDbXrecord
  3
AutoCAD 2000
 90
        0
280
     0
281
     0
  0
CLASS
  1
LWPOLYLINE
  2
AcDbPolyline
  3
AutoCAD 2000
 90
        0
280
     0
281
     1
  0
CLASS
  1
HATCH
  2
AcDbHatch
  3
AutoCAD 2000
 90
        0
280
     0
281
     1
  0
CLASS
  1
ACDBPLACEHOLDER
  2
AcDbPlaceHolder
  3
ObjectDBX Classes
 90
        0
280
     0
281
     0
  0
CLASS
  1
LAYOUT
  2
AcDbLayout
  3
ObjectDBX Classes
 90
        0
280
     0
281
     0
  0
ENDSEC
  0
SECTION
  2
TABLES
  0
TABLE
  2
VPORT
  5
8
330
0
100
AcDbSymbolTable
 70
     1
  0
VPORT
  5
29
330
8
100
AcDbSymbolTableRecord
100
AcDbViewportTableRecord
  2
*ACTIVE
 70
     0
 10
0.0
 20
0.0
 11
1.0
 21
1.0
 12
0.0
 22
0.0
 13
0.0
 23
0.0
 14
0.5
 24
0.5
 15
0.5
 25
0.5
 16
0.0
 26
0.0
 36
1.0
 17
125.8278673520557
 27
-148.166666629625
 37
0.0
 40
265.2888888225667
 41
1.196808510638298
 42
50.0
 43
0.0
 44
0.0
 50
0.0
 51
0.0
 71
     0
 72
   100
 73
     1
 74
     3
 75
     0
 76
     0
 77
     0
 78
     0
  0
ENDTAB
  0
TABLE
  2
LTYPE
  5
5
330
0
100
AcDbSymbolTable
 70
     1
  0
LTYPE
  5
14
330
5
100
AcDbSymbolTableRecord
100
AcDbLinetypeTableRecord
  2
BYBLOCK
 70
     0
  3

 72
    65
 73
     0
 40
0.0
  0
LTYPE
  5
15
330
5
100
AcDbSymbolTableRecord
100
AcDbLinetypeTableRecord
  2
BYLAYER
 70
     0
  3

 72
    65
 73
     0
 40
0.0
  0
LTYPE
  5
16
330
5
100
AcDbSymbolTableRecord
100
AcDbLinetypeTableRecord
  2
CONTINUOUS
 70
     0
  3
Solid line
 72
    65
 73
     0
 40
0.0
  0
ENDTAB
  0
TABLE
  2
LAYER
  5
2
330
0
100
AcDbSymbolTable
 70
     2
  0
LAYER
  5
10
330
2
100
AcDbSymbolTableRecord
100
AcDbLayerTableRecord
  2
0
 70
     0
 62
     7
  6
CONTINUOUS
  0
LAYER
  5
40
330
2
100
AcDbSymbolTableRecord
100
AcDbLayerTableRecord
  2
LAYER_1
 70
     0
 62
     7
  6
CONTINUOUS
  0
ENDTAB
  0
TABLE
  2
STYLE
  5
3
330
0
100
AcDbSymbolTable
 70
     1
  0
STYLE
  5
11
330
3
100
AcDbSymbolTableRecord
100
AcDbTextStyleTableRecord
  2
STANDARD
 70
     0
 40
0.0
 41
1.0
 50
0.0
 71
     0
 42
0.2
  3
txt
  4

  0
ENDTAB
  0
TABLE
  2
VIEW
  5
6
330
0
100
AcDbSymbolTable
 70
     0
  0
ENDTAB
  0
TABLE
  2
UCS
  5
7
330
0
100
AcDbSymbolTable
 70
     0
  0
ENDTAB
  0
TABLE
  2
APPID
  5
9
330
0
100
AcDbSymbolTable
 70
     1
  0
APPID
  5
12
330
9
100
AcDbSymbolTableRecord
100
AcDbRegAppTableRecord
  2
ACAD
 70
     0
  0
ENDTAB
  0
TABLE
  2
DIMSTYLE
  5
A
330
0
100
AcDbSymbolTable
 70
     1
  0
DIMSTYLE
105
27
330
A
100
AcDbSymbolTableRecord
100
AcDbDimStyleTableRecord
  2
STANDARD
 70
     0
  3

  4

  5

  6

  7

 40
1.0
 41
0.18
 42
0.0625
 43
0.38
 44
0.18
 45
0.0
 46
0.0
 47
0.0
 48
0.0
140
0.18
141
0.09
142
0.0
143
25.4
144
1.0
145
0.0
146
1.0
147
0.09
 71
     0
 72
     0
 73
     1
 74
     1
 75
     0
 76
     0
 77
     0
 78
     0
170
     0
171
     2
172
     0
173
     0
174
     0
175
     0
176
     0
177
     0
178
     0
270
     2
271
     4
272
     4
273
     2
274
     2
340
11
275
     0
280
     0
281
     0
282
     0
283
     1
284
     0
285
     0
286
     0
287
     3
288
     0
  0
ENDTAB
  0
TABLE
  2
BLOCK_RECORD
  5
1
330
0
100
AcDbSymbolTable
 70
     6
  0
BLOCK_RECORD
  5
1F
330
1
100
AcDbSymbolTableRecord
100
AcDbBlockTableRecord
  2
*MODEL_SPACE
  0
BLOCK_RECORD
  5
1B
330
1
100
AcDbSymbolTableRecord
100
AcDbBlockTableRecord
  2
*PAPER_SPACE
  0
BLOCK_RECORD
  5
43
330
1
100
AcDbSymbolTableRecord
100
AcDbBlockTableRecord
  2
BLOCK_2
  0
BLOCK_RECORD
  5
48
330
1
100
AcDbSymbolTableRecord
100
AcDbBlockTableRecord
  2
BLOCK_3
  0
BLOCK_RECORD
  5
4D
330
1
100
AcDbSymbolTableRecord
100
AcDbBlockTableRecord
  2
BLOCK_4
  0
BLOCK_RECORD
  5
52
330
1
100
AcDbSymbolTableRecord
100
AcDbBlockTableRecord
  2
BLOCK_5
  0
BLOCK_RECORD
  5
5E
330
1
100
AcDbSymbolTableRecord
100
AcDbBlockTableRecord
  2
BLOCK_6
  0
ENDTAB
  0
ENDSEC
  0
SECTION
  2
BLOCKS
  0
BLOCK
  5
20
330
1F
100
AcDbEntity
  8
0
100
AcDbBlockBegin
  2
*MODEL_SPACE
 70
     0
 10
0.0
 20
0.0
 30
0.0
  3
*MODEL_SPACE
  1

  0
ENDBLK
  5
21
330
1F
100
AcDbEntity
  8
0
100
AcDbBlockEnd
  0
BLOCK
  5
1C
330
1B
100
AcDbEntity
 67
     1
  8
0
100
AcDbBlockBegin
  2
*PAPER_SPACE
 70
     0
 10
0.0
 20
0.0
 30
0.0
  3
*PAPER_SPACE
  1

  0
ENDBLK
  5
1D
330
1B
100
AcDbEntity
 67
     1
  8
0
100
AcDbBlockEnd
  0
BLOCK
  5
45
330
43
100
AcDbEntity
  8
0
100
AcDbBlockBegin
  2
BLOCK_2
 70
     0
 10
0.0
 20
0.0
 30
0.0
  3
BLOCK_2
  1

  0
SPLINE
  5
47
330
43
100
AcDbEntity
  8
LAYER_1
 62
   250
100
AcDbSpline
210
0.0
220
0.0
230
1.0
 70
    11
 71
     3
 72
    23
 73
    19
 74
     0
 42
0.0000000001
 43
0.0000000001
 12
1.0
 22
0.0
 32
0.0
 13
1.0
 23
0.0
 33
0.0
 40
0.0
 40
0.0
 40
0.0
 40
0.0
 40
1.0
 40
1.0
 40
1.0
 40
2.0
 40
2.0
 40
2.0
 40
3.0
 40
3.0
 40
3.0
 40
4.0
 40
4.0
 40
4.0
 40
5.0
 40
5.0
 40
5.0
 40
6.0
 40
6.0
 40
6.0
 40
6.0
 10
94.29508673610326
 20
-216.5944258212701
 30
0.0
 10
94.06191820308976
 20
-216.5944258212701
 30
0.0
 10
93.83167446297759
 20
-216.6026127145758
 30
0.0
 10
93.603850151983
 20
-216.6164470481702
 30
0.0
 10
92.06569335295166
 20
-216.7098319584551
 30
0.0
 10
90.6600366211079
 20
-217.1113561191496
 30
0.0
 10
89.5230249599329
 20
-217.7291128090381
 30
0.0
 10
87.79277938650159
 20
-218.6691842034836
 30
0.0
 10
86.68488299634737
 20
-220.1084918463126
 30
0.0
 10
86.68488299634737
 20
-221.7228575040114
 30
0.0
 10
86.68488299634737
 20
-224.5552130522667
 30
0.0
 10
90.09208353215897
 20
-226.8512955037997
 30
0.0
 10
94.29508673610326
 20
-226.8512955037997
 30
0.0
 10
98.49808362299987
 20
-226.8512955037997
 30
0.0
 10
101.9052841588115
 20
-224.5552130522667
 30
0.0
 10
101.9052841588115
 20
-221.7228575040114
 30
0.0
 10
101.9052841588115
 20
-218.8905019557561
 30
0.0
 10
98.49808362299987
 20
-216.5944258212701
 30
0.0
 10
94.29508673610326
 20
-216.5944258212701
 30
0.0
  0
ENDBLK
  5
46
330
43
100
AcDbEntity
  8
0
100
AcDbBlockEnd
  0
BLOCK
  5
4A
330
48
100
AcDbEntity
  8
0
100
AcDbBlockBegin
  2
BLOCK_3
 70
     0
 10
0.0
 20
0.0
 30
0.0
  3
BLOCK_3
  1

  0
SPLINE
  5
4C
330
48
100
AcDbEntity
  8
LAYER_1
 62
   250
100
AcDbSpline
210
0.0
220
0.0
230
1.0
 70
    11
 71
     3
 72
    53
 73
    49
 74
     0
 42
0.0000000001
 43
0.0000000001
 12
1.0
 22
0.0
 32
0.0
 13
1.0
 23
0.0
 33
0.0
 40
0.0
 40
0.0
 40
0.0
 40
0.0
 40
1.0
 40
1.0
 40
1.0
 40
2.0
 40
2.0
 40
2.0
 40
3.0
 40
3.0
 40
3.0
 40
4.0
 40
4.0
 40
4.0
 40
5.0
 40
5.0
 40
5.0
 40
6.0
 40
6.0
 40
6.0
 40
7.0
 40
7.0
 40
7.0
 40
8.0
 40
8.0
 40
8.0
 40
9.0
 40
9.0
 40
9.0
 40
10.0
 40
10.0
 40
10.0
 40
11.0
 40
11.0
 40
11.0
 40
12.0
 40
12.0
 40
12.0
 40
13.0
 40
13.0
 40
13.0
 40
14.0
 40
14.0
 40
14.0
 40
15.0
 40
15.0
 40
15.0
 40
16.0
 40
16.0
 40
16.0
 40
16.0
 10
92.30545056630247
 20
-202.815911923167
 30
0.0
 10
91.57469453425247
 20
-199.8768172266277
 30
0.0
 10
90.01332258638136
 20
-197.697486443355
 30
0.0
 10
87.90898778869366
 20
-196.6792289544355
 30
0.0
 10
85.56283642023462
 20
-195.5438786767007
 30
0.0
 10
82.93898765232034
 20
-195.4844478956711
 30
0.0
 10
80.52082194460309
 20
-196.5117008599504
 30
0.0
 10
77.7193883428977
 20
-197.7017314991422
 30
0.0
 10
75.46056383635985
 20
-200.2011597033699
 30
0.0
 10
74.47843985801532
 20
-203.1976131894236
 30
0.0
 10
73.00035186179122
 20
-207.7073279910866
 30
0.0
 10
73.52562697915853
 20
-212.6472589822964
 30
0.0
 10
73.98904556933094
 20
-217.00566786695
 30
0.0
 10
73.98904556933094
 20
-217.00566786695
 30
0.0
 10
74.00385272821016
 20
-217.1449966622722
 30
0.0
 10
74.00385272821016
 20
-217.1449966622722
 30
0.0
 10
74.11270808734145
 20
-218.1695206621165
 30
0.0
 10
74.97854785892575
 20
-218.9302447665743
 30
0.0
 10
75.98624324475423
 20
-218.9302447665743
 30
0.0
 10
76.05669095628126
 20
-218.9302447665743
 30
0.0
 10
76.1279472498624
 20
-218.9265050745705
 30
0.0
 10
76.19960783447158
 20
-218.9188740814278
 30
0.0
 10
77.29579241892507
 20
-218.8023877291539
 30
0.0
 10
78.09002214227887
 20
-217.8193035596196
 30
0.0
 10
77.97348525362726
 20
-216.7231189751668
 30
0.0
 10
77.97348525362726
 20
-216.7231189751668
 30
0.0
 10
77.95867809474804
 20
-216.5835880343299
 30
0.0
 10
77.95867809474804
 20
-216.5835880343299
 30
0.0
 10
77.5171417564341
 20
-212.4309127462517
 30
0.0
 10
77.06054557734892
 20
-208.1368366713353
 30
0.0
 10
78.27190256823684
 20
-204.4409091714776
 30
0.0
 10
78.89117534947755
 20
-202.5515561276175
 30
0.0
 10
80.35096917671098
 20
-200.9211514868152
 30
0.0
 10
82.08163799231146
 20
-200.1859482534636
 30
0.0
 10
83.03121654294915
 20
-199.7824152717262
 30
0.0
 10
84.51142706706688
 20
-199.4700499166712
 30
0.0
 10
86.17023315254481
 20
-200.2726686788434
 30
0.0
 10
87.54436781834525
 20
-200.9375758098036
 30
0.0
 10
88.17678005797664
 20
-202.7550155871629
 30
0.0
 10
88.43143286886863
 20
-203.7791352959798
 30
0.0
 10
89.50334104053555
 20
-208.0904190077505
 30
0.0
 10
89.8687569588443
 20
-212.084346897096
 30
0.0
 10
89.5230249599329
 20
-215.659012356919
 30
0.0
 10
90.6600366211079
 20
-215.0412556670311
 30
0.0
 10
92.06569335295166
 20
-214.6397315063366
 30
0.0
 10
93.603850151983
 20
-214.546346596051
 30
0.0
 10
93.77600864214094
 20
-210.9225345082082
 30
0.0
 10
93.34253285618588
 20
-206.9869761359452
 30
0.0
 10
92.30545056630247
 20
-202.815911923167
 30
0.0
  0
ENDBLK
  5
4B
330
48
100
AcDbEntity
  8
0
100
AcDbBlockEnd
  0
BLOCK
  5
4F
330
4D
100
AcDbEntity
  8
0
100
AcDbBlockBegin
  2
BLOCK_4
 70
     0
 10
0.0
 20
0.0
 30
0.0
  3
BLOCK_4
  1

  0
SPLINE
  5
51
330
4D
100
AcDbEntity
  8
LAYER_1
 62
   250
100
AcDbSpline
210
0.0
220
0.0
230
1.0
 70
    11
 71
     3
 72
    23
 73
    19
 74
     0
 42
0.0000000001
 43
0.0000000001
 12
1.0
 22
0.0
 32
0.0
 13
1.0
 23
0.0
 33
0.0
 40
0.0
 40
0.0
 40
0.0
 40
0.0
 40
1.0
 40
1.0
 40
1.0
 40
2.0
 40
2.0
 40
2.0
 40
3.0
 40
3.0
 40
3.0
 40
4.0
 40
4.0
 40
4.0
 40
5.0
 40
5.0
 40
5.0
 40
6.0
 40
6.0
 40
6.0
 40
6.0
 10
25.00888492766327
 20
-216.5944258209743
 30
0.0
 10
25.24205346067678
 20
-216.5944258209846
 30
0.0
 10
25.47229720078863
 20
-216.6026127143005
 30
0.0
 10
25.70012151178257
 20
-216.6164470479051
 30
0.0
 10
27.23827831080975
 20
-216.7098319582594
 30
0.0
 10
28.64393504263585
 20
-217.1113561190168
 30
0.0
 10
29.78094670378295
 20
-217.7291128089566
 30
0.0
 10
31.51119227717189
 20
-218.6691842034797
 30
0.0
 10
32.61908866726164
 20
-220.1084918463582
 30
0.0
 10
32.6190886671888
 20
-221.7228575040569
 30
0.0
 10
32.61908866706207
 20
-224.5552130523122
 30
0.0
 10
29.21188813114715
 20
-226.8512955036925
 30
0.0
 10
25.00888492720285
 20
-226.8512955035039
 30
0.0
 10
20.80588804030625
 20
-226.8512955033152
 30
0.0
 10
17.39868750459796
 20
-224.5552130516288
 30
0.0
 10
17.39868750472501
 20
-221.7228575033742
 30
0.0
 10
17.39868750485207
 20
-218.8905019551182
 30
0.0
 10
20.80588804076667
 20
-216.5944258207856
 30
0.0
 10
25.00888492766327
 20
-216.5944258209743
 30
0.0
  0
ENDBLK
  5
50
330
4D
100
AcDbEntity
  8
0
100
AcDbBlockEnd
  0
BLOCK
  5
54
330
52
100
AcDbEntity
  8
0
100
AcDbBlockBegin
  2
BLOCK_5
 70
     0
 10
0.0
 20
0.0
 30
0.0
  3
BLOCK_5
  1

  0
SPLINE
  5
56
330
52
100
AcDbEntity
  8
LAYER_1
 62
   250
100
AcDbSpline
210
0.0
220
0.0
230
1.0
 70
    11
 71
     3
 72
    53
 73
    49
 74
     0
 42
0.0000000001
 43
0.0000000001
 12
1.0
 22
0.0
 32
0.0
 13
1.0
 23
0.0
 33
0.0
 40
0.0
 40
0.0
 40
0.0
 40
0.0
 40
1.0
 40
1.0
 40
1.0
 40
2.0
 40
2.0
 40
2.0
 40
3.0
 40
3.0
 40
3.0
 40
4.0
 40
4.0
 40
4.0
 40
5.0
 40
5.0
 40
5.0
 40
6.0
 40
6.0
 40
6.0
 40
7.0
 40
7.0
 40
7.0
 40
8.0
 40
8.0
 40
8.0
 40
9.0
 40
9.0
 40
9.0
 40
10.0
 40
10.0
 40
10.0
 40
11.0
 40
11.0
 40
11.0
 40
12.0
 40
12.0
 40
12.0
 40
13.0
 40
13.0
 40
13.0
 40
14.0
 40
14.0
 40
14.0
 40
15.0
 40
15.0
 40
15.0
 40
16.0
 40
16.0
 40
16.0
 40
16.0
 10
26.99852109808299
 20
-202.8159119229604
 30
0.0
 10
27.72927713026517
 20
-199.8768172264537
 30
0.0
 10
29.29064907823382
 20
-197.697486443251
 30
0.0
 10
31.39498387596741
 20
-196.6792289544259
 30
0.0
 10
33.74113524447746
 20
-195.5438786767976
 30
0.0
 10
36.3649840123943
 20
-195.4844478958854
 30
0.0
 10
38.78314972006537
 20
-196.5117008602732
 30
0.0
 10
41.58458332171716
 20
-197.7017314995908
 30
0.0
 10
43.84340782814303
 20
-200.2011597039198
 30
0.0
 10
44.82553180635313
 20
-203.1976131900178
 30
0.0
 10
46.30361980237446
 20
-207.7073279917469
 30
0.0
 10
45.77834468478576
 20
-212.647258982933
 30
0.0
 10
45.31492609441731
 20
-217.005667867566
 30
0.0
 10
45.31492609441731
 20
-217.005667867566
 30
0.0
 10
45.30011893553167
 20
-217.1449966628869
 30
0.0
 10
45.30011893553167
 20
-217.1449966628869
 30
0.0
 10
45.19126357635451
 20
-218.1695206627267
 30
0.0
 10
44.32542380473618
 20
-218.9302447671454
 30
0.0
 10
43.31772841890771
 20
-218.9302447671005
 30
0.0
 10
43.24728070738069
 20
-218.9302447670966
 30
0.0
 10
43.17602441379986
 20
-218.9265050750896
 30
0.0
 10
43.10436382919067
 20
-218.9188740819444
 30
0.0
 10
42.00817924474264
 20
-218.8023877296217
 30
0.0
 10
41.2139495214328
 20
-217.8193035600515
 30
0.0
 10
41.33048641013382
 20
-216.7231189756031
 30
0.0
 10
41.33048641013382
 20
-216.7231189756031
 30
0.0
 10
41.34529356901914
 20
-216.5835880347675
 30
0.0
 10
41.34529356901914
 20
-216.5835880347675
 30
0.0
 10
41.7868299075198
 20
-212.4309127467092
 30
0.0
 10
42.24342608679782
 20
-208.1368366718134
 30
0.0
 10
41.03206909607578
 20
-204.4409091719011
 30
0.0
 10
40.41279631491978
 20
-202.5515561280127
 30
0.0
 10
38.95300248775951
 20
-200.9211514871456
 30
0.0
 10
37.22233367219206
 20
-200.1859482537158
 30
0.0
 10
36.27275512157234
 20
-199.7824152719367
 30
0.0
 10
34.79254459746873
 20
-199.4700499168143
 30
0.0
 10
33.13373851195455
 20
-200.2726686789127
 30
0.0
 10
31.75960384612458
 20
-200.9375758098107
 30
0.0
 10
31.12719160641169
 20
-202.7550155871417
 30
0.0
 10
30.87253879547351
 20
-203.7791352959471
 30
0.0
 10
29.8006306236128
 20
-208.0904190076697
 30
0.0
 10
29.43521470512502
 20
-212.0843468969991
 30
0.0
 10
29.78094670387599
 20
-215.6590123568375
 30
0.0
 10
28.6439350427289
 20
-215.0412556668983
 30
0.0
 10
27.23827831090312
 20
-214.6397315061409
 30
0.0
 10
25.70012151187594
 20
-214.546346595786
 30
0.0
 10
25.52796302188067
 20
-210.9225345079355
 30
0.0
 10
25.96143880801251
 20
-206.9869761356924
 30
0.0
 10
26.99852109808299
 20
-202.8159119229604
 30
0.0
  0
ENDBLK
  5
55
330
52
100
AcDbEntity
  8
0
100
AcDbBlockEnd
  0
BLOCK
  5
60
330
5E
100
AcDbEntity
  8
0
100
AcDbBlockBegin
  2
BLOCK_6
 70
     0
 10
0.0
 20
0.0
 30
0.0
  3
BLOCK_6
  1

  0
IMAGE
  5
65
330
5E
100
AcDbEntity
  8
LAYER_1
 92
        8
310
0800000000000000
100
AcDbRasterImage
 90
        0
 10
7.281333331513116
 20
-273.9813332648378
 30
0.0
 11
0.0846666666455
 21
0.0
 31
0.0
 12
0.0
 22
0.0846666666455
 32
0.0
 13
1473.0
 23
450.0
340
63
 70
     3
280
     0
281
    50
282
    50
283
     0
360
66
 71
     1
 91
        2
 14
-0.5
 24
-0.5
 14
1472.5
 24
449.5
  0
ENDBLK
  5
61
330
5E
100
AcDbEntity
  8
0
100
AcDbBlockEnd
  0
ENDSEC
  0
SECTION
  2
ENTITIES
  0
SPLINE
  5
41
330
1F
100
AcDbEntity
  8
LAYER_1
 62
   250
100
AcDbSpline
210
0.0
220
0.0
230
1.0
 70
    11
 71
     3
 72
    47
 73
    43
 74
     0
 42
0.0000000001
 43
0.0000000001
 12
1.0
 22
0.0
 32
0.0
 13
1.0
 23
0.0
 33
0.0
 40
0.0
 40
0.0
 40
0.0
 40
0.0
 40
1.0
 40
1.0
 40
1.0
 40
2.0
 40
2.0
 40
2.0
 40
3.0
 40
3.0
 40
3.0
 40
4.0
 40
4.0
 40
4.0
 40
5.0
 40
5.0
 40
5.0
 40
6.0
 40
6.0
 40
6.0
 40
7.0
 40
7.0
 40
7.0
 40
8.0
 40
8.0
 40
8.0
 40
9.0
 40
9.0
 40
9.0
 40
10.0
 40
10.0
 40
10.0
 40
11.0
 40
11.0
 40
11.0
 40
12.0
 40
12.0
 40
12.0
 40
13.0
 40
13.0
 40
13.0
 40
14.0
 40
14.0
 40
14.0
 40
14.0
 10
7.509252175259324
 20
-261.4369909667685
 30
0.0
 10
7.509252175259324
 20
-261.4369909667685
 30
0.0
 10
-10.49988339995898
 20
-257.6676370091645
 30
0.0
 10
-15.94450578316455
 20
-235.470330369942
 30
0.0
 10
-21.38912816637012
 20
-213.2730237307196
 30
0.0
 10
-27.67138476237665
 20
-176.4565242558251
 30
0.0
 10
-11.33751761275994
 20
-148.166666629625
 30
0.0
 10
4.996349536856777
 20
-119.8768090034246
 30
0.0
 10
26.89227505676942
 20
-107.8993542248876
 30
0.0
 10
60.2802075817128
 20
-104.7993931730093
 30
0.0
 10
93.75832297055145
 20
-101.6910589352377
 30
0.0
 10
135.6672867337898
 20
-126.1590655994311
 30
0.0
 10
148.2317999258022
 20
-170.1348617714758
 30
0.0
 10
160.7963131178147
 20
-214.1106579435206
 30
0.0
 10
162.0527644370164
 20
-230.0257079867361
 30
0.0
 10
176.2925460546307
 20
-230.0257079867361
 30
0.0
 10
190.5323276722451
 20
-230.0257079867361
 30
0.0
 10
204.1540204115843
 20
-213.3158277784137
 30
0.0
 10
205.6097435026604
 20
-207.8284013475137
 30
0.0
 10
206.4778410228859
 20
-204.5560610883757
 30
0.0
 10
208.5635875305034
 20
-203.0212659575686
 30
0.0
 10
201.1339572643713
 20
-193.3627466115965
 30
0.0
 10
193.7043269982392
 20
-183.7042272656244
 30
0.0
 10
188.1321042986401
 20
-178.5034860793317
 30
0.0
 10
194.4472900248525
 20
-159.5579289006945
 30
0.0
 10
194.4472900248525
 20
-159.5579289006945
 30
0.0
 10
209.4922913137699
 20
-157.886262090814
 30
0.0
 10
220.2652551996617
 20
-185.1901533188504
 30
0.0
 10
220.2652551996617
 20
-185.1901533188504
 30
0.0
 10
251.8411838307225
 20
-177.017560026105
 30
0.0
 10
265.9574813363746
 20
-189.4621907218767
 30
0.0
 10
265.9574813363746
 20
-189.4621907218767
 30
0.0
 10
258.1563695569362
 20
-212.4940445468863
 30
0.0
 10
215.435995526676
 20
-208.7792294138202
 30
0.0
 10
215.435995526676
 20
-208.7792294138202
 30
0.0
 10
199.0316684547186
 20
-244.4205559162194
 30
0.0
 10
172.0909059321016
 20
-255.3332698494314
 30
0.0
 10
145.1501434094846
 20
-266.2459837826433
 30
0.0
 10
110.0248454369588
 20
-269.9972291971847
 30
0.0
 10
63.98683353122041
 20
-268.6331399555331
 30
0.0
 10
17.9488216254823
 20
-267.2690507138815
 30
0.0
 10
7.509252175259324
 20
-261.4369909667685
 30
0.0
 10
7.509252175259324
 20
-261.4369909667685
 30
0.0
  0
SPLINE
  5
42
330
1F
100
AcDbEntity
  8
LAYER_1
 62
   250
100
AcDbSpline
210
0.0
220
0.0
230
1.0
 70
    11
 71
     3
 72
    17
 73
    13
 74
     0
 42
0.0000000001
 43
0.0000000001
 12
1.0
 22
0.0
 32
0.0
 13
1.0
 23
0.0
 33
0.0
 40
0.0
 40
0.0
 40
0.0
 40
0.0
 40
1.0
 40
1.0
 40
1.0
 40
2.0
 40
2.0
 40
2.0
 40
3.0
 40
3.0
 40
3.0
 40
4.0
 40
4.0
 40
4.0
 40
4.0
 10
7.509252175259324
 20
-260.2369909670495
 30
0.0
 10
7.509252175259324
 20
-260.2369909670495
 30
0.0
 10
29.81730926192343
 20
-236.7785844074393
 30
0.0
 10
61.12887563201745
 20
-238.6096701600767
 30
0.0
 10
92.44044200211148
 20
-240.440755912714
 30
0.0
 10
131.4659349466697
 20
-264.4072749870813
 30
0.0
 10
131.4659349466697
 20
-264.4072749870813
 30
0.0
 10
131.4659349466697
 20
-264.4072749870813
 30
0.0
 10
103.2229441775675
 20
-269.9494698357054
 30
0.0
 10
56.80173741235411
 20
-267.173173614864
 30
0.0
 10
10.38053064714074
 20
-264.3968773940225
 30
0.0
 10
7.509252175259324
 20
-260.2369909670495
 30
0.0
 10
7.509252175259324
 20
-260.2369909670495
 30
0.0
  0
INSERT
  5
44
330
1F
100
AcDbEntity
  8
LAYER_1
100
AcDbBlockReference
  2
BLOCK_2
 10
0.0
 20
0.0
 30
0.0
  0
INSERT
  5
49
330
1F
100
AcDbEntity
  8
LAYER_1
100
AcDbBlockReference
  2
BLOCK_3
 10
0.0
 20
0.0
 30
0.0
  0
INSERT
  5
4E
330
1F
100
AcDbEntity
  8
LAYER_1
100
AcDbBlockReference
  2
BLOCK_4
 10
0.0
 20
0.0
 30
0.0
  0
INSERT
  5
53
330
1F
100
AcDbEntity
  8
LAYER_1
100
AcDbBlockReference
  2
BLOCK_5
 10
0.0
 20
0.0
 30
0.0
  0
SPLINE
  5
57
330
1F
100
AcDbEntity
  8
LAYER_1
 62
   250
100
AcDbSpline
210
0.0
220
0.0
230
1.0
 70
    11
 71
     3
 72
    17
 73
    13
 74
     0
 42
0.0000000001
 43
0.0000000001
 12
1.0
 22
0.0
 32
0.0
 13
1.0
 23
0.0
 33
0.0
 40
0.0
 40
0.0
 40
0.0
 40
0.0
 40
1.0
 40
1.0
 40
1.0
 40
2.0
 40
2.0
 40
2.0
 40
3.0
 40
3.0
 40
3.0
 40
4.0
 40
4.0
 40
4.0
 40
4.0
 10
63.83067076709512
 20
-117.7409691895103
 30
0.0
 10
63.83067076709512
 20
-118.3407969039605
 30
0.0
 10
60.85910364540452
 20
-118.8270533420552
 30
0.0
 10
57.1934898348771
 20
-118.8270533420552
 30
0.0
 10
53.52787602434967
 20
-118.8270533420552
 30
0.0
 10
50.55630890265907
 20
-118.3407969039605
 30
0.0
 10
50.55630890265907
 20
-117.7409691895103
 30
0.0
 10
50.55630890265907
 20
-117.1411414750604
 30
0.0
 10
53.52787602434967
 20
-116.6548850369657
 30
0.0
 10
57.1934898348771
 20
-116.6548850369657
 30
0.0
 10
60.85910364540452
 20
-116.6548850369657
 30
0.0
 10
63.83067076709512
 20
-117.1411414750604
 30
0.0
 10
63.83067076709512
 20
-117.7409691895103
 30
0.0
  0
SPLINE
  5
58
330
1F
100
AcDbEntity
  8
LAYER_1
 62
   250
100
AcDbSpline
210
0.0
220
0.0
230
1.0
 70
    11
 71
     3
 72
    17
 73
    13
 74
     0
 42
0.0000000001
 43
0.0000000001
 12
1.0
 22
0.0
 32
0.0
 13
1.0
 23
0.0
 33
0.0
 40
0.0
 40
0.0
 40
0.0
 40
0.0
 40
1.0
 40
1.0
 40
1.0
 40
2.0
 40
2.0
 40
2.0
 40
3.0
 40
3.0
 40
3.0
 40
4.0
 40
4.0
 40
4.0
 40
4.0
 10
64.39973889075664
 20
-110.1365741412137
 30
0.0
 10
64.39973889075664
 20
-111.7731263235695
 30
0.0
 10
63.0730512173164
 20
-113.0998139970097
 30
0.0
 10
61.43649903496066
 20
-113.0998139970097
 30
0.0
 10
59.79994685260524
 20
-113.0998139970097
 30
0.0
 10
58.473259179165
 20
-111.7731263235695
 30
0.0
 10
58.473259179165
 20
-110.1365741412137
 30
0.0
 10
58.473259179165
 20
-108.5000219588583
 30
0.0
 10
59.79994685260524
 20
-107.1733342854181
 30
0.0
 10
61.43649903496066
 20
-107.1733342854181
 30
0.0
 10
63.0730512173164
 20
-107.1733342854181
 30
0.0
 10
64.39973889075664
 20
-108.5000219588583
 30
0.0
 10
64.39973889075664
 20
-110.1365741412137
 30
0.0
  0
SPLINE
  5
59
330
1F
100
AcDbEntity
  8
LAYER_1
 62
   250
100
AcDbSpline
210
0.0
220
0.0
230
1.0
 70
    11
 71
     3
 72
    17
 73
    13
 74
     0
 42
0.0000000001
 43
0.0000000001
 12
1.0
 22
0.0
 32
0.0
 13
1.0
 23
0.0
 33
0.0
 40
0.0
 40
0.0
 40
0.0
 40
0.0
 40
1.0
 40
1.0
 40
1.0
 40
2.0
 40
2.0
 40
2.0
 40
3.0
 40
3.0
 40
3.0
 40
4.0
 40
4.0
 40
4.0
 40
4.0
 10
56.17407927378879
 20
-64.1625860159823
 30
0.0
 10
56.17407927378879
 20
-65.43238801465432
 30
0.0
 10
55.14470136729091
 20
-66.4617659211522
 30
0.0
 10
53.87489936861889
 20
-66.4617659211522
 30
0.0
 10
52.60509736994719
 20
-66.4617659211522
 30
0.0
 10
51.57571946344931
 20
-65.43238801465432
 30
0.0
 10
51.57571946344931
 20
-64.1625860159823
 30
0.0
 10
51.57571946344931
 20
-62.8927840173106
 30
0.0
 10
52.60509736994719
 20
-61.86340611081272
 30
0.0
 10
53.87489936861889
 20
-61.86340611081272
 30
0.0
 10
55.14470136729091
 20
-61.86340611081272
 30
0.0
 10
56.17407927378879
 20
-62.8927840173106
 30
0.0
 10
56.17407927378879
 20
-64.1625860159823
 30
0.0
  0
SPLINE
  5
5A
330
1F
100
AcDbEntity
  8
LAYER_1
 62
   250
100
AcDbSpline
210
0.0
220
0.0
230
1.0
 70
    11
 71
     3
 72
    17
 73
    13
 74
     0
 42
0.0000000001
 43
0.0000000001
 12
1.0
 22
0.0
 32
0.0
 13
1.0
 23
0.0
 33
0.0
 40
0.0
 40
0.0
 40
0.0
 40
0.0
 40
1.0
 40
1.0
 40
1.0
 40
2.0
 40
2.0
 40
2.0
 40
3.0
 40
3.0
 40
3.0
 40
4.0
 40
4.0
 40
4.0
 40
4.0
 10
67.3322489267678
 20
-98.60594338033982
 30
0.0
 10
67.3322489267678
 20
-100.7049835414336
 30
0.0
 10
65.63064066899103
 20
-102.4065917992103
 30
0.0
 10
63.53160050789729
 20
-102.4065917992103
 30
0.0
 10
61.43256034680419
 20
-102.4065917992103
 30
0.0
 10
59.73095208902743
 20
-100.7049835414336
 30
0.0
 10
59.73095208902743
 20
-98.60594338033982
 30
0.0
 10
59.73095208902743
 20
-96.50690321924672
 30
0.0
 10
61.43256034680419
 20
-94.80529496146995
 30
0.0
 10
63.53160050789729
 20
-94.80529496146995
 30
0.0
 10
65.63064066899103
 20
-94.80529496146995
 30
0.0
 10
67.3322489267678
 20
-96.50690321924672
 30
0.0
 10
67.3322489267678
 20
-98.60594338033982
 30
0.0
  0
SPLINE
  5
5B
330
1F
100
AcDbEntity
  8
LAYER_1
 62
   250
100
AcDbSpline
210
0.0
220
0.0
230
1.0
 70
    11
 71
     3
 72
    17
 73
    13
 74
     0
 42
0.0000000001
 43
0.0000000001
 12
1.0
 22
0.0
 32
0.0
 13
1.0
 23
0.0
 33
0.0
 40
0.0
 40
0.0
 40
0.0
 40
0.0
 40
1.0
 40
1.0
 40
1.0
 40
2.0
 40
2.0
 40
2.0
 40
3.0
 40
3.0
 40
3.0
 40
4.0
 40
4.0
 40
4.0
 40
4.0
 10
60.12032787831425
 20
-87.68114834259195
 30
0.0
 10
60.12032787831425
 20
-89.51395524777352
 30
0.0
 10
58.63454431753537
 20
-90.99973880855241
 30
0.0
 10
56.80173741235379
 20
-90.99973880855241
 30
0.0
 10
54.96893050717254
 20
-90.99973880855241
 30
0.0
 10
53.48314694639398
 20
-89.51395524777352
 30
0.0
 10
53.48314694639398
 20
-87.68114834259195
 30
0.0
 10
53.48314694639398
 20
-85.84834143741101
 30
0.0
 10
54.96893050717254
 20
-84.36255787663212
 30
0.0
 10
56.80173741235379
 20
-84.36255787663212
 30
0.0
 10
58.63454431753537
 20
-84.36255787663212
 30
0.0
 10
60.12032787831425
 20
-85.84834143741101
 30
0.0
 10
60.12032787831425
 20
-87.68114834259195
 30
0.0
  0
SPLINE
  5
5C
330
1F
100
AcDbEntity
  8
LAYER_1
 62
   250
100
AcDbSpline
210
0.0
220
0.0
230
1.0
 70
    11
 71
     3
 72
    17
 73
    13
 74
     0
 42
0.0000000001
 43
0.0000000001
 12
1.0
 22
0.0
 32
0.0
 13
1.0
 23
0.0
 33
0.0
 40
0.0
 40
0.0
 40
0.0
 40
0.0
 40
1.0
 40
1.0
 40
1.0
 40
2.0
 40
2.0
 40
2.0
 40
3.0
 40
3.0
 40
3.0
 40
4.0
 40
4.0
 40
4.0
 40
4.0
 10
57.24941185470399
 20
-101.5351580570131
 30
0.0
 10
57.24941185470399
 20
-105.251958812924
 30
0.0
 10
54.23634951507103
 20
-108.265021152557
 30
0.0
 10
50.51954875916017
 20
-108.265021152557
 30
0.0
 10
46.80274800324996
 20
-108.265021152557
 30
0.0
 10
43.789685663617
 20
-105.251958812924
 30
0.0
 10
43.789685663617
 20
-101.5351580570131
 30
0.0
 10
43.789685663617
 20
-97.81835730110323
 30
0.0
 10
46.80274800324996
 20
-94.80529496146995
 30
0.0
 10
50.51954875916017
 20
-94.80529496146995
 30
0.0
 10
54.23634951507103
 20
-94.80529496146995
 30
0.0
 10
57.24941185470399
 20
-97.81835730110323
 30
0.0
 10
57.24941185470399
 20
-101.5351580570131
 30
0.0
  0
SPLINE
  5
5D
330
1F
100
AcDbEntity
  8
LAYER_1
 62
   250
100
AcDbSpline
210
0.0
220
0.0
230
1.0
 70
    11
 71
     3
 72
    17
 73
    13
 74
     0
 42
0.0000000001
 43
0.0000000001
 12
1.0
 22
0.0
 32
0.0
 13
1.0
 23
0.0
 33
0.0
 40
0.0
 40
0.0
 40
0.0
 40
0.0
 40
1.0
 40
1.0
 40
1.0
 40
2.0
 40
2.0
 40
2.0
 40
3.0
 40
3.0
 40
3.0
 40
4.0
 40
4.0
 40
4.0
 40
4.0
 10
70.2614636034411
 20
-73.82713862817076
 30
0.0
 10
70.2614636034411
 20
-77.54393938408163
 30
0.0
 10
67.24840126380815
 20
-80.55700172371458
 30
0.0
 10
63.53160050789729
 20
-80.55700172371458
 30
0.0
 10
59.81479975198707
 20
-80.55700172371458
 30
0.0
 10
56.80173741235411
 20
-77.54393938408163
 30
0.0
 10
56.80173741235411
 20
-73.82713862817076
 30
0.0
 10
56.80173741235411
 20
-70.11033787226087
 30
0.0
 10
59.81479975198707
 20
-67.09727553262759
 30
0.0
 10
63.53160050789729
 20
-67.09727553262759
 30
0.0
 10
67.24840126380815
 20
-67.09727553262759
 30
0.0
 10
70.2614636034411
 20
-70.11033787226087
 30
0.0
 10
70.2614636034411
 20
-73.82713862817076
 30
0.0
  0
INSERT
  5
5F
330
1F
100
AcDbEntity
  8
LAYER_1
100
AcDbBlockReference
  2
BLOCK_6
 10
0.0
 20
0.0
 30
0.0
  0
ENDSEC
  0
SECTION
  2
OBJECTS
  0
DICTIONARY
  5
C
330
0
100
AcDbDictionary
  3
ACAD_GROUP
350
D
  3
ACAD_IMAGE_DICT
350
62
  3
ACAD_IMAGE_VARS
350
64
  3
ACAD_LAYOUT
350
1A
  3
ACAD_MATERIAL
350
3B
  3
ACAD_MLEADERSTYLE
350
89
  3
ACAD_MLINESTYLE
350
17
  3
ACAD_PLOTSETTINGS
350
19
  3
ACAD_VISUALSTYLE
350
2A
  3
ACDBHEADERROUNDTRIPXREC
350
67
  3
ACDBVARIABLEDICTIONARY
350
87
  0
IMAGEDEF_REACTOR
  5
66
330
65
100
AcDbRasterImageDefReactor
 90
        2
330
65
  0
DICTIONARY
  5
D
102
{ACAD_REACTORS
330
C
102
}
330
C
100
AcDbDictionary
  0
DICTIONARY
  5
62
102
{ACAD_REACTORS
330
C
102
}
330
C
100
AcDbDictionary
  3
/USERS/N-STAR/FABLABKUWAIT
350
63
  0
RASTERVARIABLES
  5
64
102
{ACAD_REACTORS
330
C
102
}
330
C
100
AcDbRasterVariables
 90
        0
 70
     0
 71
     1
 72
     0
  0
DICTIONARY
  5
1A
102
{ACAD_REACTORS
330
C
102
}
330
C
100
AcDbDictionary
  0
DICTIONARY
  5
3B
102
{ACAD_REACTORS
330
C
102
}
330
C
100
AcDbDictionary
  3
BYBLOCK
350
3D
  3
BYLAYER
350
3C
  3
GLOBAL
350
3E
  0
DICTIONARY
  5
89
102
{ACAD_REACTORS
330
C
102
}
330
C
100
AcDbDictionary
  0
DICTIONARY
  5
17
102
{ACAD_REACTORS
330
C
102
}
330
C
100
AcDbDictionary
  3
STANDARD
350
18
  0
DICTIONARY
  5
19
102
{ACAD_REACTORS
330
C
102
}
330
C
100
AcDbDictionary
  0
DICTIONARY
  5
2A
102
{ACAD_REACTORS
330
C
102
}
330
C
100
AcDbDictionary
  3
2DWIREFRAME
350
2F
  3
3DWIREFRAME
350
30
  3
3D_HIDDEN
350
31
  3
BASIC
350
32
  3
BRIGHTEN
350
36
  3
COLORCHANGE
350
3A
  3
CONCEPTUAL
350
34
  3
DIM
350
35
  3
FACEPATTERN
350
39
  3
FLAT
350
2B
  3
FLATWITHEDGES
350
2C
  3
GOURAUD
350
2D
  3
GOURAUDWITHEDGES
350
2E
  3
LINEPATTERN
350
38
  3
REALISTIC
350
33
  3
THICKEN
350
37
  0
DICTIONARY
  5
67
102
{ACAD_REACTORS
330
C
102
}
330
C
100
AcDbDictionary
  3
CEPSNTYPE
350
70
  3
DIMSTYLEDATA
350
86
  3
FINGERPRINTGUID
350
71
  3
HYPERLINKBASE
350
6A
  3
INSUNITS
350
6F
  3
LAYOUTDICT
350
6C
  3
LWETCUNION
350
6E
  3
PLOTSETDICT
350
6D
  3
PSVPSCALE
350
73
  3
PUCSBASE
350
76
  3
PUCSORGBACK
350
7C
  3
PUCSORGBOTTOM
350
78
  3
PUCSORGFRONT
350
7B
  3
PUCSORGLEFT
350
79
  3
PUCSORGRIGHT
350
7A
  3
PUCSORGTOP
350
77
  3
PUCSORTHOREF
350
74
  3
PUCSORTHOVIEW
350
75
  3
STYLESHEET
350
6B
  3
TSTACKALIGN
350
68
  3
TSTACKSIZE
350
69
  3
UCSBASE
350
7F
  3
UCSORGBACK
350
85
  3
UCSORGBOTTOM
350
81
  3
UCSORGFRONT
350
84
  3
UCSORGLEFT
350
82
  3
UCSORGRIGHT
350
83
  3
UCSORGTOP
350
80
  3
UCSORTHOREF
350
7D
  3
UCSORTHOVIEW
350
7E
  3
VERSIONGUID
350
72
  0
DICTIONARY
  5
87
102
{ACAD_REACTORS
330
C
102
}
330
C
100
AcDbDictionary
  3
DIMASSOC
350
8A
  3
HIDETEXT
350
8B
  0
IMAGEDEF
  5
63
102
{ACAD_REACTORS
330
62
330
66
102
}
330
62
100
AcDbRasterImageDef
 90
        0
  1
/Users/n-star/fablabkuwait/students/475/src/week2_1.png
 10
1473.0
 20
450.0
 11
0.3527777777777777
 21
0.3527777777777777
280
     1
281
     5
  0
MATERIAL
  5
3D
102
{ACAD_REACTORS
330
3B
102
}
102
{ACAD_XDICTIONARY
360
8E
102
}
330
3B
100
AcDbMaterial
  1
ByBlock
  0
MATERIAL
  5
3C
102
{ACAD_REACTORS
330
3B
102
}
102
{ACAD_XDICTIONARY
360
8C
102
}
330
3B
100
AcDbMaterial
  1
ByLayer
  0
MATERIAL
  5
3E
102
{ACAD_REACTORS
330
3B
102
}
102
{ACAD_XDICTIONARY
360
90
102
}
330
3B
100
AcDbMaterial
  1
Global
  0
MLINESTYLE
  5
18
102
{ACAD_REACTORS
330
17
102
}
330
17
100
AcDbMlineStyle
  2
Standard
 70
     0
  3

 62
   256
 51
90.0
 52
90.0
 71
     2
 49
0.5
 62
   256
  6
BYLAYER
 49
-0.5
 62
   256
  6
BYLAYER
  0
ACAD_PROXY_OBJECT
  5
2F
102
{ACAD_REACTORS
330
2A
102
}
330
2A
100
AcDbProxyObject
 90
      499
 91
      501
 93
      436
310
42CC9915DA5C99599C985B595049028333333333333E3BF0000000000000FB0107901411070040501600405405064090741402480A0340
1001
ACAD
1000
AcDbSavedByObjectVersion
1070
     0
  0
ACAD_PROXY_OBJECT
  5
30
102
{ACAD_REACTORS
330
2A
102
}
330
2A
100
AcDbProxyObject
 90
      499
 91
      501
 93
      436
310
42CCD915DA5C99599C985B595059028333333333333E3BF0000000000000FB0107901411070040501600405405064090741402480A0340
1001
ACAD
1000
AcDbSavedByObjectVersion
1070
     0
  0
ACAD_PROXY_OBJECT
  5
31
102
{ACAD_REACTORS
330
2A
102
}
330
2A
100
AcDbProxyObject
 90
      499
 91
      501
 93
      500
310
424CD108121A5919195B90640502408333333333333E3BF0000000000000FB01079024090700405020000000000001110200405405064090740C02480A0340
1001
ACAD
1000
AcDbSavedByObjectVersion
1070
     0
  0
ACAD_PROXY_OBJECT
  5
32
102
{ACAD_REACTORS
330
2A
102
}
330
2A
100
AcDbProxyObject
 90
      499
 91
      501
 93
      388
310
4150985CDA58D07406404333333333333E3BF0000000000000FB0107A41107004050150841D405064090741402480A0350
1001
ACAD
1000
AcDbSavedByObjectVersion
1070
     0
  0
ACAD_PROXY_OBJECT
  5
36
102
{ACAD_REACTORS
330
2A
102
}
330
2A
100
AcDbProxyObject
 90
      499
 91
      501
 93
      428
310
42109C9A59DA1D195B90C409028333333333333E3BF0000000000000FB010790141107004050150841D405064090741402480A029950
1001
ACAD
1000
AcDbSavedByObjectVersion
1070
     0
  0
ACAD_PROXY_OBJECT
  5
3A
102
{ACAD_REACTORS
330
2A
102
}
330
2A
100
AcDbProxyObject
 90
      499
 91
      501
 93
      452
310
42D0DBDB1BDC90DA185B99D95104090240C333333333333E3BF0000000000000FB0108901411070040501508421405064090741402480A0350
1001
ACAD
1000
AcDbSavedByObjectVersion
1070
     0
  0
ACAD_PROXY_OBJECT
  5
34
102
{ACAD_REACTORS
330
2A
102
}
330
2A
100
AcDbProxyObject
 90
      499
 91
      501
 93
      500
310
4290DBDB98D95C1D1D585B10940D028333333333333E3BF0000000000000FB0107902409070040501000000000000111010841D405064090740C02480A0340
1001
ACAD
1000
AcDbSavedByObjectVersion
1070
     0
  0
ACAD_PROXY_OBJECT
  5
35
102
{ACAD_REACTORS
330
2A
102
}
330
2A
100
AcDbProxyObject
 90
      499
 91
      501
 93
      412
310
40D11A5B50B409028333333333333E3BF0000000000000FB010790141107004050150841D405064090741402480A02677FFFFFD0
1001
ACAD
1000
AcDbSavedByObjectVersion
1070
     0
  0
ACAD_PROXY_OBJECT
  5
39
102
{ACAD_REACTORS
330
2A
102
}
330
2A
100
AcDbProxyObject
 90
      499
 91
      501
 93
      444
310
42D19858D95C185D1D195C9B90F409028333333333333E3BF0000000000000FB010790141107004050150841D405064090741402480A0350
1001
ACAD
1000
AcDbSavedByObjectVersion
1070
     0
  0
ACAD_PROXY_OBJECT
  5
2B
102
{ACAD_REACTORS
330
2A
102
}
330
2A
100
AcDbProxyObject
 90
      499
 91
      501
 93
      388
310
41119B185D240901404333333333333E3BF0000000000000F9010740A41107004050150841D405064090741402480A1B50
1001
ACAD
1000
AcDbSavedByObjectVersion
1070
     0
  0
ACAD_PROXY_OBJECT
  5
2C
102
{ACAD_REACTORS
330
2A
102
}
330
2A
100
AcDbProxyObject
 90
      499
 91
      501
 93
      476
310
43519B185D15DA5D1A115919D95CD0140901404333333333333E3BF0000000000000F9010740901411070040501600405405064090741402480A1B50
1001
ACAD
1000
AcDbSavedByObjectVersion
1070
     0
  0
ACAD_PROXY_OBJECT
  5
2D
102
{ACAD_REACTORS
330
2A
102
}
330
2A
100
AcDbProxyObject
 90
      499
 91
      501
 93
      412
310
41D1DBDD5C985D5910240902404333333333333E3BF0000000000000F9010740A411070040501641D405064090741402480A1B50
1001
ACAD
1000
AcDbSavedByObjectVersion
1070
     0
  0
ACAD_PROXY_OBJECT
  5
2E
102
{ACAD_REACTORS
330
2A
102
}
330
2A
100
AcDbProxyObject
 90
      499
 91
      501
 93
      500
310
4411DBDD5C985D5915DA5D1A115919D95CD0340902404333333333333E3BF0000000000000F9010740901411070040501600405405064090741402480A1B50
1001
ACAD
1000
AcDbSavedByObjectVersion
1070
     0
  0
ACAD_PROXY_OBJECT
  5
38
102
{ACAD_REACTORS
330
2A
102
}
330
2A
100
AcDbProxyObject
 90
      499
 91
      501
 93
      444
310
42D31A5B995C185D1D195C9B90E409028333333333333E3BF0000000000000FB010790141107004050750841D405064090741402483A0350
1001
ACAD
1000
AcDbSavedByObjectVersion
1070
     0
  0
ACAD_PROXY_OBJECT
  5
33
102
{ACAD_REACTORS
330
2A
102
}
330
2A
100
AcDbProxyObject
 90
      499
 91
      501
 93
      420
310
425499585B1A5CDD1A58D08409028333333333333E3BF0000000000000FB01079019070040501508421405064090741402480A1B40
1001
ACAD
1000
AcDbSavedByObjectVersion
1070
     0
  0
ACAD_PROXY_OBJECT
  5
37
102
{ACAD_REACTORS
330
2A
102
}
330
2A
100
AcDbProxyObject
 90
      499
 91
      501
 93
      412
310
41D51A1A58DAD95B90D409028333333333333E3BF0000000000000FB010790141107004050150C41D405064090741402480A0350
1001
ACAD
1000
AcDbSavedByObjectVersion
1070
     0
  0
XRECORD
  5
70
102
{ACAD_REACTORS
330
67
102
}
330
67
100
AcDbXrecord
 90
        0
  0
XRECORD
  5
86
102
{ACAD_REACTORS
330
67
102
}
330
67
100
AcDbXrecord
1000
DSTYLE
1002
{
1070
   340
340
11
1002
}
  0
XRECORD
  5
71
102
{ACAD_REACTORS
330
67
102
}
330
67
100
AcDbXrecord
  1
{ADFB69AF-313F-AA8C-E07A-A588E9A51174}
  0
XRECORD
  5
6A
102
{ACAD_REACTORS
330
67
102
}
330
67
100
AcDbXrecord
  1

  0
XRECORD
  5
6F
102
{ACAD_REACTORS
330
67
102
}
330
67
100
AcDbXrecord
 90
        1
  0
XRECORD
  5
6C
102
{ACAD_REACTORS
330
67
102
}
330
67
100
AcDbXrecord
340
1A
  0
XRECORD
  5
6E
102
{ACAD_REACTORS
330
67
102
}
330
67
100
AcDbXrecord
 90
    10269
  0
XRECORD
  5
6D
102
{ACAD_REACTORS
330
67
102
}
330
67
100
AcDbXrecord
340
19
  0
XRECORD
  5
73
102
{ACAD_REACTORS
330
67
102
}
330
67
100
AcDbXrecord
 40
0.0
  0
XRECORD
  5
76
102
{ACAD_REACTORS
330
67
102
}
330
67
100
AcDbXrecord
340
0
  0
XRECORD
  5
7C
102
{ACAD_REACTORS
330
67
102
}
330
67
100
AcDbXrecord
 10
0.0
 20
0.0
 30
0.0
  0
XRECORD
  5
78
102
{ACAD_REACTORS
330
67
102
}
330
67
100
AcDbXrecord
 10
0.0
 20
0.0
 30
0.0
  0
XRECORD
  5
7B
102
{ACAD_REACTORS
330
67
102
}
330
67
100
AcDbXrecord
 10
0.0
 20
0.0
 30
0.0
  0
XRECORD
  5
79
102
{ACAD_REACTORS
330
67
102
}
330
67
100
AcDbXrecord
 10
0.0
 20
0.0
 30
0.0
  0
XRECORD
  5
7A
102
{ACAD_REACTORS
330
67
102
}
330
67
100
AcDbXrecord
 10
0.0
 20
0.0
 30
0.0
  0
XRECORD
  5
77
102
{ACAD_REACTORS
330
67
102
}
330
67
100
AcDbXrecord
 10
0.0
 20
0.0
 30
0.0
  0
XRECORD
  5
74
102
{ACAD_REACTORS
330
67
102
}
330
67
100
AcDbXrecord
340
0
  0
XRECORD
  5
75
102
{ACAD_REACTORS
330
67
102
}
330
67
100
AcDbXrecord
 70
     0
  0
XRECORD
  5
6B
102
{ACAD_REACTORS
330
67
102
}
330
67
100
AcDbXrecord
  1

  0
XRECORD
  5
68
102
{ACAD_REACTORS
330
67
102
}
330
67
100
AcDbXrecord
 90
        1
  0
XRECORD
  5
69
102
{ACAD_REACTORS
330
67
102
}
330
67
100
AcDbXrecord
 90
       70
  0
XRECORD
  5
7F
102
{ACAD_REACTORS
330
67
102
}
330
67
100
AcDbXrecord
340
0
  0
XRECORD
  5
85
102
{ACAD_REACTORS
330
67
102
}
330
67
100
AcDbXrecord
 10
0.0
 20
0.0
 30
0.0
  0
XRECORD
  5
81
102
{ACAD_REACTORS
330
67
102
}
330
67
100
AcDbXrecord
 10
0.0
 20
0.0
 30
0.0
  0
XRECORD
  5
84
102
{ACAD_REACTORS
330
67
102
}
330
67
100
AcDbXrecord
 10
0.0
 20
0.0
 30
0.0
  0
XRECORD
  5
82
102
{ACAD_REACTORS
330
67
102
}
330
67
100
AcDbXrecord
 10
0.0
 20
0.0
 30
0.0
  0
XRECORD
  5
83
102
{ACAD_REACTORS
330
67
102
}
330
67
100
AcDbXrecord
 10
0.0
 20
0.0
 30
0.0
  0
XRECORD
  5
80
102
{ACAD_REACTORS
330
67
102
}
330
67
100
AcDbXrecord
 10
0.0
 20
0.0
 30
0.0
  0
XRECORD
  5
7D
102
{ACAD_REACTORS
330
67
102
}
330
67
100
AcDbXrecord
340
0
  0
XRECORD
  5
7E
102
{ACAD_REACTORS
330
67
102
}
330
67
100
AcDbXrecord
 70
     0
  0
XRECORD
  5
72
102
{ACAD_REACTORS
330
67
102
}
330
67
100
AcDbXrecord
  1
{FAEB1C32-E019-11D5-929B-00C0DF256EC4}
  0
DICTIONARYVAR
  5
8A
102
{ACAD_REACTORS
330
87
102
}
330
87
100
DictionaryVariables
280
     0
  1
2
  0
DICTIONARYVAR
  5
8B
102
{ACAD_REACTORS
330
87
102
}
330
87
100
DictionaryVariables
280
     0
  1
1
  0
DICTIONARY
  5
8E
330
3D
100
AcDbDictionary
280
     1
  3
ACAD_XREC_ROUNDTRIP
360
8F
  0
DICTIONARY
  5
8C
330
3C
100
AcDbDictionary
280
     1
  3
ACAD_XREC_ROUNDTRIP
360
8D
  0
DICTIONARY
  5
90
330
3E
100
AcDbDictionary
280
     1
  3
ACAD_XREC_ROUNDTRIP
360
91
  0
XRECORD
  5
8F
102
{ACAD_REACTORS
330
8E
102
}
330
8E
100
AcDbXrecord
102
MATERIAL
148
0.0
149
0.0
149
0.0
 93
        0
 94
      127
282
     0
 72
     1
 77
     1
171
     1
175
     1
179
     1
273
     0
  0
XRECORD
  5
8D
102
{ACAD_REACTORS
330
8C
102
}
330
8C
100
AcDbXrecord
102
MATERIAL
148
0.0
149
0.0
149
0.0
 93
        0
 94
      127
282
     0
 72
     1
 77
     1
171
     1
175
     1
179
     1
273
     0
  0
XRECORD
  5
91
102
{ACAD_REACTORS
330
90
102
}
330
90
100
AcDbXrecord
102
MATERIAL
148
0.0
149
0.0
149
0.0
 93
        0
 94
      127
282
     0
 72
     1
 77
     1
171
     1
175
     1
179
     1
273
     0
  0
ENDSEC
  0
EOF
