0
SECTION
2
HEADER
9
$INSUNITS
70
4
9
$ACADVER
1
AC1014
9
$HANDSEED
5
FFFF
0
ENDSEC
0
SECTION
2
TABLES
0
TABLE
2
VPORT
5
8
100
AcDbSymbolTable
0
ENDTAB
0
TABLE
2
LTYPE
5
5
100
AcDbSymbolTable
0
LTYPE
5
14
100
AcDbSymbolTableRecord
100
AcDbLinetypeTableRecord
2
BYBLOCK
70
0
0
LTYPE
5
15
100
AcDbSymbolTableRecord
100
AcDbLinetypeTableRecord
2
BYLAYER
70
0
0
ENDTAB
0
TABLE
2
LAYER
5
2
100
AcDbSymbolTable
70
2
0
LAYER
5
50
100
AcDbSymbolTableRecord
100
AcDbLayerTableRecord
2
0
70
0
6
CONTINUOUS
0
ENDTAB
0
TABLE
2
STYLE
5
3
100
AcDbSymbolTable
70
1
0
STYLE
5
11
100
AcDbSymbolTableRecord
100
AcDbTextStyleTableRecord
2
STANDARD
70
0
0
ENDTAB
0
TABLE
2
VIEW
5
6
100
AcDbSymbolTable
70
0
0
ENDTAB
0
TABLE
2
UCS
5
7
100
AcDbSymbolTable
70
0
0
ENDTAB
0
TABLE
2
APPID
5
9
100
AcDbSymbolTable
70
2
0
APPID
5
12
100
AcDbSymbolTableRecord
100
AcDbRegAppTableRecord
2
ACAD
70
0
0
ENDTAB
0
TABLE
2
DIMSTYLE
5
A
100
AcDbSymbolTable
70
1
0
ENDTAB
0
TABLE
2
BLOCK_RECORD
5
1
100
AcDbSymbolTable
70
1
0
BLOCK_RECORD
5
1F
100
AcDbSymbolTableRecord
100
AcDbBlockTableRecord
2
*MODEL_SPACE
0
BLOCK_RECORD
5
1B
100
AcDbSymbolTableRecord
100
AcDbBlockTableRecord
2
*PAPER_SPACE
0
ENDTAB
0
ENDSEC
0
SECTION
2
BLOCKS
0
BLOCK
5
20
100
AcDbEntity
100
AcDbBlockBegin
2
*MODEL_SPACE
0
ENDBLK
5
21
100
AcDbEntity
100
AcDbBlockEnd
0
BLOCK
5
1C
100
AcDbEntity
100
AcDbBlockBegin
2
*PAPER_SPACE
0
ENDBLK
5
1D
100
AcDbEntity
100
AcDbBlockEnd
0
ENDSEC
0
SECTION
2
ENTITIES
0
LINE
5
100
100
AcDbEntity
8
0
100
AcDbLine
10
67.342051001357063
20
-163.36795659603763
30
0
11
67.349218332144389
21
-163.3554246004893
31
0
0
SPLINE
5
101
100
AcDbEntity
8
0
100
AcDbSpline
70
1064
71
3
72
23
73
19
74
0
42
0.000000001
43
0.0000000001
44
0.0000000001
40
1
40
1
40
1
40
1
40
2
40
2
40
2
40
3
40
3
40
3
40
4
40
4
40
4
40
5
40
5
40
5
40
6
40
6
40
6
40
7
40
7
40
7
40
7
10
67.349218332144389
20
-163.3554246004893
30
0
10
66.299455705053361
20
-162.82725212144669
30
0
10
65.577552961496338
20
-161.73959234115159
30
0
10
65.577552961496338
20
-160.48647945296369
30
0
10
65.577552961496338
20
-159.61038376418068
30
0
10
65.599570870437461
20
-159.30802520420374
30
0
10
66.061256789669443
20
-158.77890405954901
30
0
10
66.859568431395687
20
-157.86398863313946
30
0
10
67.417138974682857
20
-156.2891796106457
30
0
10
67.417138974682857
20
-154.9492440866332
30
0
10
67.417138974682857
20
-153.53595392201231
30
0
10
66.924112143611779
20
-152.15899249440278
30
0
10
66.028878134504311
20
-151.07209079725556
30
0
10
65.144291414850358
20
-149.9981159514783
30
0
10
63.910197205535368
20
-149.25521493037695
30
0
10
62.553962035572098
20
-148.98037420696619
30
0
10
62.474749099413927
20
-148.9643217249488
30
0
10
62.400250090175462
20
-148.94737155202381
30
0
10
62.351751440737388
20
-148.93440622329632
30
0
0
SPLINE
5
102
100
AcDbEntity
8
0
100
AcDbSpline
70
1064
71
3
72
8
73
4
74
0
42
0.000000001
43
0.0000000001
44
0.0000000001
40
7
40
7
40
7
40
7
40
8
40
8
40
8
40
8
10
62.351751440737388
20
-148.93440622329632
30
0
10
62.249172810510061
20
-148.9007449019204
30
0
10
61.885380939740401
20
-148.74165962509909
30
0
10
61.885380939740401
20
-148.46644105619882
30
0
0
LINE
5
103
100
AcDbEntity
8
0
100
AcDbLine
10
61.885380939740401
20
-148.46644105619882
30
0
11
61.885380939740401
21
-144.42785382416719
31
0
0
SPLINE
5
104
100
AcDbEntity
8
0
100
AcDbSpline
70
1064
71
3
72
17
73
13
74
0
42
0.000000001
43
0.0000000001
44
0.0000000001
40
9
40
9
40
9
40
9
40
10
40
10
40
10
40
11
40
11
40
11
40
12
40
12
40
12
40
13
40
13
40
13
40
13
10
61.885380939740401
20
-144.42785382416719
30
0
10
62.847757597873738
20
-143.87284935465595
30
0
10
63.416867062374067
20
-142.71226826693169
30
0
10
63.068839852671147
20
-141.46591104301061
30
0
10
62.859188927145972
20
-140.71510714305359
30
0
10
62.060044442287918
20
-139.93023064051656
30
0
10
61.306512812039685
20
-139.7306153261101
30
0
10
59.587644523133363
20
-139.27527620013305
30
0
10
58.039544639237697
20
-140.55882769856899
30
0
10
58.039544639237697
20
-142.20395544750031
30
0
10
58.039544639237697
20
-143.16401160645782
30
0
10
58.567119118493068
20
-144.00037714268731
30
0
10
59.347825174494545
20
-144.44042481970169
30
0
0
LINE
5
105
100
AcDbEntity
8
0
100
AcDbLine
10
59.347825174494545
20
-144.44042481970169
30
0
11
59.347825174494545
21
-148.46644105619882
31
0
0
SPLINE
5
106
100
AcDbEntity
8
0
100
AcDbSpline
70
1064
71
3
72
8
73
4
74
0
42
0.000000001
43
0.0000000001
44
0.0000000001
40
14
40
14
40
14
40
14
40
15
40
15
40
15
40
15
10
59.347825174494545
20
-148.46644105619882
30
0
10
59.347825174494545
20
-148.74165962509909
30
0
10
58.984033303725205
20
-148.9007449019204
30
0
10
58.881454673497579
20
-148.93440622329632
30
0
0
SPLINE
5
107
100
AcDbEntity
8
0
100
AcDbSpline
70
1064
71
3
72
23
73
19
74
0
42
0.000000001
43
0.0000000001
44
0.0000000001
40
15
40
15
40
15
40
15
40
16
40
16
40
16
40
17
40
17
40
17
40
18
40
18
40
18
40
19
40
19
40
19
40
20
40
20
40
20
40
21
40
21
40
21
40
21
10
58.881454673497579
20
-148.93440622329632
30
0
10
58.832956024059186
20
-148.94737155202381
30
0
10
58.758457014821019
20
-148.96432172494877
30
0
10
58.679244078662549
20
-148.98037420696619
30
0
10
57.323008908699158
20
-149.25521493037644
30
0
10
56.088914699384731
20
-149.99811595147813
30
0
10
55.204327979730643
20
-151.07209079725556
30
0
10
54.309093970623294
20
-152.15899249440264
30
0
10
53.816067139551791
20
-153.53595392201231
30
0
10
53.816067139551791
20
-154.9492440866332
30
0
10
53.816067139551791
20
-156.2891796106457
30
0
10
54.373637682839764
20
-157.86398863313931
30
0
10
55.171949324565865
20
-158.77890405954901
30
0
10
55.633635243797599
20
-159.30802520420366
30
0
10
55.655653152738637
20
-159.61038376418068
30
0
10
55.655653152738637
20
-160.48647945296369
30
0
10
55.655653152738637
20
-161.73959234115159
30
0
10
54.933750409181606
20
-162.82725212144669
30
0
10
53.883987782090905
20
-163.3554246004893
30
0
0
LINE
5
108
100
AcDbEntity
8
0
100
AcDbLine
10
53.883987782090905
20
-163.3554246004893
30
0
11
53.891155112878209
21
-163.36795659603763
31
0
0
SPLINE
5
109
100
AcDbEntity
8
0
100
AcDbSpline
70
1064
71
3
72
14
73
10
74
0
42
0.000000001
43
0.0000000001
44
0.0000000001
40
22
40
22
40
22
40
22
40
23
40
23
40
23
40
24
40
24
40
24
40
25
40
25
40
25
40
25
10
53.891155112878209
20
-163.36795659603763
30
0
10
53.686810352134707
20
-163.50232888163754
30
0
10
53.557685118085494
20
-163.7417260180429
30
0
10
53.581614389503542
20
-164.00960820143609
30
0
10
53.609301503444769
20
-164.31955848804779
30
0
10
53.847606889560325
20
-164.57680042483449
30
0
10
54.154530685985478
20
-164.62811981505433
30
0
10
54.307585929425493
20
-164.65371151519219
30
0
10
54.452139580265111
20
-164.62726831535667
30
0
10
54.576319869485815
20
-164.56587583716481
30
0
0
LINE
5
110
100
AcDbEntity
8
0
100
AcDbLine
10
54.576319869485815
20
-164.56587583716481
30
0
11
54.584033200079112
21
-164.57936333237382
31
0
0
SPLINE
5
111
100
AcDbEntity
8
0
100
AcDbSpline
70
1064
71
3
72
20
73
16
74
0
42
0.000000001
43
0.0000000001
44
0.0000000001
40
26
40
26
40
26
40
26
40
27
40
27
40
27
40
28
40
28
40
28
40
29
40
29
40
29
40
30
40
30
40
30
40
31
40
31
40
31
40
31
10
54.584033200079112
20
-164.57936333237382
30
0
10
56.057166676774926
20
-163.80683644013368
30
0
10
57.064436652293907
20
-162.26206648888518
30
0
10
57.064436652293907
20
-160.48647945296369
30
0
10
57.064436652293907
20
-159.44027449127591
30
0
10
57.008489691276374
20
-158.7409396936302
30
0
10
56.233442280823056
20
-157.85268038857359
30
0
10
55.744506954124802
20
-157.29232582490039
30
0
10
55.224850639106748
20
-156.08433435007981
30
0
10
55.224850639106748
20
-154.9492440866332
30
0
10
55.224850639106748
20
-153.86188980622941
30
0
10
55.603715354481352
20
-152.80302562642638
30
0
10
56.291716926788581
20
-151.96773847909293
30
0
10
56.971418954882111
20
-151.14252762066556
30
0
10
57.918692348834895
20
-150.57192030826539
30
0
10
58.95896931262871
20
-150.36107771649651
30
0
0
ELLIPSE
5
112
100
AcDbEntity
8
0
100
AcDbEllipse
10
58.89960838945391
20
-150.3375988788849
30
0
11
0.48566877765450073
21
0.094526204418729332
31
0.0
40
0.069913642274790244
41
4.8213025587967628
42
5.5496655155147252
0
LINE
5
113
100
AcDbEntity
8
0
100
AcDbLine
10
59.264798537321511
20
-150.29011507503833
30
0
11
59.278699865716945
21
-150.28609374313382
31
0
0
SPLINE
5
114
100
AcDbEntity
8
0
100
AcDbSpline
70
1064
71
3
72
8
73
4
74
0
42
0.000000001
43
0.0000000001
44
0.0000000001
40
33
40
33
40
33
40
33
40
34
40
34
40
34
40
34
10
59.278699865716945
20
-150.28609374313382
30
0
10
59.772413690333856
20
-150.13898146205932
30
0
10
60.354960816727967
20
-149.71616527892331
30
0
10
60.61660305711748
20
-149.12054665717301
30
0
0
SPLINE
5
115
100
AcDbEntity
8
0
100
AcDbSpline
70
1064
71
3
72
8
73
4
74
0
42
0.000000001
43
0.0000000001
44
0.0000000001
40
34
40
34
40
34
40
34
40
35
40
35
40
35
40
35
10
60.61660305711748
20
-149.12054665717301
30
0
10
60.878245297506986
20
-149.71616527892331
30
0
10
61.460792423901431
20
-150.13898146205932
30
0
10
61.954506248518008
20
-150.28609374313382
30
0
0
LINE
5
116
100
AcDbEntity
8
0
100
AcDbLine
10
61.954506248518008
20
-150.28609374313382
30
0
11
61.968407576913435
21
-150.29011507503833
31
0
0
ELLIPSE
5
117
100
AcDbEntity
8
0
100
AcDbEllipse
10
62.333597724735782
20
-150.33759887888175
30
0
11
0.48566877759562943
21
-0.094526204409773731
31
0.0
40
0.069913642271700327
41
3.8751124452572845
42
4.6034754020519593
0
SPLINE
5
118
100
AcDbEntity
8
0
100
AcDbSpline
70
1064
71
3
72
20
73
16
74
0
42
0.000000001
43
0.0000000001
44
0.0000000001
40
37
40
37
40
37
40
37
40
38
40
38
40
38
40
39
40
39
40
39
40
40
40
40
40
40
40
41
40
41
40
41
40
42
40
42
40
42
40
42
10
62.274236801606563
20
-150.36107771649651
30
0
10
63.314513765400378
20
-150.57192030826539
30
0
10
64.261787159352977
20
-151.14252762066573
30
0
10
64.941489187446379
20
-151.96773847909293
30
0
10
65.629490759753722
20
-152.80302562642652
30
0
10
66.008355475127885
20
-153.86188980622941
30
0
10
66.008355475127885
20
-154.9492440866332
30
0
10
66.008355475127885
20
-156.08433435007981
30
0
10
65.488699160110556
20
-157.29232582490044
30
0
10
64.999763833412231
20
-157.85268038857359
30
0
10
64.224716422958664
20
-158.74093969363025
30
0
10
64.16876946194138
20
-159.44027449127591
30
0
10
64.16876946194138
20
-160.48647945296369
30
0
10
64.16876946194138
20
-162.26206648888518
30
0
10
65.176039437460034
20
-163.80683644013368
30
0
10
66.649172914156154
20
-164.57936333237382
30
0
0
LINE
5
119
100
AcDbEntity
8
0
100
AcDbLine
10
66.649172914156154
20
-164.57936333237382
30
0
11
66.65688624474916
21
-164.56587583716481
31
0
0
SPLINE
5
120
100
AcDbEntity
8
0
100
AcDbSpline
70
1064
71
3
72
14
73
10
74
0
42
0.000000001
43
0.0000000001
44
0.0000000001
40
43
40
43
40
43
40
43
40
44
40
44
40
44
40
45
40
45
40
45
40
46
40
46
40
46
40
46
10
66.65688624474916
20
-164.56587583716481
30
0
10
66.781079533964913
20
-164.6272748153541
30
0
10
66.925648070871716
20
-164.65371417056974
30
0
10
67.078710094903656
20
-164.6281111483903
30
0
10
67.385635495320869
20
-164.57677106005676
30
0
10
67.623927338811086
20
-164.31951269596166
30
0
10
67.651593891397425
20
-164.0095562014545
30
0
10
67.675503001828773
20
-163.74169543228356
30
0
10
67.546380595438848
20
-163.50232021497413
30
0
10
67.342051001357063
20
-163.36795659603763
30
0
0
ENDSEC
0
SECTION
2
OBJECTS
0
DICTIONARY
5
C
100
AcDbDictionary
3
ACAD_GROUP
350
D
3
ACAD_MLINESTYLE
350
17
0
DICTIONARY
5
D
100
AcDbDictionary
0
DICTIONARY
5
1A
330
C
100
AcDbDictionary
0
DICTIONARY
5
17
100
AcDbDictionary
0
ENDSEC
0
EOF
